  0
SECTION
  2
HEADER
  9
$ACADVER
  1
AC1009
  9
$DWGCODEPAGE
  3
ansi_1252
  9
$INSBASE
 10
0.0
 20
0.0
 30
0.0
  9
$EXTMIN
 10
1.000000000000000E+20
 20
1.000000000000000E+20
 30
1.000000000000000E+20
  9
$EXTMAX
 10
-1.000000000000000E+20
 20
-1.000000000000000E+20
 30
-1.000000000000000E+20
  9
$LIMMIN
 10
0.0
 20
0.0
  9
$LIMMAX
 10
12.0
 20
9.0
  9
$ORTHOMODE
 70
     0
  9
$REGENMODE
 70
     1
  9
$FILLMODE
 70
     1
  9
$QTEXTMODE
 70
     0
  9
$MIRRTEXT
 70
     1
  9
$DRAGMODE
 70
     2
  9
$LTSCALE
 40
1.0
  9
$OSMODE
 70
    37
  9
$ATTMODE
 70
     1
  9
$TEXTSIZE
 40
0.2
  9
$TRACEWID
 40
0.05
  9
$TEXTSTYLE
  7
STANDARD
  9
$CLAYER
  8
0
  9
$CELTYPE
  6
BYLAYER
  9
$CECOLOR
 62
   256
  9
$DIMSCALE
 40
1.0
  9
$DIMASZ
 40
0.18
  9
$DIMEXO
 40
0.0625
  9
$DIMDLI
 40
0.38
  9
$DIMRND
 40
0.0
  9
$DIMDLE
 40
0.0
  9
$DIMEXE
 40
0.18
  9
$DIMTP
 40
0.0
  9
$DIMTM
 40
0.0
  9
$DIMTXT
 40
0.18
  9
$DIMCEN
 40
0.09
  9
$DIMTSZ
 40
0.0
  9
$DIMTOL
 70
     0
  9
$DIMLIM
 70
     0
  9
$DIMTIH
 70
     1
  9
$DIMTOH
 70
     1
  9
$DIMSE1
 70
     0
  9
$DIMSE2
 70
     0
  9
$DIMTAD
 70
     0
  9
$DIMZIN
 70
     0
  9
$DIMBLK
  1

  9
$DIMASO
 70
     1
  9
$DIMSHO
 70
     1
  9
$DIMPOST
  1

  9
$DIMAPOST
  1

  9
$DIMALT
 70
     0
  9
$DIMALTD
 70
     2
  9
$DIMALTF
 40
25.4
  9
$DIMLFAC
 40
1.0
  9
$DIMTOFL
 70
     0
  9
$DIMTVP
 40
0.0
  9
$DIMTIX
 70
     0
  9
$DIMSOXD
 70
     0
  9
$DIMSAH
 70
     0
  9
$DIMBLK1
  1

  9
$DIMBLK2
  1

  9
$DIMSTYLE
  2
STANDARD
  9
$DIMCLRD
 70
     0
  9
$DIMCLRE
 70
     0
  9
$DIMCLRT
 70
     0
  9
$DIMTFAC
 40
1.0
  9
$DIMGAP
 40
0.09
  9
$LUNITS
 70
     2
  9
$LUPREC
 70
     4
  9
$SKETCHINC
 40
0.1
  9
$FILLETRAD
 40
0.0
  9
$AUNITS
 70
     0
  9
$AUPREC
 70
     0
  9
$MENU
  1
.
  9
$ELEVATION
 40
0.0
  9
$PELEVATION
 40
0.0
  9
$THICKNESS
 40
0.0
  9
$LIMCHECK
 70
     0
  9
$CHAMFERA
 40
0.0
  9
$CHAMFERB
 40
0.0
  9
$SKPOLY
 70
     0
  9
$TDCREATE
 40
2460273.366728831
  9
$TDUPDATE
 40
2460273.366729074
  9
$TDINDWG
 40
0.0000000116
  9
$TDUSRTIMER
 40
0.0000000116
  9
$USRTIMER
 70
     1
  9
$ANGBASE
 50
0.0
  9
$ANGDIR
 70
     0
  9
$PDMODE
 70
     0
  9
$PDSIZE
 40
0.0
  9
$PLINEWID
 40
0.0
  9
$COORDS
 70
     1
  9
$SPLFRAME
 70
     0
  9
$SPLINETYPE
 70
     6
  9
$SPLINESEGS
 70
     8
  9
$ATTDIA
 70
     0
  9
$ATTREQ
 70
     1
  9
$HANDLING
 70
     1
  9
$HANDSEED
  5
4B5
  9
$SURFTAB1
 70
     6
  9
$SURFTAB2
 70
     6
  9
$SURFTYPE
 70
     6
  9
$SURFU
 70
     6
  9
$SURFV
 70
     6
  9
$UCSNAME
  2

  9
$UCSORG
 10
0.0
 20
0.0
 30
0.0
  9
$UCSXDIR
 10
1.0
 20
0.0
 30
0.0
  9
$UCSYDIR
 10
0.0
 20
1.0
 30
0.0
  9
$PUCSNAME
  2

  9
$PUCSORG
 10
0.0
 20
0.0
 30
0.0
  9
$PUCSXDIR
 10
1.0
 20
0.0
 30
0.0
  9
$PUCSYDIR
 10
0.0
 20
1.0
 30
0.0
  9
$USERI1
 70
     0
  9
$USERI2
 70
     0
  9
$USERI3
 70
     0
  9
$USERI4
 70
     0
  9
$USERI5
 70
     0
  9
$USERR1
 40
0.0
  9
$USERR2
 40
0.0
  9
$USERR3
 40
0.0
  9
$USERR4
 40
0.0
  9
$USERR5
 40
0.0
  9
$WORLDVIEW
 70
     1
  9
$SHADEDGE
 70
     3
  9
$SHADEDIF
 70
    70
  9
$TILEMODE
 70
     1
  9
$MAXACTVP
 70
    64
  9
$PLIMCHECK
 70
     0
  9
$PEXTMIN
 10
1.000000000000000E+20
 20
1.000000000000000E+20
 30
1.000000000000000E+20
  9
$PEXTMAX
 10
-1.000000000000000E+20
 20
-1.000000000000000E+20
 30
-1.000000000000000E+20
  9
$PLIMMIN
 10
0.0
 20
0.0
  9
$PLIMMAX
 10
12.0
 20
9.0
  9
$UNITMODE
 70
     0
  9
$VISRETAIN
 70
     1
  9
$PLINEGEN
 70
     0
  9
$PSLTSCALE
 70
     1
  0
ENDSEC
  0
SECTION
  2
TABLES
  0
TABLE
  2
VPORT
 70
     1
  0
VPORT
  2
*ACTIVE
 70
     0
 10
0.0
 20
0.0
 11
1.0
 21
1.0
 12
0.0
 22
0.0
 13
0.0
 23
0.0
 14
0.5
 24
0.5
 15
0.5
 25
0.5
 16
0.0
 26
0.0
 36
1.0
 17
0.0
 27
0.0
 37
-1000.0
 40
671.7079262310018
 41
1.658454647256439
 42
50.0
 43
721.7380701180379
 44
1304.432101687294
 50
0.0
 51
0.0
 71
     0
 72
   100
 73
     1
 74
     3
 75
     0
 76
     0
 77
     0
 78
     0
  0
ENDTAB
  0
TABLE
  2
LTYPE
 70
     1
  0
LTYPE
  2
CONTINUOUS
 70
     0
  3
Solid line
 72
    65
 73
     0
 40
0.0
  0
ENDTAB
  0
TABLE
  2
LAYER
 70
     3
  0
LAYER
  2
0
 70
     0
 62
     7
  6
CONTINUOUS
  0
LAYER
  2
PROFILEEDGES
 70
     0
 62
     7
  6
CONTINUOUS
  0
LAYER
  2
SECTIONCUTEDGES
 70
     0
 62
     7
  6
CONTINUOUS
  0
ENDTAB
  0
TABLE
  2
STYLE
 70
     1
  0
STYLE
  2
STANDARD
 70
     0
 40
0.0
 41
1.0
 50
0.0
 71
     0
 42
0.2
  3
txt
  4

  0
ENDTAB
  0
TABLE
  2
VIEW
 70
     0
  0
ENDTAB
  0
TABLE
  2
UCS
 70
     0
  0
ENDTAB
  0
TABLE
  2
APPID
 70
     1
  0
APPID
  2
ACAD
 70
     0
  0
ENDTAB
  0
TABLE
  2
DIMSTYLE
 70
     1
  0
DIMSTYLE
  2
STANDARD
 70
     0
  3

  4

  5

  6

  7

 40
1.0
 41
0.18
 42
0.0625
 43
0.38
 44
0.18
 45
0.0
 46
0.0
 47
0.0
 48
0.0
140
0.18
141
0.09
142
0.0
143
25.4
144
1.0
145
0.0
146
1.0
147
0.09
 71
     0
 72
     0
 73
     1
 74
     1
 75
     0
 76
     0
 77
     0
 78
     0
170
     0
171
     2
172
     0
173
     0
174
     0
175
     0
176
     0
177
     0
178
     0
  0
ENDTAB
  0
ENDSEC
  0
SECTION
  2
BLOCKS
  0
BLOCK
  8
0
  2
$MODEL_SPACE
 70
     0
 10
0.0
 20
0.0
 30
0.0
  3
$MODEL_SPACE
  1

  0
ENDBLK
  5
21
  8
0
  0
BLOCK
 67
     1
  8
0
  2
$PAPER_SPACE
 70
     0
 10
0.0
 20
0.0
 30
0.0
  3
$PAPER_SPACE
  1

  0
ENDBLK
  5
1D
 67
     1
  8
0
  0
ENDSEC
  0
SECTION
  2
ENTITIES
  0
POLYLINE
  5
60
  8
PROFILEEDGES
 66
     1
 10
0.0
 20
0.0
 30
0.0
  0
VERTEX
  5
1C1
  8
PROFILEEDGES
 10
-92.81065859312085
 20
164.3621407454982
 30
0.0
 40
1.50438505314894
 41
1.50438505314894
  0
VERTEX
  5
1C2
  8
PROFILEEDGES
 10
-93.66114370100632
 20
165.3404439340613
 30
0.0
 40
1.50438505314894
 41
1.50438505314894
  0
SEQEND
  5
3B9
  8
PROFILEEDGES
  0
POLYLINE
  5
61
  8
PROFILEEDGES
 66
     1
 10
0.0
 20
0.0
 30
0.0
  0
VERTEX
  5
1C3
  8
PROFILEEDGES
 10
-93.66114370100635
 20
-153.8718294856727
 30
0.0
 40
1.50438505314894
 41
1.50438505314894
  0
VERTEX
  5
1C4
  8
PROFILEEDGES
 10
-92.81065859312092
 20
-152.8935262971108
 30
0.0
 40
1.50438505314894
 41
1.50438505314894
  0
SEQEND
  5
3BA
  8
PROFILEEDGES
  0
POLYLINE
  5
62
  8
PROFILEEDGES
 66
     1
 10
0.0
 20
0.0
 30
0.0
  0
VERTEX
  5
1C5
  8
PROFILEEDGES
 10
-19.07879497127192
 20
-28.85976885595915
 30
0.0
 40
1.50438505314894
 41
1.50438505314894
  0
VERTEX
  5
1C6
  8
PROFILEEDGES
 10
-25.32639714305506
 20
-39.05492900049213
 30
0.0
 40
1.50438505314894
 41
1.50438505314894
  0
SEQEND
  5
3BB
  8
PROFILEEDGES
  0
POLYLINE
  5
63
  8
PROFILEEDGES
 66
     1
 10
0.0
 20
0.0
 30
0.0
  0
VERTEX
  5
1C7
  8
PROFILEEDGES
 10
-14.50298557273537
 20
-17.81278774717666
 30
0.0
 40
1.50438505314894
 41
1.50438505314894
  0
VERTEX
  5
1C8
  8
PROFILEEDGES
 10
-19.07879497127192
 20
-28.85976885595915
 30
0.0
 40
1.50438505314894
 41
1.50438505314894
  0
SEQEND
  5
3BC
  8
PROFILEEDGES
  0
POLYLINE
  5
64
  8
PROFILEEDGES
 66
     1
 10
0.0
 20
0.0
 30
0.0
  0
VERTEX
  5
1C9
  8
PROFILEEDGES
 10
-25.32639714305506
 20
-39.05492900049213
 30
0.0
 40
1.50438505314894
 41
1.50438505314894
  0
VERTEX
  5
1CA
  8
PROFILEEDGES
 10
-33.09195538801072
 20
-48.14722950222059
 30
0.0
 40
1.50438505314894
 41
1.50438505314894
  0
SEQEND
  5
3BD
  8
PROFILEEDGES
  0
POLYLINE
  5
65
  8
PROFILEEDGES
 66
     1
 10
0.0
 20
0.0
 30
0.0
  0
VERTEX
  5
1CB
  8
PROFILEEDGES
 10
-42.1842558897397
 20
-55.91278774717668
 30
0.0
 40
1.50438505314894
 41
1.50438505314894
  0
VERTEX
  5
1CC
  8
PROFILEEDGES
 10
-33.09195538801072
 20
-48.14722950222059
 30
0.0
 40
1.50438505314894
 41
1.50438505314894
  0
SEQEND
  5
3BE
  8
PROFILEEDGES
  0
POLYLINE
  5
66
  8
PROFILEEDGES
 66
     1
 10
0.0
 20
0.0
 30
0.0
  0
VERTEX
  5
1CD
  8
PROFILEEDGES
 10
-81.1363256357313
 20
164.3621407454994
 30
0.0
 40
1.50438505314894
 41
1.50438505314894
  0
VERTEX
  5
1CE
  8
PROFILEEDGES
 10
-80.29505682586083
 20
165.3471399665199
 30
0.0
 40
1.50438505314894
 41
1.50438505314894
  0
SEQEND
  5
3BF
  8
PROFILEEDGES
  0
POLYLINE
  5
67
  8
PROFILEEDGES
 66
     1
 10
0.0
 20
0.0
 30
0.0
  0
VERTEX
  5
1CF
  8
PROFILEEDGES
 10
-88.26485862333305
 20
162.0459399725815
 30
0.0
 40
1.50438505314894
 41
1.50438505314894
  0
VERTEX
  5
1D0
  8
PROFILEEDGES
 10
-86.97349211442608
 20
161.9443072241943
 30
0.0
 40
1.50438505314894
 41
1.50438505314894
  0
SEQEND
  5
3C0
  8
PROFILEEDGES
  0
POLYLINE
  5
68
  8
PROFILEEDGES
 66
     1
 10
0.0
 20
0.0
 30
0.0
  0
VERTEX
  5
1D1
  8
PROFILEEDGES
 10
-81.1363256357313
 20
176.0364737028893
 30
0.0
 40
1.50438505314894
 41
1.50438505314894
  0
VERTEX
  5
1D2
  8
PROFILEEDGES
 10
-82.1213248567514
 20
176.8777425127596
 30
0.0
 40
1.50438505314894
 41
1.50438505314894
  0
SEQEND
  5
3C1
  8
PROFILEEDGES
  0
POLYLINE
  5
69
  8
PROFILEEDGES
 66
     1
 10
0.0
 20
0.0
 30
0.0
  0
VERTEX
  5
1D3
  8
PROFILEEDGES
 10
-79.87272269981125
 20
174.3622878257428
 30
0.0
 40
1.50438505314894
 41
1.50438505314894
  0
VERTEX
  5
1D4
  8
PROFILEEDGES
 10
-79.36397713543556
 20
173.3331702219411
 30
0.0
 40
1.50438505314894
 41
1.50438505314894
  0
SEQEND
  5
3C2
  8
PROFILEEDGES
  0
POLYLINE
  5
6A
  8
PROFILEEDGES
 66
     1
 10
0.0
 20
0.0
 30
0.0
  0
VERTEX
  5
1D5
  8
PROFILEEDGES
 10
-85.6821256055191
 20
162.0459399725815
 30
0.0
 40
1.50438505314894
 41
1.50438505314894
  0
VERTEX
  5
1D6
  8
PROFILEEDGES
 10
-86.97349211442608
 20
161.9443072241943
 30
0.0
 40
1.50438505314894
 41
1.50438505314894
  0
SEQEND
  5
3C3
  8
PROFILEEDGES
  0
POLYLINE
  5
6B
  8
PROFILEEDGES
 66
     1
 10
0.0
 20
0.0
 30
0.0
  0
VERTEX
  5
1D7
  8
PROFILEEDGES
 10
-78.82012486281293
 20
171.4906737331015
 30
0.0
 40
1.50438505314894
 41
1.50438505314894
  0
VERTEX
  5
1D8
  8
PROFILEEDGES
 10
-79.1225205724096
 20
172.7502425127596
 30
0.0
 40
1.50438505314894
 41
1.50438505314894
  0
SEQEND
  5
3C4
  8
PROFILEEDGES
  0
LINE
  5
6C
  8
0
 10
-78.61325706172194
 20
153.7914220812656
 30
0.0
 11
-76.14942669346027
 21
155.3012592727796
 31
0.0
  0
LINE
  5
6D
  8
0
 10
-72.07544416301111
 20
181.0233726451602
 30
0.0
 11
-73.95212073887562
 21
183.2206785997446
 31
0.0
  0
LINE
  5
6E
  8
0
 10
-81.2829441630114
 20
187.7130129717695
 30
0.0
 11
-84.09275144070973
 21
188.3875880162538
 31
0.0
  0
POLYLINE
  5
6F
  8
PROFILEEDGES
 66
     1
 10
0.0
 20
0.0
 30
0.0
  0
VERTEX
  5
1D9
  8
PROFILEEDGES
 10
-93.6615598802434
 20
165.3665873901902
 30
0.0
 40
1.50438505314894
 41
1.50438505314894
  0
VERTEX
  5
1DA
  8
PROFILEEDGES
 10
-92.81065859312085
 20
164.3621407454982
 30
0.0
 40
1.50438505314894
 41
1.50438505314894
  0
SEQEND
  5
3C5
  8
PROFILEEDGES
  0
LINE
  5
70
  8
0
 10
-76.14942669346027
 20
155.3012592727796
 30
0.0
 11
-73.95212073887562
 21
157.1779358486441
 31
0.0
  0
LINE
  5
71
  8
0
 10
-69.4597863668507
 20
164.5087592727797
 30
0.0
 11
-68.78521132236644
 21
167.3185665504785
 31
0.0
  0
POLYLINE
  5
72
  8
PROFILEEDGES
 66
     1
 10
0.0
 20
0.0
 30
0.0
  0
VERTEX
  5
1DB
  8
PROFILEEDGES
 10
-52.37941603427261
 20
-62.1603899189593
 30
0.0
 40
1.50438505314894
 41
1.50438505314894
  0
VERTEX
  5
1DC
  8
PROFILEEDGES
 10
-42.1842558897397
 20
-55.91278774717668
 30
0.0
 40
1.50438505314894
 41
1.50438505314894
  0
SEQEND
  5
3C6
  8
PROFILEEDGES
  0
LINE
  5
73
  8
0
 10
-81.2829441630114
 20
152.685601476619
 30
0.0
 11
-78.61325706172194
 21
153.7914220812656
 31
0.0
  0
LINE
  5
74
  8
0
 10
-68.55849211442622
 20
170.1993072241943
 30
0.0
 11
-68.78521132236644
 21
173.0800478979101
 31
0.0
  0
LINE
  5
75
  8
0
 10
-68.78521132236644
 20
173.0800478979101
 30
0.0
 11
-69.4597863668507
 21
175.889855175609
 31
0.0
  0
LINE
  5
76
  8
0
 10
-76.14942669346027
 20
185.097355175609
 30
0.0
 11
-78.61325706172194
 21
186.6071923671231
 31
0.0
  0
POLYLINE
  5
77
  8
PROFILEEDGES
 66
     1
 10
0.0
 20
0.0
 30
0.0
  0
VERTEX
  5
1DD
  8
PROFILEEDGES
 10
-75.05318587836018
 20
-69.52754432915518
 30
0.0
 40
1.50438505314894
 41
1.50438505314894
  0
VERTEX
  5
1DE
  8
PROFILEEDGES
 10
-86.97349211442608
 20
-70.46569277580568
 30
0.0
 40
1.50438505314894
 41
1.50438505314894
  0
SEQEND
  5
3C7
  8
PROFILEEDGES
  0
LINE
  5
78
  8
0
 10
-70.56560697149715
 20
161.8390721714906
 30
0.0
 11
-69.4597863668507
 21
164.5087592727797
 31
0.0
  0
LINE
  5
79
  8
0
 10
-84.09275144070973
 20
152.0110264321349
 30
0.0
 11
-81.2829441630114
 21
152.685601476619
 31
0.0
  0
LINE
  5
7A
  8
0
 10
-78.61325706172194
 20
186.6071923671231
 30
0.0
 11
-81.2829441630114
 21
187.7130129717695
 31
0.0
  0
POLYLINE
  5
7B
  8
PROFILEEDGES
 66
     1
 10
0.0
 20
0.0
 30
0.0
  0
VERTEX
  5
1DF
  8
PROFILEEDGES
 10
-63.42639714305506
 20
-66.73619931749639
 30
0.0
 40
1.50438505314894
 41
1.50438505314894
  0
VERTEX
  5
1E0
  8
PROFILEEDGES
 10
-75.05318587836018
 20
-69.52754432915518
 30
0.0
 40
1.50438505314894
 41
1.50438505314894
  0
SEQEND
  5
3C8
  8
PROFILEEDGES
  0
LINE
  5
7C
  8
0
 10
-70.56560697149715
 20
178.5595422768981
 30
0.0
 11
-72.07544416301111
 21
181.0233726451602
 31
0.0
  0
LINE
  5
7D
  8
0
 10
-73.95212073887562
 20
157.1779358486441
 30
0.0
 11
-72.07544416301111
 21
159.3752418032284
 31
0.0
  0
LINE
  5
7E
  8
0
 10
-68.78521132236644
 20
167.3185665504785
 30
0.0
 11
-68.55849211442622
 21
170.1993072241943
 31
0.0
  0
POLYLINE
  5
7F
  8
PROFILEEDGES
 66
     1
 10
0.0
 20
0.0
 30
0.0
  0
VERTEX
  5
1E1
  8
PROFILEEDGES
 10
-52.37941603427261
 20
-62.1603899189593
 30
0.0
 40
1.50438505314894
 41
1.50438505314894
  0
VERTEX
  5
1E2
  8
PROFILEEDGES
 10
-63.42639714305506
 20
-66.73619931749639
 30
0.0
 40
1.50438505314894
 41
1.50438505314894
  0
SEQEND
  5
3C9
  8
PROFILEEDGES
  0
LINE
  5
80
  8
0
 10
-69.4597863668507
 20
175.889855175609
 30
0.0
 11
-70.56560697149715
 21
178.5595422768981
 31
0.0
  0
LINE
  5
81
  8
0
 10
-73.95212073887562
 20
183.2206785997446
 30
0.0
 11
-76.14942669346027
 21
185.097355175609
 31
0.0
  0
LINE
  5
82
  8
0
 10
-72.07544416301111
 20
159.3752418032284
 30
0.0
 11
-70.56560697149715
 21
161.8390721714906
 31
0.0
  0
LINE
  5
83
  8
0
 10
-84.09275144070973
 20
188.3875880162538
 30
0.0
 11
-86.97349211442608
 21
188.6143072241942
 31
0.0
  0
POLYLINE
  5
84
  8
PROFILEEDGES
 66
     1
 10
0.0
 20
0.0
 30
0.0
  0
VERTEX
  5
1E3
  8
PROFILEEDGES
 10
-154.8681892575795
 20
-28.85976885595915
 30
0.0
 40
1.50438505314894
 41
1.50438505314894
  0
VERTEX
  5
1E4
  8
PROFILEEDGES
 10
-148.6205870857971
 20
-39.05492900049216
 30
0.0
 40
1.50438505314894
 41
1.50438505314894
  0
SEQEND
  5
3CA
  8
PROFILEEDGES
  0
LINE
  5
85
  8
0
 10
-92.66404006584075
 20
152.685601476619
 30
0.0
 11
-89.85423278814169
 21
152.0110264321349
 31
0.0
  0
LINE
  5
86
  8
0
 10
-89.85423278814169
 20
152.0110264321349
 30
0.0
 11
-86.97349211442608
 21
151.7843072241943
 31
0.0
  0
POLYLINE
  5
87
  8
PROFILEEDGES
 66
     1
 10
0.0
 20
0.0
 30
0.0
  0
VERTEX
  5
1E5
  8
PROFILEEDGES
 10
-162.2353436677755
 20
-6.185999011871303
 30
0.0
 40
1.50438505314894
 41
1.50438505314894
  0
VERTEX
  5
1E6
  8
PROFILEEDGES
 10
-163.1734921144261
 20
5.734307224194311
 30
0.0
 40
1.50438505314894
 41
1.50438505314894
  0
SEQEND
  5
3CB
  8
PROFILEEDGES
  0
LINE
  5
88
  8
0
 10
-95.33372716712948
 20
153.7914220812655
 30
0.0
 11
-92.66404006584075
 21
152.685601476619
 31
0.0
  0
LINE
  5
89
  8
0
 10
-86.97349211442608
 20
151.7843072241943
 30
0.0
 11
-84.09275144070973
 21
152.0110264321349
 31
0.0
  0
POLYLINE
  5
8A
  8
PROFILEEDGES
 66
     1
 10
0.0
 20
0.0
 30
0.0
  0
VERTEX
  5
1E7
  8
PROFILEEDGES
 10
-148.6205870857971
 20
-39.05492900049216
 30
0.0
 40
1.50438505314894
 41
1.50438505314894
  0
VERTEX
  5
1E8
  8
PROFILEEDGES
 10
-140.8550288408407
 20
-48.14722950222063
 30
0.0
 40
1.50438505314894
 41
1.50438505314894
  0
SEQEND
  5
3CC
  8
PROFILEEDGES
  0
LINE
  5
8B
  8
0
 10
-92.66404006584075
 20
187.7130129717695
 30
0.0
 11
-95.33372716712948
 21
186.6071923671231
 31
0.0
  0
LINE
  5
8C
  8
0
 10
-103.3813772573543
 20
178.5595422768981
 30
0.0
 11
-104.4871978620015
 21
175.889855175609
 31
0.0
  0
LINE
  5
8D
  8
0
 10
-104.4871978620015
 20
175.889855175609
 30
0.0
 11
-105.161772906485
 21
173.0800478979101
 31
0.0
  0
LINE
  5
8E
  8
0
 10
-97.79755753539187
 20
185.097355175609
 30
0.0
 11
-99.9948634899758
 21
183.2206785997446
 31
0.0
  0
LINE
  5
8F
  8
0
 10
-105.161772906485
 20
167.3185665504785
 30
0.0
 11
-104.4871978620007
 21
164.5087592727797
 31
0.0
  0
LINE
  5
90
  8
0
 10
-104.4871978620007
 20
164.5087592727797
 30
0.0
 11
-103.3813772573543
 21
161.8390721714906
 31
0.0
  0
LINE
  5
91
  8
0
 10
-105.161772906485
 20
173.0800478979101
 30
0.0
 11
-105.3884921144259
 21
170.1993072241943
 31
0.0
  0
LINE
  5
92
  8
0
 10
-97.79755753539187
 20
155.3012592727796
 30
0.0
 11
-95.33372716712948
 21
153.7914220812655
 31
0.0
  0
LINE
  5
93
  8
0
 10
-86.97349211442608
 20
178.4543072241944
 30
0.0
 11
-86.97349211442608
 21
188.6143072241942
 31
0.0
  0
LINE
  5
94
  8
0
 10
-95.33372716712948
 20
186.6071923671231
 30
0.0
 11
-97.79755753539187
 21
185.097355175609
 31
0.0
  0
POLYLINE
  5
95
  8
PROFILEEDGES
 66
     1
 10
0.0
 20
0.0
 30
0.0
  0
VERTEX
  5
1E9
  8
PROFILEEDGES
 10
-154.8681892575795
 20
-28.85976885595915
 30
0.0
 40
1.50438505314894
 41
1.50438505314894
  0
VERTEX
  5
1EA
  8
PROFILEEDGES
 10
-159.4439986561168
 20
-17.81278774717671
 30
0.0
 40
1.50438505314894
 41
1.50438505314894
  0
SEQEND
  5
3CD
  8
PROFILEEDGES
  0
LINE
  5
96
  8
0
 10
-86.97349211442608
 20
188.6143072241942
 30
0.0
 11
-89.85423278814169
 21
188.3875880162538
 31
0.0
  0
LINE
  5
97
  8
0
 10
-89.85423278814169
 20
188.3875880162538
 30
0.0
 11
-92.66404006584075
 21
187.7130129717695
 31
0.0
  0
LINE
  5
98
  8
0
 10
-101.8715400658403
 20
181.0233726451602
 30
0.0
 11
-103.3813772573543
 21
178.5595422768981
 31
0.0
  0
POLYLINE
  5
99
  8
PROFILEEDGES
 66
     1
 10
0.0
 20
0.0
 30
0.0
  0
VERTEX
  5
1EB
  8
PROFILEEDGES
 10
-159.4439986561168
 20
29.28140219556528
 30
0.0
 40
1.50438505314894
 41
1.50438505314894
  0
VERTEX
  5
1EC
  8
PROFILEEDGES
 10
-162.2353436677755
 20
17.65461346025988
 30
0.0
 40
1.50438505314894
 41
1.50438505314894
  0
SEQEND
  5
3CE
  8
PROFILEEDGES
  0
LINE
  5
9A
  8
0
 10
-99.9948634899758
 20
183.2206785997446
 30
0.0
 11
-101.8715400658403
 21
181.0233726451602
 31
0.0
  0
LINE
  5
9B
  8
0
 10
-105.3884921144259
 20
170.1993072241943
 30
0.0
 11
-105.161772906485
 21
167.3185665504785
 31
0.0
  0
LINE
  5
9C
  8
0
 10
-103.3813772573543
 20
161.8390721714906
 30
0.0
 11
-101.8715400658403
 21
159.3752418032284
 31
0.0
  0
POLYLINE
  5
9D
  8
PROFILEEDGES
 66
     1
 10
0.0
 20
0.0
 30
0.0
  0
VERTEX
  5
1ED
  8
PROFILEEDGES
 10
-162.2353436677755
 20
17.65461346025988
 30
0.0
 40
1.50438505314894
 41
1.50438505314894
  0
VERTEX
  5
1EE
  8
PROFILEEDGES
 10
-163.1734921144261
 20
5.734307224194311
 30
0.0
 40
1.50438505314894
 41
1.50438505314894
  0
SEQEND
  5
3CF
  8
PROFILEEDGES
  0
LINE
  5
9E
  8
0
 10
-101.8715400658403
 20
159.3752418032284
 30
0.0
 11
-99.9948634899758
 21
157.1779358486441
 31
0.0
  0
LINE
  5
9F
  8
0
 10
-99.9948634899758
 20
157.1779358486441
 30
0.0
 11
-97.79755753539187
 21
155.3012592727796
 31
0.0
  0
POLYLINE
  5
A0
  8
PROFILEEDGES
 66
     1
 10
0.0
 20
0.0
 30
0.0
  0
VERTEX
  5
1EF
  8
PROFILEEDGES
 10
-162.2353436677755
 20
-6.185999011871303
 30
0.0
 40
1.50438505314894
 41
1.50438505314894
  0
VERTEX
  5
1F0
  8
PROFILEEDGES
 10
-159.4439986561168
 20
-17.81278774717671
 30
0.0
 40
1.50438505314894
 41
1.50438505314894
  0
SEQEND
  5
3D0
  8
PROFILEEDGES
  0
LINE
  5
A1
  8
0
 10
-86.97349211442608
 20
-140.3156927758053
 30
0.0
 11
-89.85423278814169
 21
-140.5424119837459
 31
0.0
  0
LINE
  5
A2
  8
0
 10
-68.78521132236644
 20
-161.6114334495216
 30
0.0
 11
-68.55849211442549
 21
-158.7306927758056
 31
0.0
  0
LINE
  5
A3
  8
0
 10
-72.07544416301111
 20
-147.9066273548396
 30
0.0
 11
-73.95212073887562
 21
-145.7093214002552
 31
0.0
  0
LINE
  5
A4
  8
0
 10
-76.14942669345955
 20
-143.8326448243907
 30
0.0
 11
-78.61325706172194
 21
-142.3228076328766
 31
0.0
  0
LINE
  5
A5
  8
0
 10
-84.09275144070973
 20
-140.5424119837459
 30
0.0
 11
-86.97349211442608
 21
-140.3156927758053
 31
0.0
  0
LINE
  5
A6
  8
0
 10
-81.2829441630114
 20
-141.2169870282301
 30
0.0
 11
-84.09275144070973
 21
-140.5424119837459
 31
0.0
  0
LINE
  5
A7
  8
0
 10
-70.56560697149715
 20
-150.3704577231018
 30
0.0
 11
-72.07544416301111
 21
-147.9066273548396
 31
0.0
  0
POLYLINE
  5
A8
  8
PROFILEEDGES
 66
     1
 10
0.0
 20
0.0
 30
0.0
  0
VERTEX
  5
1F1
  8
PROFILEEDGES
 10
-85.6821256055191
 20
178.3526744758071
 30
0.0
 40
1.50438505314894
 41
1.50438505314894
  0
VERTEX
  5
1F2
  8
PROFILEEDGES
 10
-86.97349211442608
 20
178.4543072241944
 30
0.0
 40
1.50438505314894
 41
1.50438505314894
  0
SEQEND
  5
3D1
  8
PROFILEEDGES
  0
LINE
  5
A9
  8
0
 10
-69.4597863668507
 20
-153.0401448243909
 30
0.0
 11
-70.56560697149715
 21
-150.3704577231018
 31
0.0
  0
LINE
  5
AA
  8
0
 10
-68.78521132236644
 20
-155.8499521020897
 30
0.0
 11
-69.4597863668507
 21
-153.0401448243909
 31
0.0
  0
LINE
  5
AB
  8
0
 10
-68.55849211442549
 20
-158.7306927758056
 30
0.0
 11
-68.78521132236644
 21
-155.8499521020897
 31
0.0
  0
LINE
  5
AC
  8
0
 10
-76.14942669345955
 20
-173.6287407272206
 30
0.0
 11
-73.95212073887562
 21
-171.7520641513561
 31
0.0
  0
POLYLINE
  5
AD
  8
PROFILEEDGES
 66
     1
 10
0.0
 20
0.0
 30
0.0
  0
VERTEX
  5
1F3
  8
PROFILEEDGES
 10
-85.07587619070878
 20
178.2071268686065
 30
0.0
 40
1.50438505314894
 41
1.50438505314894
  0
VERTEX
  5
1F4
  8
PROFILEEDGES
 10
-83.97772403612815
 20
177.8660229917153
 30
0.0
 40
1.50438505314894
 41
1.50438505314894
  0
SEQEND
  5
3D2
  8
PROFILEEDGES
  0
LINE
  5
AE
  8
0
 10
-78.61325706172194
 20
-142.3228076328766
 30
0.0
 11
-81.2829441630114
 21
-141.2169870282301
 31
0.0
  0
LINE
  5
AF
  8
0
 10
-73.95212073887562
 20
-145.7093214002552
 30
0.0
 11
-76.14942669345955
 21
-143.8326448243907
 31
0.0
  0
LINE
  5
B0
  8
0
 10
-69.4597863668507
 20
-164.4212407272204
 30
0.0
 11
-68.78521132236644
 21
-161.6114334495216
 31
0.0
  0
LINE
  5
B1
  8
0
 10
-70.56560697149715
 20
-167.0909278285095
 30
0.0
 11
-69.4597863668507
 21
-164.4212407272204
 31
0.0
  0
LINE
  5
B2
  8
0
 10
-72.07544416301111
 20
-169.5547581967717
 30
0.0
 11
-70.56560697149715
 21
-167.0909278285095
 31
0.0
  0
LINE
  5
B3
  8
0
 10
-73.95212073887562
 20
-171.7520641513561
 30
0.0
 11
-72.07544416301111
 21
-169.5547581967717
 31
0.0
  0
LINE
  5
B4
  8
0
 10
-78.61325706172194
 20
-175.1385779187347
 30
0.0
 11
-76.14942669345955
 21
-173.6287407272206
 31
0.0
  0
LINE
  5
B5
  8
0
 10
-81.2829441630114
 20
-176.2443985233812
 30
0.0
 11
-78.61325706172194
 21
-175.1385779187347
 31
0.0
  0
LINE
  5
B6
  8
0
 10
-84.09275144070973
 20
-176.9189735678654
 30
0.0
 11
-81.2829441630114
 21
-176.2443985233812
 31
0.0
  0
LINE
  5
B7
  8
0
 10
-86.97349211442608
 20
-177.145692775806
 30
0.0
 11
-84.09275144070973
 21
-176.9189735678654
 31
0.0
  0
POLYLINE
  5
B8
  8
PROFILEEDGES
 66
     1
 10
0.0
 20
0.0
 30
0.0
  0
VERTEX
  5
1F5
  8
PROFILEEDGES
 10
-86.97349211442608
 20
178.4543072241944
 30
0.0
 40
1.50438505314894
 41
1.50438505314894
  0
VERTEX
  5
1F6
  8
PROFILEEDGES
 10
-88.26485862333305
 20
178.3526744758071
 30
0.0
 40
1.50438505314894
 41
1.50438505314894
  0
SEQEND
  5
3D3
  8
PROFILEEDGES
  0
POLYLINE
  5
B9
  8
PROFILEEDGES
 66
     1
 10
0.0
 20
0.0
 30
0.0
  0
VERTEX
  5
1F7
  8
PROFILEEDGES
 10
-94.82446365644255
 20
172.7502425127596
 30
0.0
 40
1.50438505314894
 41
1.50438505314894
  0
VERTEX
  5
1F8
  8
PROFILEEDGES
 10
-95.12685936603849
 20
171.4906737331015
 30
0.0
 40
1.50438505314894
 41
1.50438505314894
  0
SEQEND
  5
3D4
  8
PROFILEEDGES
  0
POLYLINE
  5
BA
  8
PROFILEEDGES
 66
     1
 10
0.0
 20
0.0
 30
0.0
  0
VERTEX
  5
1F9
  8
PROFILEEDGES
 10
-91.82565937210002
 20
176.8777425127596
 30
0.0
 40
1.50438505314894
 41
1.50438505314894
  0
VERTEX
  5
1FA
  8
PROFILEEDGES
 10
-92.81065859312085
 20
176.0364737028893
 30
0.0
 40
1.50438505314894
 41
1.50438505314894
  0
SEQEND
  5
3D5
  8
PROFILEEDGES
  0
POLYLINE
  5
BB
  8
PROFILEEDGES
 66
     1
 10
0.0
 20
0.0
 30
0.0
  0
VERTEX
  5
1FB
  8
PROFILEEDGES
 10
-94.32875097160058
 20
166.4516156488444
 30
0.0
 40
1.50438505314894
 41
1.50438505314894
  0
VERTEX
  5
1FC
  8
PROFILEEDGES
 10
-93.66114370100632
 20
165.3404439340613
 30
0.0
 40
1.50438505314894
 41
1.50438505314894
  0
SEQEND
  5
3D6
  8
PROFILEEDGES
  0
POLYLINE
  5
BC
  8
PROFILEEDGES
 66
     1
 10
0.0
 20
0.0
 30
0.0
  0
VERTEX
  5
1FD
  8
PROFILEEDGES
 10
-140.8550288408407
 20
59.61584395060921
 30
0.0
 40
1.50438505314894
 41
1.50438505314894
  0
VERTEX
  5
1FE
  8
PROFILEEDGES
 10
-148.6205870857971
 20
50.52354344888074
 30
0.0
 40
1.50438505314894
 41
1.50438505314894
  0
SEQEND
  5
3D7
  8
PROFILEEDGES
  0
POLYLINE
  5
BD
  8
PROFILEEDGES
 66
     1
 10
0.0
 20
0.0
 30
0.0
  0
VERTEX
  5
1FF
  8
PROFILEEDGES
 10
-14.50298557273537
 20
-17.81278774717666
 30
0.0
 40
1.50438505314894
 41
1.50438505314894
  0
VERTEX
  5
200
  8
PROFILEEDGES
 10
-11.71164056107663
 20
-6.185999011871258
 30
0.0
 40
1.50438505314894
 41
1.50438505314894
  0
SEQEND
  5
3D8
  8
PROFILEEDGES
  0
POLYLINE
  5
BE
  8
PROFILEEDGES
 66
     1
 10
0.0
 20
0.0
 30
0.0
  0
VERTEX
  5
201
  8
PROFILEEDGES
 10
-11.71164056107663
 20
-6.185999011871258
 30
0.0
 40
1.50438505314894
 41
1.50438505314894
  0
VERTEX
  5
202
  8
PROFILEEDGES
 10
-10.77349211442608
 20
5.73430722419431
 30
0.0
 40
1.50438505314894
 41
1.50438505314894
  0
SEQEND
  5
3D9
  8
PROFILEEDGES
  0
POLYLINE
  5
BF
  8
PROFILEEDGES
 66
     1
 10
0.0
 20
0.0
 30
0.0
  0
VERTEX
  5
203
  8
PROFILEEDGES
 10
-33.09195538801072
 20
59.61584395060921
 30
0.0
 40
1.50438505314894
 41
1.50438505314894
  0
VERTEX
  5
204
  8
PROFILEEDGES
 10
-25.32639714305506
 20
50.52354344888078
 30
0.0
 40
1.50438505314894
 41
1.50438505314894
  0
SEQEND
  5
3DA
  8
PROFILEEDGES
  0
POLYLINE
  5
C0
  8
PROFILEEDGES
 66
     1
 10
0.0
 20
0.0
 30
0.0
  0
VERTEX
  5
205
  8
PROFILEEDGES
 10
-98.89379835049124
 20
80.9961587775438
 30
0.0
 40
1.50438505314894
 41
1.50438505314894
  0
VERTEX
  5
206
  8
PROFILEEDGES
 10
-86.97349211442608
 20
81.93430722419431
 30
0.0
 40
1.50438505314894
 41
1.50438505314894
  0
SEQEND
  5
3DB
  8
PROFILEEDGES
  0
POLYLINE
  5
C1
  8
PROFILEEDGES
 66
     1
 10
0.0
 20
0.0
 30
0.0
  0
VERTEX
  5
207
  8
PROFILEEDGES
 10
-19.07879497127192
 20
40.32838330434777
 30
0.0
 40
1.50438505314894
 41
1.50438505314894
  0
VERTEX
  5
208
  8
PROFILEEDGES
 10
-25.32639714305506
 20
50.52354344888078
 30
0.0
 40
1.50438505314894
 41
1.50438505314894
  0
SEQEND
  5
3DC
  8
PROFILEEDGES
  0
POLYLINE
  5
C2
  8
PROFILEEDGES
 66
     1
 10
0.0
 20
0.0
 30
0.0
  0
VERTEX
  5
209
  8
PROFILEEDGES
 10
-121.5675681945795
 20
73.62900436734792
 30
0.0
 40
1.50438505314894
 41
1.50438505314894
  0
VERTEX
  5
20A
  8
PROFILEEDGES
 10
-131.7627283391124
 20
67.38140219556533
 30
0.0
 40
1.50438505314894
 41
1.50438505314894
  0
SEQEND
  5
3DD
  8
PROFILEEDGES
  0
POLYLINE
  5
C3
  8
PROFILEEDGES
 66
     1
 10
0.0
 20
0.0
 30
0.0
  0
VERTEX
  5
20B
  8
PROFILEEDGES
 10
-148.6205870857971
 20
50.52354344888074
 30
0.0
 40
1.50438505314894
 41
1.50438505314894
  0
VERTEX
  5
20C
  8
PROFILEEDGES
 10
-154.8681892575795
 20
40.32838330434777
 30
0.0
 40
1.50438505314894
 41
1.50438505314894
  0
SEQEND
  5
3DE
  8
PROFILEEDGES
  0
POLYLINE
  5
C4
  8
PROFILEEDGES
 66
     1
 10
0.0
 20
0.0
 30
0.0
  0
VERTEX
  5
20D
  8
PROFILEEDGES
 10
-63.42639714305506
 20
78.20481376588502
 30
0.0
 40
1.50438505314894
 41
1.50438505314894
  0
VERTEX
  5
20E
  8
PROFILEEDGES
 10
-75.05318587836018
 20
80.9961587775438
 30
0.0
 40
1.50438505314894
 41
1.50438505314894
  0
SEQEND
  5
3DF
  8
PROFILEEDGES
  0
POLYLINE
  5
C5
  8
PROFILEEDGES
 66
     1
 10
0.0
 20
0.0
 30
0.0
  0
VERTEX
  5
20F
  8
PROFILEEDGES
 10
-11.71164056107663
 20
17.65461346025993
 30
0.0
 40
1.50438505314894
 41
1.50438505314894
  0
VERTEX
  5
210
  8
PROFILEEDGES
 10
-14.50298557273537
 20
29.28140219556533
 30
0.0
 40
1.50438505314894
 41
1.50438505314894
  0
SEQEND
  5
3E0
  8
PROFILEEDGES
  0
POLYLINE
  5
C6
  8
PROFILEEDGES
 66
     1
 10
0.0
 20
0.0
 30
0.0
  0
VERTEX
  5
211
  8
PROFILEEDGES
 10
-159.4439986561168
 20
29.28140219556528
 30
0.0
 40
1.50438505314894
 41
1.50438505314894
  0
VERTEX
  5
212
  8
PROFILEEDGES
 10
-154.8681892575795
 20
40.32838330434777
 30
0.0
 40
1.50438505314894
 41
1.50438505314894
  0
SEQEND
  5
3E1
  8
PROFILEEDGES
  0
POLYLINE
  5
C7
  8
PROFILEEDGES
 66
     1
 10
0.0
 20
0.0
 30
0.0
  0
VERTEX
  5
213
  8
PROFILEEDGES
 10
-63.42639714305506
 20
78.20481376588502
 30
0.0
 40
1.50438505314894
 41
1.50438505314894
  0
VERTEX
  5
214
  8
PROFILEEDGES
 10
-52.37941603427261
 20
73.62900436734792
 30
0.0
 40
1.50438505314894
 41
1.50438505314894
  0
SEQEND
  5
3E2
  8
PROFILEEDGES
  0
POLYLINE
  5
C8
  8
PROFILEEDGES
 66
     1
 10
0.0
 20
0.0
 30
0.0
  0
VERTEX
  5
215
  8
PROFILEEDGES
 10
-11.71164056107663
 20
17.65461346025993
 30
0.0
 40
1.50438505314894
 41
1.50438505314894
  0
VERTEX
  5
216
  8
PROFILEEDGES
 10
-10.77349211442608
 20
5.73430722419431
 30
0.0
 40
1.50438505314894
 41
1.50438505314894
  0
SEQEND
  5
3E3
  8
PROFILEEDGES
  0
POLYLINE
  5
C9
  8
PROFILEEDGES
 66
     1
 10
0.0
 20
0.0
 30
0.0
  0
VERTEX
  5
217
  8
PROFILEEDGES
 10
-33.09195538801072
 20
59.61584395060921
 30
0.0
 40
1.50438505314894
 41
1.50438505314894
  0
VERTEX
  5
218
  8
PROFILEEDGES
 10
-42.1842558897397
 20
67.38140219556533
 30
0.0
 40
1.50438505314894
 41
1.50438505314894
  0
SEQEND
  5
3E4
  8
PROFILEEDGES
  0
POLYLINE
  5
CA
  8
PROFILEEDGES
 66
     1
 10
0.0
 20
0.0
 30
0.0
  0
VERTEX
  5
219
  8
PROFILEEDGES
 10
-86.97349211442608
 20
81.93430722419431
 30
0.0
 40
1.50438505314894
 41
1.50438505314894
  0
VERTEX
  5
21A
  8
PROFILEEDGES
 10
-75.05318587836018
 20
80.9961587775438
 30
0.0
 40
1.50438505314894
 41
1.50438505314894
  0
SEQEND
  5
3E5
  8
PROFILEEDGES
  0
POLYLINE
  5
CB
  8
PROFILEEDGES
 66
     1
 10
0.0
 20
0.0
 30
0.0
  0
VERTEX
  5
21B
  8
PROFILEEDGES
 10
-140.8550288408407
 20
59.61584395060921
 30
0.0
 40
1.50438505314894
 41
1.50438505314894
  0
VERTEX
  5
21C
  8
PROFILEEDGES
 10
-131.7627283391124
 20
67.38140219556533
 30
0.0
 40
1.50438505314894
 41
1.50438505314894
  0
SEQEND
  5
3E6
  8
PROFILEEDGES
  0
POLYLINE
  5
CC
  8
PROFILEEDGES
 66
     1
 10
0.0
 20
0.0
 30
0.0
  0
VERTEX
  5
21D
  8
PROFILEEDGES
 10
-14.50298557273537
 20
29.28140219556533
 30
0.0
 40
1.50438505314894
 41
1.50438505314894
  0
VERTEX
  5
21E
  8
PROFILEEDGES
 10
-19.07879497127192
 20
40.32838330434777
 30
0.0
 40
1.50438505314894
 41
1.50438505314894
  0
SEQEND
  5
3E7
  8
PROFILEEDGES
  0
POLYLINE
  5
CD
  8
PROFILEEDGES
 66
     1
 10
0.0
 20
0.0
 30
0.0
  0
VERTEX
  5
21F
  8
PROFILEEDGES
 10
-110.5205870857971
 20
78.20481376588502
 30
0.0
 40
1.50438505314894
 41
1.50438505314894
  0
VERTEX
  5
220
  8
PROFILEEDGES
 10
-98.89379835049124
 20
80.9961587775438
 30
0.0
 40
1.50438505314894
 41
1.50438505314894
  0
SEQEND
  5
3E8
  8
PROFILEEDGES
  0
POLYLINE
  5
CE
  8
PROFILEEDGES
 66
     1
 10
0.0
 20
0.0
 30
0.0
  0
VERTEX
  5
221
  8
PROFILEEDGES
 10
-110.5205870857971
 20
78.20481376588502
 30
0.0
 40
1.50438505314894
 41
1.50438505314894
  0
VERTEX
  5
222
  8
PROFILEEDGES
 10
-121.5675681945795
 20
73.62900436734792
 30
0.0
 40
1.50438505314894
 41
1.50438505314894
  0
SEQEND
  5
3E9
  8
PROFILEEDGES
  0
POLYLINE
  5
CF
  8
PROFILEEDGES
 66
     1
 10
0.0
 20
0.0
 30
0.0
  0
VERTEX
  5
223
  8
PROFILEEDGES
 10
-42.1842558897397
 20
67.38140219556533
 30
0.0
 40
1.50438505314894
 41
1.50438505314894
  0
VERTEX
  5
224
  8
PROFILEEDGES
 10
-52.37941603427261
 20
73.62900436734792
 30
0.0
 40
1.50438505314894
 41
1.50438505314894
  0
SEQEND
  5
3EA
  8
PROFILEEDGES
  0
POLYLINE
  5
D0
  8
PROFILEEDGES
 66
     1
 10
0.0
 20
0.0
 30
0.0
  0
VERTEX
  5
225
  8
PROFILEEDGES
 10
-328.2734921144261
 20
5.734307224194266
 30
0.0
 40
1.50438505314894
 41
1.50438505314894
  0
VERTEX
  5
226
  8
PROFILEEDGES
 10
-325.3026887000325
 20
-32.01332919001342
 30
0.0
 40
1.50438505314894
 41
1.50438505314894
  0
SEQEND
  5
3EB
  8
PROFILEEDGES
  0
POLYLINE
  5
D1
  8
PROFILEEDGES
 66
     1
 10
0.0
 20
0.0
 30
0.0
  0
VERTEX
  5
227
  8
PROFILEEDGES
 10
-325.3026887000325
 20
-32.01332919001342
 30
0.0
 40
1.50438505314894
 41
1.50438505314894
  0
VERTEX
  5
228
  8
PROFILEEDGES
 10
-316.4634294964463
 20
-68.83149351848054
 30
0.0
 40
1.50438505314894
 41
1.50438505314894
  0
SEQEND
  5
3EC
  8
PROFILEEDGES
  0
POLYLINE
  5
D2
  8
PROFILEEDGES
 66
     1
 10
0.0
 20
0.0
 30
0.0
  0
VERTEX
  5
229
  8
PROFILEEDGES
 10
-316.4634294964463
 20
80.30010796686909
 30
0.0
 40
1.50438505314894
 41
1.50438505314894
  0
VERTEX
  5
22A
  8
PROFILEEDGES
 10
-325.3026887000325
 20
43.48194363840196
 30
0.0
 40
1.50438505314894
 41
1.50438505314894
  0
SEQEND
  5
3ED
  8
PROFILEEDGES
  0
POLYLINE
  5
D3
  8
PROFILEEDGES
 66
     1
 10
0.0
 20
0.0
 30
0.0
  0
VERTEX
  5
22B
  8
PROFILEEDGES
 10
-228.8060734925995
 20
-189.4814935184805
 30
0.0
 40
1.50438505314894
 41
1.50438505314894
  0
VERTEX
  5
22C
  8
PROFILEEDGES
 10
-196.5213997015783
 20
-209.2655670624589
 30
0.0
 40
1.50438505314894
 41
1.50438505314894
  0
SEQEND
  5
3EE
  8
PROFILEEDGES
  0
POLYLINE
  5
D4
  8
PROFILEEDGES
 66
     1
 10
0.0
 20
0.0
 30
0.0
  0
VERTEX
  5
22D
  8
PROFILEEDGES
 10
-325.3026887000325
 20
43.48194363840196
 30
0.0
 40
1.50438505314894
 41
1.50438505314894
  0
VERTEX
  5
22E
  8
PROFILEEDGES
 10
-328.2734921144261
 20
5.734307224194266
 30
0.0
 40
1.50438505314894
 41
1.50438505314894
  0
SEQEND
  5
3EF
  8
PROFILEEDGES
  0
POLYLINE
  5
D5
  8
PROFILEEDGES
 66
     1
 10
0.0
 20
0.0
 30
0.0
  0
VERTEX
  5
22F
  8
PROFILEEDGES
 10
-301.9733664010792
 20
115.2822148113469
 30
0.0
 40
1.50438505314894
 41
1.50438505314894
  0
VERTEX
  5
230
  8
PROFILEEDGES
 10
-316.4634294964463
 20
80.30010796686909
 30
0.0
 40
1.50438505314894
 41
1.50438505314894
  0
SEQEND
  5
3F0
  8
PROFILEEDGES
  0
POLYLINE
  5
D6
  8
PROFILEEDGES
 66
     1
 10
0.0
 20
0.0
 30
0.0
  0
VERTEX
  5
231
  8
PROFILEEDGES
 10
-161.5392928571007
 20
-223.7556301578263
 30
0.0
 40
1.50438505314894
 41
1.50438505314894
  0
VERTEX
  5
232
  8
PROFILEEDGES
 10
-124.7211285286336
 20
-232.5948893614124
 30
0.0
 40
1.50438505314894
 41
1.50438505314894
  0
SEQEND
  5
3F1
  8
PROFILEEDGES
  0
POLYLINE
  5
D7
  8
PROFILEEDGES
 66
     1
 10
0.0
 20
0.0
 30
0.0
  0
VERTEX
  5
233
  8
PROFILEEDGES
 10
-301.9733664010792
 20
-103.8136003629584
 30
0.0
 40
1.50438505314894
 41
1.50438505314894
  0
VERTEX
  5
234
  8
PROFILEEDGES
 10
-282.1892928571007
 20
-136.0982741539795
 30
0.0
 40
1.50438505314894
 41
1.50438505314894
  0
SEQEND
  5
3F2
  8
PROFILEEDGES
  0
POLYLINE
  5
D8
  8
PROFILEEDGES
 66
     1
 10
0.0
 20
0.0
 30
0.0
  0
VERTEX
  5
235
  8
PROFILEEDGES
 10
-316.4634294964463
 20
-68.83149351848054
 30
0.0
 40
1.50438505314894
 41
1.50438505314894
  0
VERTEX
  5
236
  8
PROFILEEDGES
 10
-301.9733664010792
 20
-103.8136003629584
 30
0.0
 40
1.50438505314894
 41
1.50438505314894
  0
SEQEND
  5
3F3
  8
PROFILEEDGES
  0
POLYLINE
  5
D9
  8
PROFILEEDGES
 66
     1
 10
0.0
 20
0.0
 30
0.0
  0
VERTEX
  5
237
  8
PROFILEEDGES
 10
-86.97349211442608
 20
-235.5656927758057
 30
0.0
 40
1.50438505314894
 41
1.50438505314894
  0
VERTEX
  5
238
  8
PROFILEEDGES
 10
-49.22585570021852
 20
-232.5948893614124
 30
0.0
 40
1.50438505314894
 41
1.50438505314894
  0
SEQEND
  5
3F4
  8
PROFILEEDGES
  0
POLYLINE
  5
DA
  8
PROFILEEDGES
 66
     1
 10
0.0
 20
0.0
 30
0.0
  0
VERTEX
  5
239
  8
PROFILEEDGES
 10
-49.22585570021852
 20
-232.5948893614124
 30
0.0
 40
1.50438505314894
 41
1.50438505314894
  0
VERTEX
  5
23A
  8
PROFILEEDGES
 10
-12.40769137175143
 20
-223.7556301578262
 30
0.0
 40
1.50438505314894
 41
1.50438505314894
  0
SEQEND
  5
3F5
  8
PROFILEEDGES
  0
POLYLINE
  5
DB
  8
PROFILEEDGES
 66
     1
 10
0.0
 20
0.0
 30
0.0
  0
VERTEX
  5
23B
  8
PROFILEEDGES
 10
-124.7211285286336
 20
-232.5948893614124
 30
0.0
 40
1.50438505314894
 41
1.50438505314894
  0
VERTEX
  5
23C
  8
PROFILEEDGES
 10
-86.97349211442608
 20
-235.5656927758057
 30
0.0
 40
1.50438505314894
 41
1.50438505314894
  0
SEQEND
  5
3F6
  8
PROFILEEDGES
  0
POLYLINE
  5
DC
  8
PROFILEEDGES
 66
     1
 10
0.0
 20
0.0
 30
0.0
  0
VERTEX
  5
23D
  8
PROFILEEDGES
 10
-282.1892928571007
 20
-136.0982741539795
 30
0.0
 40
1.50438505314894
 41
1.50438505314894
  0
VERTEX
  5
23E
  8
PROFILEEDGES
 10
-257.5983584147399
 20
-164.8905590761196
 30
0.0
 40
1.50438505314894
 41
1.50438505314894
  0
SEQEND
  5
3F7
  8
PROFILEEDGES
  0
POLYLINE
  5
DD
  8
PROFILEEDGES
 66
     1
 10
0.0
 20
0.0
 30
0.0
  0
VERTEX
  5
23F
  8
PROFILEEDGES
 10
-196.5213997015783
 20
-209.2655670624589
 30
0.0
 40
1.50438505314894
 41
1.50438505314894
  0
VERTEX
  5
240
  8
PROFILEEDGES
 10
-161.5392928571007
 20
-223.7556301578263
 30
0.0
 40
1.50438505314894
 41
1.50438505314894
  0
SEQEND
  5
3F8
  8
PROFILEEDGES
  0
POLYLINE
  5
DE
  8
PROFILEEDGES
 66
     1
 10
0.0
 20
0.0
 30
0.0
  0
VERTEX
  5
241
  8
PROFILEEDGES
 10
-257.5983584147399
 20
-164.8905590761196
 30
0.0
 40
1.50438505314894
 41
1.50438505314894
  0
VERTEX
  5
242
  8
PROFILEEDGES
 10
-228.8060734925995
 20
-189.4814935184805
 30
0.0
 40
1.50438505314894
 41
1.50438505314894
  0
SEQEND
  5
3F9
  8
PROFILEEDGES
  0
POLYLINE
  5
DF
  8
PROFILEEDGES
 66
     1
 10
0.0
 20
0.0
 30
0.0
  0
VERTEX
  5
243
  8
PROFILEEDGES
 10
-98.89379835049124
 20
-69.52754432915518
 30
0.0
 40
1.50438505314894
 41
1.50438505314894
  0
VERTEX
  5
244
  8
PROFILEEDGES
 10
-110.5205870857971
 20
-66.73619931749639
 30
0.0
 40
1.50438505314894
 41
1.50438505314894
  0
SEQEND
  5
3FA
  8
PROFILEEDGES
  0
POLYLINE
  5
E0
  8
PROFILEEDGES
 66
     1
 10
0.0
 20
0.0
 30
0.0
  0
VERTEX
  5
245
  8
PROFILEEDGES
 10
-121.5675681945795
 20
-62.16038991895932
 30
0.0
 40
1.50438505314894
 41
1.50438505314894
  0
VERTEX
  5
246
  8
PROFILEEDGES
 10
-131.7627283391124
 20
-55.9127877471767
 30
0.0
 40
1.50438505314894
 41
1.50438505314894
  0
SEQEND
  5
3FB
  8
PROFILEEDGES
  0
POLYLINE
  5
E1
  8
PROFILEEDGES
 66
     1
 10
0.0
 20
0.0
 30
0.0
  0
VERTEX
  5
247
  8
PROFILEEDGES
 10
-86.97349211442608
 20
-70.46569277580568
 30
0.0
 40
1.50438505314894
 41
1.50438505314894
  0
VERTEX
  5
248
  8
PROFILEEDGES
 10
-98.89379835049124
 20
-69.52754432915518
 30
0.0
 40
1.50438505314894
 41
1.50438505314894
  0
SEQEND
  5
3FC
  8
PROFILEEDGES
  0
POLYLINE
  5
E2
  8
PROFILEEDGES
 66
     1
 10
0.0
 20
0.0
 30
0.0
  0
VERTEX
  5
249
  8
PROFILEEDGES
 10
-110.5205870857971
 20
-66.73619931749639
 30
0.0
 40
1.50438505314894
 41
1.50438505314894
  0
VERTEX
  5
24A
  8
PROFILEEDGES
 10
-121.5675681945795
 20
-62.16038991895932
 30
0.0
 40
1.50438505314894
 41
1.50438505314894
  0
SEQEND
  5
3FD
  8
PROFILEEDGES
  0
POLYLINE
  5
E3
  8
PROFILEEDGES
 66
     1
 10
0.0
 20
0.0
 30
0.0
  0
VERTEX
  5
24B
  8
PROFILEEDGES
 10
108.2423086282486
 20
147.5668886023681
 30
0.0
 40
1.50438505314894
 41
1.50438505314894
  0
VERTEX
  5
24C
  8
PROFILEEDGES
 10
83.65137418588778
 20
176.3591735245083
 30
0.0
 40
1.50438505314894
 41
1.50438505314894
  0
SEQEND
  5
3FE
  8
PROFILEEDGES
  0
POLYLINE
  5
E4
  8
PROFILEEDGES
 66
     1
 10
0.0
 20
0.0
 30
0.0
  0
VERTEX
  5
24D
  8
PROFILEEDGES
 10
151.3557044711811
 20
43.48194363840204
 30
0.0
 40
1.50438505314894
 41
1.50438505314894
  0
VERTEX
  5
24E
  8
PROFILEEDGES
 10
142.5164452675949
 20
80.30010796686913
 30
0.0
 40
1.50438505314894
 41
1.50438505314894
  0
SEQEND
  5
3FF
  8
PROFILEEDGES
  0
POLYLINE
  5
E5
  8
PROFILEEDGES
 66
     1
 10
0.0
 20
0.0
 30
0.0
  0
VERTEX
  5
24F
  8
PROFILEEDGES
 10
128.026382172227
 20
115.2822148113469
 30
0.0
 40
1.50438505314894
 41
1.50438505314894
  0
VERTEX
  5
250
  8
PROFILEEDGES
 10
108.2423086282486
 20
147.5668886023681
 30
0.0
 40
1.50438505314894
 41
1.50438505314894
  0
SEQEND
  5
400
  8
PROFILEEDGES
  0
POLYLINE
  5
E6
  8
PROFILEEDGES
 66
     1
 10
0.0
 20
0.0
 30
0.0
  0
VERTEX
  5
251
  8
PROFILEEDGES
 10
154.3265078855739
 20
5.734307224194311
 30
0.0
 40
1.50438505314894
 41
1.50438505314894
  0
VERTEX
  5
252
  8
PROFILEEDGES
 10
151.3557044711811
 20
43.48194363840204
 30
0.0
 40
1.50438505314894
 41
1.50438505314894
  0
SEQEND
  5
401
  8
PROFILEEDGES
  0
POLYLINE
  5
E7
  8
PROFILEEDGES
 66
     1
 10
0.0
 20
0.0
 30
0.0
  0
VERTEX
  5
253
  8
PROFILEEDGES
 10
142.5164452675949
 20
80.30010796686913
 30
0.0
 40
1.50438505314894
 41
1.50438505314894
  0
VERTEX
  5
254
  8
PROFILEEDGES
 10
128.026382172227
 20
115.2822148113469
 30
0.0
 40
1.50438505314894
 41
1.50438505314894
  0
SEQEND
  5
402
  8
PROFILEEDGES
  0
POLYLINE
  5
E8
  8
PROFILEEDGES
 66
     1
 10
0.0
 20
0.0
 30
0.0
  0
VERTEX
  5
255
  8
PROFILEEDGES
 10
-12.40769137175143
 20
-223.7556301578262
 30
0.0
 40
1.50438505314894
 41
1.50438505314894
  0
VERTEX
  5
256
  8
PROFILEEDGES
 10
22.57441547272692
 20
-209.2655670624588
 30
0.0
 40
1.50438505314894
 41
1.50438505314894
  0
SEQEND
  5
403
  8
PROFILEEDGES
  0
POLYLINE
  5
E9
  8
PROFILEEDGES
 66
     1
 10
0.0
 20
0.0
 30
0.0
  0
VERTEX
  5
257
  8
PROFILEEDGES
 10
139.4120772436693
 20
-77.78373864860473
 30
0.0
 40
1.50438505314894
 41
1.50438505314894
  0
VERTEX
  5
258
  8
PROFILEEDGES
 10
147.6593696775332
 20
-50.59605907423565
 30
0.0
 40
1.50438505314894
 41
1.50438505314894
  0
SEQEND
  5
404
  8
PROFILEEDGES
  0
POLYLINE
  5
EA
  8
PROFILEEDGES
 66
     1
 10
0.0
 20
0.0
 30
0.0
  0
VERTEX
  5
259
  8
PROFILEEDGES
 10
54.85908926374805
 20
-189.4814935184805
 30
0.0
 40
1.50438505314894
 41
1.50438505314894
  0
VERTEX
  5
25A
  8
PROFILEEDGES
 10
76.82112778267269
 20
-171.4577143026366
 30
0.0
 40
1.50438505314894
 41
1.50438505314894
  0
SEQEND
  5
405
  8
PROFILEEDGES
  0
POLYLINE
  5
EB
  8
PROFILEEDGES
 66
     1
 10
0.0
 20
0.0
 30
0.0
  0
VERTEX
  5
25B
  8
PROFILEEDGES
 10
76.82112778267269
 20
-171.4577143026366
 30
0.0
 40
1.50438505314894
 41
1.50438505314894
  0
VERTEX
  5
25C
  8
PROFILEEDGES
 10
96.51246738486124
 20
-150.977506837879
 30
0.0
 40
1.50438505314894
 41
1.50438505314894
  0
SEQEND
  5
406
  8
PROFILEEDGES
  0
POLYLINE
  5
EC
  8
PROFILEEDGES
 66
     1
 10
0.0
 20
0.0
 30
0.0
  0
VERTEX
  5
25D
  8
PROFILEEDGES
 10
96.51246738486124
 20
-150.977506837879
 30
0.0
 40
1.50438505314894
 41
1.50438505314894
  0
VERTEX
  5
25E
  8
PROFILEEDGES
 10
113.6601253341784
 20
-128.3247900034357
 30
0.0
 40
1.50438505314894
 41
1.50438505314894
  0
SEQEND
  5
407
  8
PROFILEEDGES
  0
POLYLINE
  5
ED
  8
PROFILEEDGES
 66
     1
 10
0.0
 20
0.0
 30
0.0
  0
VERTEX
  5
25F
  8
PROFILEEDGES
 10
113.6601253341784
 20
-128.3247900034357
 30
0.0
 40
1.50438505314894
 41
1.50438505314894
  0
VERTEX
  5
260
  8
PROFILEEDGES
 10
128.026382172227
 20
-103.8136003629583
 30
0.0
 40
1.50438505314894
 41
1.50438505314894
  0
SEQEND
  5
408
  8
PROFILEEDGES
  0
POLYLINE
  5
EE
  8
PROFILEEDGES
 66
     1
 10
0.0
 20
0.0
 30
0.0
  0
VERTEX
  5
261
  8
PROFILEEDGES
 10
22.57441547272692
 20
-209.2655670624588
 30
0.0
 40
1.50438505314894
 41
1.50438505314894
  0
VERTEX
  5
262
  8
PROFILEEDGES
 10
54.85908926374805
 20
-189.4814935184805
 30
0.0
 40
1.50438505314894
 41
1.50438505314894
  0
SEQEND
  5
409
  8
PROFILEEDGES
  0
POLYLINE
  5
EF
  8
PROFILEEDGES
 66
     1
 10
0.0
 20
0.0
 30
0.0
  0
VERTEX
  5
263
  8
PROFILEEDGES
 10
-49.22585570021852
 20
244.0635038098011
 30
0.0
 40
1.50438505314894
 41
1.50438505314894
  0
VERTEX
  5
264
  8
PROFILEEDGES
 10
-86.97349211442608
 20
247.0343072241943
 30
0.0
 40
1.50438505314894
 41
1.50438505314894
  0
SEQEND
  5
40A
  8
PROFILEEDGES
  0
POLYLINE
  5
F0
  8
PROFILEEDGES
 66
     1
 10
0.0
 20
0.0
 30
0.0
  0
VERTEX
  5
265
  8
PROFILEEDGES
 10
-228.8060734925995
 20
200.9501079668691
 30
0.0
 40
1.50438505314894
 41
1.50438505314894
  0
VERTEX
  5
266
  8
PROFILEEDGES
 10
-257.5983584147399
 20
176.3591735245082
 30
0.0
 40
1.50438505314894
 41
1.50438505314894
  0
SEQEND
  5
40B
  8
PROFILEEDGES
  0
POLYLINE
  5
F1
  8
PROFILEEDGES
 66
     1
 10
0.0
 20
0.0
 30
0.0
  0
VERTEX
  5
267
  8
PROFILEEDGES
 10
-161.5392928571007
 20
235.2242446062149
 30
0.0
 40
1.50438505314894
 41
1.50438505314894
  0
VERTEX
  5
268
  8
PROFILEEDGES
 10
-196.5213997015783
 20
220.7341815108474
 30
0.0
 40
1.50438505314894
 41
1.50438505314894
  0
SEQEND
  5
40C
  8
PROFILEEDGES
  0
POLYLINE
  5
F2
  8
PROFILEEDGES
 66
     1
 10
0.0
 20
0.0
 30
0.0
  0
VERTEX
  5
269
  8
PROFILEEDGES
 10
-140.8550288408407
 20
-48.14722950222063
 30
0.0
 40
1.50438505314894
 41
1.50438505314894
  0
VERTEX
  5
26A
  8
PROFILEEDGES
 10
-131.7627283391124
 20
-55.9127877471767
 30
0.0
 40
1.50438505314894
 41
1.50438505314894
  0
SEQEND
  5
40D
  8
PROFILEEDGES
  0
POLYLINE
  5
F3
  8
PROFILEEDGES
 66
     1
 10
0.0
 20
0.0
 30
0.0
  0
VERTEX
  5
26B
  8
PROFILEEDGES
 10
-282.1892928571007
 20
147.566888602368
 30
0.0
 40
1.50438505314894
 41
1.50438505314894
  0
VERTEX
  5
26C
  8
PROFILEEDGES
 10
-301.9733664010792
 20
115.2822148113469
 30
0.0
 40
1.50438505314894
 41
1.50438505314894
  0
SEQEND
  5
40E
  8
PROFILEEDGES
  0
POLYLINE
  5
F4
  8
PROFILEEDGES
 66
     1
 10
0.0
 20
0.0
 30
0.0
  0
VERTEX
  5
26D
  8
PROFILEEDGES
 10
128.026382172227
 20
-103.8136003629583
 30
0.0
 40
1.50438505314894
 41
1.50438505314894
  0
VERTEX
  5
26E
  8
PROFILEEDGES
 10
139.4120772436693
 20
-77.78373864860473
 30
0.0
 40
1.50438505314894
 41
1.50438505314894
  0
SEQEND
  5
40F
  8
PROFILEEDGES
  0
POLYLINE
  5
F5
  8
PROFILEEDGES
 66
     1
 10
0.0
 20
0.0
 30
0.0
  0
VERTEX
  5
26F
  8
PROFILEEDGES
 10
147.6593696775332
 20
-50.59605907423565
 30
0.0
 40
1.50438505314894
 41
1.50438505314894
  0
VERTEX
  5
270
  8
PROFILEEDGES
 10
152.653926548798
 20
-22.62746678238189
 30
0.0
 40
1.50438505314894
 41
1.50438505314894
  0
SEQEND
  5
410
  8
PROFILEEDGES
  0
POLYLINE
  5
F6
  8
PROFILEEDGES
 66
     1
 10
0.0
 20
0.0
 30
0.0
  0
VERTEX
  5
271
  8
PROFILEEDGES
 10
-86.97349211442608
 20
247.0343072241943
 30
0.0
 40
1.50438505314894
 41
1.50438505314894
  0
VERTEX
  5
272
  8
PROFILEEDGES
 10
-124.7211285286336
 20
244.0635038098011
 30
0.0
 40
1.50438505314894
 41
1.50438505314894
  0
SEQEND
  5
411
  8
PROFILEEDGES
  0
POLYLINE
  5
F7
  8
PROFILEEDGES
 66
     1
 10
0.0
 20
0.0
 30
0.0
  0
VERTEX
  5
273
  8
PROFILEEDGES
 10
-124.7211285286336
 20
244.0635038098011
 30
0.0
 40
1.50438505314894
 41
1.50438505314894
  0
VERTEX
  5
274
  8
PROFILEEDGES
 10
-161.5392928571007
 20
235.2242446062149
 30
0.0
 40
1.50438505314894
 41
1.50438505314894
  0
SEQEND
  5
412
  8
PROFILEEDGES
  0
POLYLINE
  5
F8
  8
PROFILEEDGES
 66
     1
 10
0.0
 20
0.0
 30
0.0
  0
VERTEX
  5
275
  8
PROFILEEDGES
 10
-12.40769137175143
 20
235.2242446062149
 30
0.0
 40
1.50438505314894
 41
1.50438505314894
  0
VERTEX
  5
276
  8
PROFILEEDGES
 10
-49.22585570021852
 20
244.0635038098011
 30
0.0
 40
1.50438505314894
 41
1.50438505314894
  0
SEQEND
  5
413
  8
PROFILEEDGES
  0
POLYLINE
  5
F9
  8
PROFILEEDGES
 66
     1
 10
0.0
 20
0.0
 30
0.0
  0
VERTEX
  5
277
  8
PROFILEEDGES
 10
22.57441547272691
 20
220.7341815108474
 30
0.0
 40
1.50438505314894
 41
1.50438505314894
  0
VERTEX
  5
278
  8
PROFILEEDGES
 10
-12.40769137175143
 20
235.2242446062149
 30
0.0
 40
1.50438505314894
 41
1.50438505314894
  0
SEQEND
  5
414
  8
PROFILEEDGES
  0
POLYLINE
  5
FA
  8
PROFILEEDGES
 66
     1
 10
0.0
 20
0.0
 30
0.0
  0
VERTEX
  5
279
  8
PROFILEEDGES
 10
83.65137418588778
 20
176.3591735245083
 30
0.0
 40
1.50438505314894
 41
1.50438505314894
  0
VERTEX
  5
27A
  8
PROFILEEDGES
 10
54.85908926374805
 20
200.9501079668691
 30
0.0
 40
1.50438505314894
 41
1.50438505314894
  0
SEQEND
  5
415
  8
PROFILEEDGES
  0
POLYLINE
  5
FB
  8
PROFILEEDGES
 66
     1
 10
0.0
 20
0.0
 30
0.0
  0
VERTEX
  5
27B
  8
PROFILEEDGES
 10
152.653926548798
 20
-22.62746678238189
 30
0.0
 40
1.50438505314894
 41
1.50438505314894
  0
VERTEX
  5
27C
  8
PROFILEEDGES
 10
154.3265078855739
 20
5.734307224194311
 30
0.0
 40
1.50438505314894
 41
1.50438505314894
  0
SEQEND
  5
416
  8
PROFILEEDGES
  0
POLYLINE
  5
FC
  8
PROFILEEDGES
 66
     1
 10
0.0
 20
0.0
 30
0.0
  0
VERTEX
  5
27D
  8
PROFILEEDGES
 10
-196.5213997015783
 20
220.7341815108474
 30
0.0
 40
1.50438505314894
 41
1.50438505314894
  0
VERTEX
  5
27E
  8
PROFILEEDGES
 10
-228.8060734925995
 20
200.9501079668691
 30
0.0
 40
1.50438505314894
 41
1.50438505314894
  0
SEQEND
  5
417
  8
PROFILEEDGES
  0
POLYLINE
  5
FD
  8
PROFILEEDGES
 66
     1
 10
0.0
 20
0.0
 30
0.0
  0
VERTEX
  5
27F
  8
PROFILEEDGES
 10
-257.5983584147399
 20
176.3591735245082
 30
0.0
 40
1.50438505314894
 41
1.50438505314894
  0
VERTEX
  5
280
  8
PROFILEEDGES
 10
-282.1892928571007
 20
147.566888602368
 30
0.0
 40
1.50438505314894
 41
1.50438505314894
  0
SEQEND
  5
418
  8
PROFILEEDGES
  0
POLYLINE
  5
FE
  8
PROFILEEDGES
 66
     1
 10
0.0
 20
0.0
 30
0.0
  0
VERTEX
  5
281
  8
PROFILEEDGES
 10
54.85908926374805
 20
200.9501079668691
 30
0.0
 40
1.50438505314894
 41
1.50438505314894
  0
VERTEX
  5
282
  8
PROFILEEDGES
 10
22.57441547272691
 20
220.7341815108474
 30
0.0
 40
1.50438505314894
 41
1.50438505314894
  0
SEQEND
  5
419
  8
PROFILEEDGES
  0
POLYLINE
  5
FF
  8
PROFILEEDGES
 66
     1
 10
0.0
 20
0.0
 30
0.0
  0
VERTEX
  5
283
  8
PROFILEEDGES
 10
-79.36397713543556
 20
-161.8645557735525
 30
0.0
 40
1.50438505314894
 41
1.50438505314894
  0
VERTEX
  5
284
  8
PROFILEEDGES
 10
-79.87272269981145
 20
-162.8936733773545
 30
0.0
 40
1.50438505314894
 41
1.50438505314894
  0
SEQEND
  5
41A
  8
PROFILEEDGES
  0
POLYLINE
  5
100
  8
PROFILEEDGES
 66
     1
 10
0.0
 20
0.0
 30
0.0
  0
VERTEX
  5
285
  8
PROFILEEDGES
 10
-86.97349211442608
 20
-15.22069277580571
 30
0.0
 40
1.50438505314894
 41
1.50438505314894
  0
VERTEX
  5
286
  8
PROFILEEDGES
 10
-83.69540789950776
 20
-14.96270195297681
 30
0.0
 40
1.50438505314894
 41
1.50438505314894
  0
SEQEND
  5
41B
  8
PROFILEEDGES
  0
POLYLINE
  5
101
  8
PROFILEEDGES
 66
     1
 10
0.0
 20
0.0
 30
0.0
  0
VERTEX
  5
287
  8
PROFILEEDGES
 10
-83.69540789950776
 20
-14.96270195297681
 30
0.0
 40
1.50438505314894
 41
1.50438505314894
  0
VERTEX
  5
288
  8
PROFILEEDGES
 10
-80.49804099729909
 20
-14.19508207477066
 30
0.0
 40
1.50438505314894
 41
1.50438505314894
  0
SEQEND
  5
41C
  8
PROFILEEDGES
  0
POLYLINE
  5
102
  8
PROFILEEDGES
 66
     1
 10
0.0
 20
0.0
 30
0.0
  0
VERTEX
  5
289
  8
PROFILEEDGES
 10
-83.97772403612737
 20
-166.3974085433263
 30
0.0
 40
1.50438505314894
 41
1.50438505314894
  0
VERTEX
  5
28A
  8
PROFILEEDGES
 10
-85.07587619071072
 20
-166.7385124202183
 30
0.0
 40
1.50438505314894
 41
1.50438505314894
  0
SEQEND
  5
41D
  8
PROFILEEDGES
  0
POLYLINE
  5
103
  8
PROFILEEDGES
 66
     1
 10
0.0
 20
0.0
 30
0.0
  0
VERTEX
  5
28B
  8
PROFILEEDGES
 10
-66.27648293725481
 20
9.012391439112358
 30
0.0
 40
1.50438505314894
 41
1.50438505314894
  0
VERTEX
  5
28C
  8
PROFILEEDGES
 10
-67.04410281546079
 20
12.20975834132135
 30
0.0
 40
1.50438505314894
 41
1.50438505314894
  0
SEQEND
  5
41E
  8
PROFILEEDGES
  0
POLYLINE
  5
104
  8
PROFILEEDGES
 66
     1
 10
0.0
 20
0.0
 30
0.0
  0
VERTEX
  5
28D
  8
PROFILEEDGES
 10
-68.30245040005872
 20
15.2476781462365
 30
0.0
 40
1.50438505314894
 41
1.50438505314894
  0
VERTEX
  5
28E
  8
PROFILEEDGES
 10
-70.02054099729922
 20
18.05134718598308
 30
0.0
 40
1.50438505314894
 41
1.50438505314894
  0
SEQEND
  5
41F
  8
PROFILEEDGES
  0
POLYLINE
  5
105
  8
PROFILEEDGES
 66
     1
 10
0.0
 20
0.0
 30
0.0
  0
VERTEX
  5
28F
  8
PROFILEEDGES
 10
-101.7909147141901
 20
-9.083115375569784
 30
0.0
 40
1.50438505314894
 41
1.50438505314894
  0
VERTEX
  5
290
  8
PROFILEEDGES
 10
-99.29053207621503
 20
-11.21864389293272
 30
0.0
 40
1.50438505314894
 41
1.50438505314894
  0
SEQEND
  5
420
  8
PROFILEEDGES
  0
POLYLINE
  5
106
  8
PROFILEEDGES
 66
     1
 10
0.0
 20
0.0
 30
0.0
  0
VERTEX
  5
291
  8
PROFILEEDGES
 10
-93.44894323155306
 20
25.66369652315924
 30
0.0
 40
1.50438505314894
 41
1.50438505314894
  0
VERTEX
  5
292
  8
PROFILEEDGES
 10
-96.48686303646785
 20
24.40534893856158
 30
0.0
 40
1.50438505314894
 41
1.50438505314894
  0
SEQEND
  5
421
  8
PROFILEEDGES
  0
POLYLINE
  5
107
  8
PROFILEEDGES
 66
     1
 10
0.0
 20
0.0
 30
0.0
  0
VERTEX
  5
293
  8
PROFILEEDGES
 10
-103.9264432315529
 20
18.05134718598308
 30
0.0
 40
1.50438505314894
 41
1.50438505314894
  0
VERTEX
  5
294
  8
PROFILEEDGES
 10
-105.6445338287934
 20
15.2476781462365
 30
0.0
 40
1.50438505314894
 41
1.50438505314894
  0
SEQEND
  5
422
  8
PROFILEEDGES
  0
POLYLINE
  5
108
  8
PROFILEEDGES
 66
     1
 10
0.0
 20
0.0
 30
0.0
  0
VERTEX
  5
295
  8
PROFILEEDGES
 10
-107.6705012915973
 20
2.456223009276265
 30
0.0
 40
1.50438505314894
 41
1.50438505314894
  0
VERTEX
  5
296
  8
PROFILEEDGES
 10
-106.9028814133906
 20
-0.7411438929327271
 30
0.0
 40
1.50438505314894
 41
1.50438505314894
  0
SEQEND
  5
423
  8
PROFILEEDGES
  0
POLYLINE
  5
109
  8
PROFILEEDGES
 66
     1
 10
0.0
 20
0.0
 30
0.0
  0
VERTEX
  5
297
  8
PROFILEEDGES
 10
-70.02054099729922
 20
-6.58273273759446
 30
0.0
 40
1.50438505314894
 41
1.50438505314894
  0
VERTEX
  5
298
  8
PROFILEEDGES
 10
-68.30245040005872
 20
-3.779063697847881
 30
0.0
 40
1.50438505314894
 41
1.50438505314894
  0
SEQEND
  5
424
  8
PROFILEEDGES
  0
POLYLINE
  5
10A
  8
PROFILEEDGES
 66
     1
 10
0.0
 20
0.0
 30
0.0
  0
VERTEX
  5
299
  8
PROFILEEDGES
 10
-83.69540789950776
 20
26.43131640136543
 30
0.0
 40
1.50438505314894
 41
1.50438505314894
  0
VERTEX
  5
29A
  8
PROFILEEDGES
 10
-86.97349211442608
 20
26.68930722419429
 30
0.0
 40
1.50438505314894
 41
1.50438505314894
  0
SEQEND
  5
425
  8
PROFILEEDGES
  0
POLYLINE
  5
10B
  8
PROFILEEDGES
 66
     1
 10
0.0
 20
0.0
 30
0.0
  0
VERTEX
  5
29B
  8
PROFILEEDGES
 10
-99.29053207621503
 20
22.68725834132134
 30
0.0
 40
1.50438505314894
 41
1.50438505314894
  0
VERTEX
  5
29C
  8
PROFILEEDGES
 10
-101.7909147141901
 20
20.55172982395841
 30
0.0
 40
1.50438505314894
 41
1.50438505314894
  0
SEQEND
  5
426
  8
PROFILEEDGES
  0
POLYLINE
  5
10C
  8
PROFILEEDGES
 66
     1
 10
0.0
 20
0.0
 30
0.0
  0
VERTEX
  5
29D
  8
PROFILEEDGES
 10
-90.25157632934366
 20
26.43131640136543
 30
0.0
 40
1.50438505314894
 41
1.50438505314894
  0
VERTEX
  5
29E
  8
PROFILEEDGES
 10
-93.44894323155306
 20
25.66369652315924
 30
0.0
 40
1.50438505314894
 41
1.50438505314894
  0
SEQEND
  5
427
  8
PROFILEEDGES
  0
POLYLINE
  5
10D
  8
PROFILEEDGES
 66
     1
 10
0.0
 20
0.0
 30
0.0
  0
VERTEX
  5
29F
  8
PROFILEEDGES
 10
-101.7909147141901
 20
20.55172982395841
 30
0.0
 40
1.50438505314894
 41
1.50438505314894
  0
VERTEX
  5
2A0
  8
PROFILEEDGES
 10
-103.9264432315529
 20
18.05134718598308
 30
0.0
 40
1.50438505314894
 41
1.50438505314894
  0
SEQEND
  5
428
  8
PROFILEEDGES
  0
POLYLINE
  5
10E
  8
PROFILEEDGES
 66
     1
 10
0.0
 20
0.0
 30
0.0
  0
VERTEX
  5
2A1
  8
PROFILEEDGES
 10
-106.9028814133906
 20
12.20975834132135
 30
0.0
 40
1.50438505314894
 41
1.50438505314894
  0
VERTEX
  5
2A2
  8
PROFILEEDGES
 10
-107.6705012915973
 20
9.012391439112358
 30
0.0
 40
1.50438505314894
 41
1.50438505314894
  0
SEQEND
  5
429
  8
PROFILEEDGES
  0
POLYLINE
  5
10F
  8
PROFILEEDGES
 66
     1
 10
0.0
 20
0.0
 30
0.0
  0
VERTEX
  5
2A3
  8
PROFILEEDGES
 10
-74.65645215263712
 20
22.68725834132134
 30
0.0
 40
1.50438505314894
 41
1.50438505314894
  0
VERTEX
  5
2A4
  8
PROFILEEDGES
 10
-77.46012119238357
 20
24.40534893856158
 30
0.0
 40
1.50438505314894
 41
1.50438505314894
  0
SEQEND
  5
42A
  8
PROFILEEDGES
  0
POLYLINE
  5
110
  8
PROFILEEDGES
 66
     1
 10
0.0
 20
0.0
 30
0.0
  0
VERTEX
  5
2A5
  8
PROFILEEDGES
 10
-70.02054099729922
 20
18.05134718598308
 30
0.0
 40
1.50438505314894
 41
1.50438505314894
  0
VERTEX
  5
2A6
  8
PROFILEEDGES
 10
-72.15606951466206
 20
20.55172982395841
 30
0.0
 40
1.50438505314894
 41
1.50438505314894
  0
SEQEND
  5
42B
  8
PROFILEEDGES
  0
POLYLINE
  5
111
  8
PROFILEEDGES
 66
     1
 10
0.0
 20
0.0
 30
0.0
  0
VERTEX
  5
2A7
  8
PROFILEEDGES
 10
-67.04410281546079
 20
-0.7411438929327271
 30
0.0
 40
1.50438505314894
 41
1.50438505314894
  0
VERTEX
  5
2A8
  8
PROFILEEDGES
 10
-66.27648293725481
 20
2.456223009276265
 30
0.0
 40
1.50438505314894
 41
1.50438505314894
  0
SEQEND
  5
42C
  8
PROFILEEDGES
  0
POLYLINE
  5
112
  8
PROFILEEDGES
 66
     1
 10
0.0
 20
0.0
 30
0.0
  0
VERTEX
  5
2A9
  8
PROFILEEDGES
 10
-77.46012119238357
 20
24.40534893856158
 30
0.0
 40
1.50438505314894
 41
1.50438505314894
  0
VERTEX
  5
2AA
  8
PROFILEEDGES
 10
-80.49804099729909
 20
25.66369652315924
 30
0.0
 40
1.50438505314894
 41
1.50438505314894
  0
SEQEND
  5
42D
  8
PROFILEEDGES
  0
POLYLINE
  5
113
  8
PROFILEEDGES
 66
     1
 10
0.0
 20
0.0
 30
0.0
  0
VERTEX
  5
2AB
  8
PROFILEEDGES
 10
-68.30245040005872
 20
-3.779063697847881
 30
0.0
 40
1.50438505314894
 41
1.50438505314894
  0
VERTEX
  5
2AC
  8
PROFILEEDGES
 10
-67.04410281546079
 20
-0.7411438929327271
 30
0.0
 40
1.50438505314894
 41
1.50438505314894
  0
SEQEND
  5
42E
  8
PROFILEEDGES
  0
POLYLINE
  5
114
  8
PROFILEEDGES
 66
     1
 10
0.0
 20
0.0
 30
0.0
  0
VERTEX
  5
2AD
  8
PROFILEEDGES
 10
-105.6445338287934
 20
15.2476781462365
 30
0.0
 40
1.50438505314894
 41
1.50438505314894
  0
VERTEX
  5
2AE
  8
PROFILEEDGES
 10
-106.9028814133906
 20
12.20975834132135
 30
0.0
 40
1.50438505314894
 41
1.50438505314894
  0
SEQEND
  5
42F
  8
PROFILEEDGES
  0
POLYLINE
  5
115
  8
PROFILEEDGES
 66
     1
 10
0.0
 20
0.0
 30
0.0
  0
VERTEX
  5
2AF
  8
PROFILEEDGES
 10
-107.9284921144258
 20
5.734307224194311
 30
0.0
 40
1.50438505314894
 41
1.50438505314894
  0
VERTEX
  5
2B0
  8
PROFILEEDGES
 10
-107.6705012915973
 20
2.456223009276265
 30
0.0
 40
1.50438505314894
 41
1.50438505314894
  0
SEQEND
  5
430
  8
PROFILEEDGES
  0
POLYLINE
  5
116
  8
PROFILEEDGES
 66
     1
 10
0.0
 20
0.0
 30
0.0
  0
VERTEX
  5
2B1
  8
PROFILEEDGES
 10
-99.29053207621503
 20
-11.21864389293272
 30
0.0
 40
1.50438505314894
 41
1.50438505314894
  0
VERTEX
  5
2B2
  8
PROFILEEDGES
 10
-96.48686303646785
 20
-12.93673449017295
 30
0.0
 40
1.50438505314894
 41
1.50438505314894
  0
SEQEND
  5
431
  8
PROFILEEDGES
  0
POLYLINE
  5
117
  8
PROFILEEDGES
 66
     1
 10
0.0
 20
0.0
 30
0.0
  0
VERTEX
  5
2B3
  8
PROFILEEDGES
 10
-93.44894323155306
 20
-14.19508207477066
 30
0.0
 40
1.50438505314894
 41
1.50438505314894
  0
VERTEX
  5
2B4
  8
PROFILEEDGES
 10
-90.25157632934366
 20
-14.96270195297681
 30
0.0
 40
1.50438505314894
 41
1.50438505314894
  0
SEQEND
  5
432
  8
PROFILEEDGES
  0
POLYLINE
  5
118
  8
PROFILEEDGES
 66
     1
 10
0.0
 20
0.0
 30
0.0
  0
VERTEX
  5
2B5
  8
PROFILEEDGES
 10
-105.6445338287934
 20
-3.779063697847881
 30
0.0
 40
1.50438505314894
 41
1.50438505314894
  0
VERTEX
  5
2B6
  8
PROFILEEDGES
 10
-103.9264432315529
 20
-6.58273273759446
 30
0.0
 40
1.50438505314894
 41
1.50438505314894
  0
SEQEND
  5
433
  8
PROFILEEDGES
  0
POLYLINE
  5
119
  8
PROFILEEDGES
 66
     1
 10
0.0
 20
0.0
 30
0.0
  0
VERTEX
  5
2B7
  8
PROFILEEDGES
 10
-66.01849211442564
 20
5.734307224194311
 30
0.0
 40
1.50438505314894
 41
1.50438505314894
  0
VERTEX
  5
2B8
  8
PROFILEEDGES
 10
-66.27648293725481
 20
9.012391439112358
 30
0.0
 40
1.50438505314894
 41
1.50438505314894
  0
SEQEND
  5
434
  8
PROFILEEDGES
  0
POLYLINE
  5
11A
  8
PROFILEEDGES
 66
     1
 10
0.0
 20
0.0
 30
0.0
  0
VERTEX
  5
2B9
  8
PROFILEEDGES
 10
-67.04410281546079
 20
12.20975834132135
 30
0.0
 40
1.50438505314894
 41
1.50438505314894
  0
VERTEX
  5
2BA
  8
PROFILEEDGES
 10
-68.30245040005872
 20
15.2476781462365
 30
0.0
 40
1.50438505314894
 41
1.50438505314894
  0
SEQEND
  5
435
  8
PROFILEEDGES
  0
POLYLINE
  5
11B
  8
PROFILEEDGES
 66
     1
 10
0.0
 20
0.0
 30
0.0
  0
VERTEX
  5
2BB
  8
PROFILEEDGES
 10
-74.65645215263712
 20
-11.21864389293272
 30
0.0
 40
1.50438505314894
 41
1.50438505314894
  0
VERTEX
  5
2BC
  8
PROFILEEDGES
 10
-72.15606951466206
 20
-9.083115375569784
 30
0.0
 40
1.50438505314894
 41
1.50438505314894
  0
SEQEND
  5
436
  8
PROFILEEDGES
  0
POLYLINE
  5
11C
  8
PROFILEEDGES
 66
     1
 10
0.0
 20
0.0
 30
0.0
  0
VERTEX
  5
2BD
  8
PROFILEEDGES
 10
-80.49804099729909
 20
25.66369652315924
 30
0.0
 40
1.50438505314894
 41
1.50438505314894
  0
VERTEX
  5
2BE
  8
PROFILEEDGES
 10
-83.69540789950776
 20
26.43131640136543
 30
0.0
 40
1.50438505314894
 41
1.50438505314894
  0
SEQEND
  5
437
  8
PROFILEEDGES
  0
POLYLINE
  5
11D
  8
PROFILEEDGES
 66
     1
 10
0.0
 20
0.0
 30
0.0
  0
VERTEX
  5
2BF
  8
PROFILEEDGES
 10
-90.25157632934366
 20
-14.96270195297681
 30
0.0
 40
1.50438505314894
 41
1.50438505314894
  0
VERTEX
  5
2C0
  8
PROFILEEDGES
 10
-86.97349211442608
 20
-15.22069277580571
 30
0.0
 40
1.50438505314894
 41
1.50438505314894
  0
SEQEND
  5
438
  8
PROFILEEDGES
  0
POLYLINE
  5
11E
  8
PROFILEEDGES
 66
     1
 10
0.0
 20
0.0
 30
0.0
  0
VERTEX
  5
2C1
  8
PROFILEEDGES
 10
-72.15606951466206
 20
20.55172982395841
 30
0.0
 40
1.50438505314894
 41
1.50438505314894
  0
VERTEX
  5
2C2
  8
PROFILEEDGES
 10
-74.65645215263712
 20
22.68725834132134
 30
0.0
 40
1.50438505314894
 41
1.50438505314894
  0
SEQEND
  5
439
  8
PROFILEEDGES
  0
POLYLINE
  5
11F
  8
PROFILEEDGES
 66
     1
 10
0.0
 20
0.0
 30
0.0
  0
VERTEX
  5
2C3
  8
PROFILEEDGES
 10
-66.27648293725481
 20
2.456223009276265
 30
0.0
 40
1.50438505314894
 41
1.50438505314894
  0
VERTEX
  5
2C4
  8
PROFILEEDGES
 10
-66.01849211442564
 20
5.734307224194311
 30
0.0
 40
1.50438505314894
 41
1.50438505314894
  0
SEQEND
  5
43A
  8
PROFILEEDGES
  0
POLYLINE
  5
120
  8
PROFILEEDGES
 66
     1
 10
0.0
 20
0.0
 30
0.0
  0
VERTEX
  5
2C5
  8
PROFILEEDGES
 10
-72.15606951466206
 20
-9.083115375569784
 30
0.0
 40
1.50438505314894
 41
1.50438505314894
  0
VERTEX
  5
2C6
  8
PROFILEEDGES
 10
-70.02054099729922
 20
-6.58273273759446
 30
0.0
 40
1.50438505314894
 41
1.50438505314894
  0
SEQEND
  5
43B
  8
PROFILEEDGES
  0
POLYLINE
  5
121
  8
PROFILEEDGES
 66
     1
 10
0.0
 20
0.0
 30
0.0
  0
VERTEX
  5
2C7
  8
PROFILEEDGES
 10
-77.46012119238357
 20
-12.93673449017295
 30
0.0
 40
1.50438505314894
 41
1.50438505314894
  0
VERTEX
  5
2C8
  8
PROFILEEDGES
 10
-74.65645215263712
 20
-11.21864389293272
 30
0.0
 40
1.50438505314894
 41
1.50438505314894
  0
SEQEND
  5
43C
  8
PROFILEEDGES
  0
POLYLINE
  5
122
  8
PROFILEEDGES
 66
     1
 10
0.0
 20
0.0
 30
0.0
  0
VERTEX
  5
2C9
  8
PROFILEEDGES
 10
-80.49804099729909
 20
-14.19508207477066
 30
0.0
 40
1.50438505314894
 41
1.50438505314894
  0
VERTEX
  5
2CA
  8
PROFILEEDGES
 10
-77.46012119238357
 20
-12.93673449017295
 30
0.0
 40
1.50438505314894
 41
1.50438505314894
  0
SEQEND
  5
43D
  8
PROFILEEDGES
  0
POLYLINE
  5
123
  8
PROFILEEDGES
 66
     1
 10
0.0
 20
0.0
 30
0.0
  0
VERTEX
  5
2CB
  8
PROFILEEDGES
 10
-96.48686303646785
 20
-12.93673449017295
 30
0.0
 40
1.50438505314894
 41
1.50438505314894
  0
VERTEX
  5
2CC
  8
PROFILEEDGES
 10
-93.44894323155306
 20
-14.19508207477066
 30
0.0
 40
1.50438505314894
 41
1.50438505314894
  0
SEQEND
  5
43E
  8
PROFILEEDGES
  0
POLYLINE
  5
124
  8
PROFILEEDGES
 66
     1
 10
0.0
 20
0.0
 30
0.0
  0
VERTEX
  5
2CD
  8
PROFILEEDGES
 10
-103.9264432315529
 20
-6.58273273759446
 30
0.0
 40
1.50438505314894
 41
1.50438505314894
  0
VERTEX
  5
2CE
  8
PROFILEEDGES
 10
-101.7909147141901
 20
-9.083115375569784
 30
0.0
 40
1.50438505314894
 41
1.50438505314894
  0
SEQEND
  5
43F
  8
PROFILEEDGES
  0
POLYLINE
  5
125
  8
PROFILEEDGES
 66
     1
 10
0.0
 20
0.0
 30
0.0
  0
VERTEX
  5
2CF
  8
PROFILEEDGES
 10
-106.9028814133906
 20
-0.7411438929327271
 30
0.0
 40
1.50438505314894
 41
1.50438505314894
  0
VERTEX
  5
2D0
  8
PROFILEEDGES
 10
-105.6445338287934
 20
-3.779063697847881
 30
0.0
 40
1.50438505314894
 41
1.50438505314894
  0
SEQEND
  5
440
  8
PROFILEEDGES
  0
POLYLINE
  5
126
  8
PROFILEEDGES
 66
     1
 10
0.0
 20
0.0
 30
0.0
  0
VERTEX
  5
2D1
  8
PROFILEEDGES
 10
-107.6705012915973
 20
9.012391439112358
 30
0.0
 40
1.50438505314894
 41
1.50438505314894
  0
VERTEX
  5
2D2
  8
PROFILEEDGES
 10
-107.9284921144258
 20
5.734307224194311
 30
0.0
 40
1.50438505314894
 41
1.50438505314894
  0
SEQEND
  5
441
  8
PROFILEEDGES
  0
POLYLINE
  5
127
  8
PROFILEEDGES
 66
     1
 10
0.0
 20
0.0
 30
0.0
  0
VERTEX
  5
2D3
  8
PROFILEEDGES
 10
-96.48686303646785
 20
24.40534893856158
 30
0.0
 40
1.50438505314894
 41
1.50438505314894
  0
VERTEX
  5
2D4
  8
PROFILEEDGES
 10
-99.29053207621503
 20
22.68725834132134
 30
0.0
 40
1.50438505314894
 41
1.50438505314894
  0
SEQEND
  5
442
  8
PROFILEEDGES
  0
POLYLINE
  5
128
  8
PROFILEEDGES
 66
     1
 10
0.0
 20
0.0
 30
0.0
  0
VERTEX
  5
2D5
  8
PROFILEEDGES
 10
-86.97349211442608
 20
26.68930722419429
 30
0.0
 40
1.50438505314894
 41
1.50438505314894
  0
VERTEX
  5
2D6
  8
PROFILEEDGES
 10
-90.25157632934366
 20
26.43131640136543
 30
0.0
 40
1.50438505314894
 41
1.50438505314894
  0
SEQEND
  5
443
  8
PROFILEEDGES
  0
POLYLINE
  5
129
  8
PROFILEEDGES
 66
     1
 10
0.0
 20
0.0
 30
0.0
  0
VERTEX
  5
2D7
  8
PROFILEEDGES
 10
-88.26485862333305
 20
-166.8840600274185
 30
0.0
 40
1.50438505314894
 41
1.50438505314894
  0
VERTEX
  5
2D8
  8
PROFILEEDGES
 10
-86.97349211442608
 20
-166.9856927758057
 30
0.0
 40
1.50438505314894
 41
1.50438505314894
  0
SEQEND
  5
444
  8
PROFILEEDGES
  0
POLYLINE
  5
12A
  8
PROFILEEDGES
 66
     1
 10
0.0
 20
0.0
 30
0.0
  0
VERTEX
  5
2D9
  8
PROFILEEDGES
 10
-92.81065859312085
 20
-164.5678592545006
 30
0.0
 40
1.50438505314894
 41
1.50438505314894
  0
VERTEX
  5
2DA
  8
PROFILEEDGES
 10
-91.82565937210002
 20
-165.4091280643709
 30
0.0
 40
1.50438505314894
 41
1.50438505314894
  0
SEQEND
  5
445
  8
PROFILEEDGES
  0
POLYLINE
  5
12B
  8
PROFILEEDGES
 66
     1
 10
0.0
 20
0.0
 30
0.0
  0
VERTEX
  5
2DB
  8
PROFILEEDGES
 10
-95.12685936603849
 20
-160.0220592847128
 30
0.0
 40
1.50438505314894
 41
1.50438505314894
  0
VERTEX
  5
2DC
  8
PROFILEEDGES
 10
-94.82446365644255
 20
-161.2816280643709
 30
0.0
 40
1.50438505314894
 41
1.50438505314894
  0
SEQEND
  5
446
  8
PROFILEEDGES
  0
POLYLINE
  5
12C
  8
PROFILEEDGES
 66
     1
 10
0.0
 20
0.0
 30
0.0
  0
VERTEX
  5
2DD
  8
PROFILEEDGES
 10
-86.97349211442608
 20
-150.4756927758057
 30
0.0
 40
1.50438505314894
 41
1.50438505314894
  0
VERTEX
  5
2DE
  8
PROFILEEDGES
 10
-85.6821256055191
 20
-150.5773255241928
 30
0.0
 40
1.50438505314894
 41
1.50438505314894
  0
SEQEND
  5
447
  8
PROFILEEDGES
  0
POLYLINE
  5
12D
  8
PROFILEEDGES
 66
     1
 10
0.0
 20
0.0
 30
0.0
  0
VERTEX
  5
2DF
  8
PROFILEEDGES
 10
-80.29505682586083
 20
-153.8785255181313
 30
0.0
 40
1.50438505314894
 41
1.50438505314894
  0
VERTEX
  5
2E0
  8
PROFILEEDGES
 10
-81.1363256357313
 20
-152.8935262971108
 30
0.0
 40
1.50438505314894
 41
1.50438505314894
  0
SEQEND
  5
448
  8
PROFILEEDGES
  0
POLYLINE
  5
12E
  8
PROFILEEDGES
 66
     1
 10
0.0
 20
0.0
 30
0.0
  0
VERTEX
  5
2E1
  8
PROFILEEDGES
 10
-86.97349211442608
 20
-150.4756927758057
 30
0.0
 40
1.50438505314894
 41
1.50438505314894
  0
VERTEX
  5
2E2
  8
PROFILEEDGES
 10
-88.26485862333305
 20
-150.5773255241928
 30
0.0
 40
1.50438505314894
 41
1.50438505314894
  0
SEQEND
  5
449
  8
PROFILEEDGES
  0
POLYLINE
  5
12F
  8
PROFILEEDGES
 66
     1
 10
0.0
 20
0.0
 30
0.0
  0
VERTEX
  5
2E3
  8
PROFILEEDGES
 10
-86.97349211442608
 20
-166.9856927758057
 30
0.0
 40
1.50438505314894
 41
1.50438505314894
  0
VERTEX
  5
2E4
  8
PROFILEEDGES
 10
-85.6821256055191
 20
-166.8840600274185
 30
0.0
 40
1.50438505314894
 41
1.50438505314894
  0
SEQEND
  5
44A
  8
PROFILEEDGES
  0
LINE
  5
130
  8
0
 10
-92.66404006584075
 20
-176.2443985233812
 30
0.0
 11
-89.85423278814169
 21
-176.9189735678654
 31
0.0
  0
LINE
  5
131
  8
0
 10
-97.79755753539187
 20
-173.6287407272206
 30
0.0
 11
-95.33372716712948
 21
-175.1385779187347
 31
0.0
  0
LINE
  5
132
  8
0
 10
-101.871540065841
 20
-169.5547581967717
 30
0.0
 11
-99.99486348997652
 21
-171.7520641513561
 31
0.0
  0
LINE
  5
133
  8
0
 10
-89.85423278814169
 20
-176.9189735678654
 30
0.0
 11
-86.97349211442608
 21
-177.145692775806
 31
0.0
  0
LINE
  5
134
  8
0
 10
-86.97349211442608
 20
-177.145692775806
 30
0.0
 11
-86.97349211442608
 21
-166.9856927758057
 31
0.0
  0
LINE
  5
135
  8
0
 10
-95.33372716712948
 20
-175.1385779187347
 30
0.0
 11
-92.66404006584075
 21
-176.2443985233812
 31
0.0
  0
LINE
  5
136
  8
0
 10
-103.381377257355
 20
-167.0909278285096
 30
0.0
 11
-101.871540065841
 21
-169.5547581967717
 31
0.0
  0
LINE
  5
137
  8
0
 10
-104.4871978620015
 20
-164.4212407272204
 30
0.0
 11
-103.381377257355
 21
-167.0909278285096
 31
0.0
  0
POLYLINE
  5
138
  8
PROFILEEDGES
 66
     1
 10
0.0
 20
0.0
 30
0.0
  0
VERTEX
  5
2E5
  8
PROFILEEDGES
 10
-79.1225205724096
 20
-161.2816280643709
 30
0.0
 40
1.50438505314894
 41
1.50438505314894
  0
VERTEX
  5
2E6
  8
PROFILEEDGES
 10
-78.82012486281293
 20
-160.0220592847128
 30
0.0
 40
1.50438505314894
 41
1.50438505314894
  0
SEQEND
  5
44B
  8
PROFILEEDGES
  0
LINE
  5
139
  8
0
 10
-105.1617729064857
 20
-161.6114334495216
 30
0.0
 11
-104.4871978620015
 21
-164.4212407272204
 31
0.0
  0
LINE
  5
13A
  8
0
 10
-99.99486348997652
 20
-171.7520641513561
 30
0.0
 11
-97.79755753539187
 21
-173.6287407272206
 31
0.0
  0
POLYLINE
  5
13B
  8
PROFILEEDGES
 66
     1
 10
0.0
 20
0.0
 30
0.0
  0
VERTEX
  5
2E7
  8
PROFILEEDGES
 10
-82.1213248567514
 20
-165.4091280643709
 30
0.0
 40
1.50438505314894
 41
1.50438505314894
  0
VERTEX
  5
2E8
  8
PROFILEEDGES
 10
-81.1363256357313
 20
-164.5678592545006
 30
0.0
 40
1.50438505314894
 41
1.50438505314894
  0
SEQEND
  5
44C
  8
PROFILEEDGES
  0
LINE
  5
13C
  8
0
 10
-99.99486348997652
 20
-145.7093214002552
 30
0.0
 11
-101.871540065841
 21
-147.9066273548396
 31
0.0
  0
LINE
  5
13D
  8
0
 10
-104.4871978620015
 20
-153.0401448243909
 30
0.0
 11
-105.1617729064857
 21
-155.8499521020897
 31
0.0
  0
LINE
  5
13E
  8
0
 10
-95.33372716712948
 20
-142.3228076328766
 30
0.0
 11
-97.79755753539187
 21
-143.8326448243907
 31
0.0
  0
LINE
  5
13F
  8
0
 10
-97.79755753539187
 20
-143.8326448243907
 30
0.0
 11
-99.99486348997652
 21
-145.7093214002552
 31
0.0
  0
LINE
  5
140
  8
0
 10
-101.871540065841
 20
-147.9066273548396
 30
0.0
 11
-103.381377257355
 21
-150.3704577231018
 31
0.0
  0
LINE
  5
141
  8
0
 10
-105.3884921144259
 20
-158.7306927758056
 30
0.0
 11
-105.1617729064857
 21
-161.6114334495216
 31
0.0
  0
LINE
  5
142
  8
0
 10
-105.1617729064857
 20
-155.8499521020897
 30
0.0
 11
-105.3884921144259
 21
-158.7306927758056
 31
0.0
  0
LINE
  5
143
  8
0
 10
-103.381377257355
 20
-150.3704577231018
 30
0.0
 11
-104.4871978620015
 21
-153.0401448243909
 31
0.0
  0
LINE
  5
144
  8
0
 10
-89.85423278814169
 20
-140.5424119837459
 30
0.0
 11
-92.66404006584075
 21
-141.2169870282301
 31
0.0
  0
LINE
  5
145
  8
0
 10
-92.66404006584075
 20
-141.2169870282301
 30
0.0
 11
-95.33372716712948
 21
-142.3228076328766
 31
0.0
  0
POLYLINE
  5
146
  8
PROFILEEDGES
 66
     1
 10
0.0
 20
0.0
 30
0.0
  0
VERTEX
  5
2E9
  8
PROFILEEDGES
 10
309.041507885574
 20
-70.46569277580568
 30
0.0
 40
1.50438505314894
 41
1.50438505314894
  0
VERTEX
  5
2EA
  8
PROFILEEDGES
 10
278.561507885574
 20
-70.46569277580568
 30
0.0
 40
1.50438505314894
 41
1.50438505314894
  0
SEQEND
  5
44D
  8
PROFILEEDGES
  0
POLYLINE
  5
147
  8
PROFILEEDGES
 66
     1
 10
0.0
 20
0.0
 30
0.0
  0
VERTEX
  5
2EB
  8
PROFILEEDGES
 10
309.041507885574
 20
81.93430722419431
 30
0.0
 40
1.50438505314894
 41
1.50438505314894
  0
VERTEX
  5
2EC
  8
PROFILEEDGES
 10
278.561507885574
 20
81.93430722419431
 30
0.0
 40
1.50438505314894
 41
1.50438505314894
  0
SEQEND
  5
44E
  8
PROFILEEDGES
  0
POLYLINE
  5
148
  8
PROFILEEDGES
 66
     1
 10
0.0
 20
0.0
 30
0.0
  0
VERTEX
  5
2ED
  8
PROFILEEDGES
 10
249.2894542336691
 20
-232.3524342093778
 30
0.0
 40
1.50438505314894
 41
1.50438505314894
  0
VERTEX
  5
2EE
  8
PROFILEEDGES
 10
221.411507885574
 20
-222.8656927758057
 30
0.0
 40
1.50438505314894
 41
1.50438505314894
  0
SEQEND
  5
44F
  8
PROFILEEDGES
  0
POLYLINE
  5
149
  8
PROFILEEDGES
 66
     1
 10
0.0
 20
0.0
 30
0.0
  0
VERTEX
  5
2EF
  8
PROFILEEDGES
 10
278.561507885574
 20
-235.5656927758057
 30
0.0
 40
1.50438505314894
 41
1.50438505314894
  0
VERTEX
  5
2F0
  8
PROFILEEDGES
 10
249.2894542336691
 20
-232.3524342093778
 30
0.0
 40
1.50438505314894
 41
1.50438505314894
  0
SEQEND
  5
450
  8
PROFILEEDGES
  0
POLYLINE
  5
14A
  8
PROFILEEDGES
 66
     1
 10
0.0
 20
0.0
 30
0.0
  0
VERTEX
  5
2F1
  8
PROFILEEDGES
 10
249.2894542336691
 20
243.8210486577665
 30
0.0
 40
1.50438505314894
 41
1.50438505314894
  0
VERTEX
  5
2F2
  8
PROFILEEDGES
 10
221.411507885574
 20
234.3343072241943
 30
0.0
 40
1.50438505314894
 41
1.50438505314894
  0
SEQEND
  5
451
  8
PROFILEEDGES
  0
POLYLINE
  5
14B
  8
PROFILEEDGES
 66
     1
 10
0.0
 20
0.0
 30
0.0
  0
VERTEX
  5
2F3
  8
PROFILEEDGES
 10
278.561507885574
 20
247.0343072241943
 30
0.0
 40
1.50438505314894
 41
1.50438505314894
  0
VERTEX
  5
2F4
  8
PROFILEEDGES
 10
249.2894542336691
 20
243.8210486577665
 30
0.0
 40
1.50438505314894
 41
1.50438505314894
  0
SEQEND
  5
452
  8
PROFILEEDGES
  0
POLYLINE
  5
14C
  8
PROFILEEDGES
 66
     1
 10
0.0
 20
0.0
 30
0.0
  0
VERTEX
  5
2F5
  8
PROFILEEDGES
 10
-80.09925161787804
 20
174.7319494228734
 30
0.0
 40
1.50438505314894
 41
1.50438505314894
  0
VERTEX
  5
2F6
  8
PROFILEEDGES
 10
-81.0757724033701
 20
175.9603044415938
 30
0.0
 40
1.50438505314894
 41
1.50438505314894
  0
SEQEND
  5
453
  8
PROFILEEDGES
  0
POLYLINE
  5
14D
  8
PROFILEEDGES
 66
     1
 10
0.0
 20
0.0
 30
0.0
  0
VERTEX
  5
2F7
  8
PROFILEEDGES
 10
-81.0757724033701
 20
175.9603044415938
 30
0.0
 40
1.50438505314894
 41
1.50438505314894
  0
VERTEX
  5
2F8
  8
PROFILEEDGES
 10
-81.1363256357313
 20
176.0364737028893
 30
0.0
 40
1.50438505314894
 41
1.50438505314894
  0
SEQEND
  5
454
  8
PROFILEEDGES
  0
LINE
  5
14E
  8
0
 10
-80.29505682586083
 20
175.0514744818687
 30
0.0
 11
-81.0757724033701
 21
175.9603044415938
 31
0.0
  0
LINE
  5
14F
  8
0
 10
-90.72118368977597
 20
162.8440483670194
 30
0.0
 11
-89.72143259465174
 21
162.4421820457947
 31
0.0
  0
POLYLINE
  5
150
  8
PROFILEEDGES
 66
     1
 10
0.0
 20
0.0
 30
0.0
  0
VERTEX
  5
2F9
  8
PROFILEEDGES
 10
-89.72143259465174
 20
162.4421820457947
 30
0.0
 40
1.50438505314894
 41
1.50438505314894
  0
VERTEX
  5
2FA
  8
PROFILEEDGES
 10
-89.52442740299075
 20
162.3483356821779
 30
0.0
 40
1.50438505314894
 41
1.50438505314894
  0
SEQEND
  5
455
  8
PROFILEEDGES
  0
POLYLINE
  5
151
  8
PROFILEEDGES
 66
     1
 10
0.0
 20
0.0
 30
0.0
  0
VERTEX
  5
2FB
  8
PROFILEEDGES
 10
-81.21214425284735
 20
164.3010784323019
 30
0.0
 40
1.50438505314894
 41
1.50438505314894
  0
VERTEX
  5
2FC
  8
PROFILEEDGES
 10
-81.1363256357313
 20
164.3621407454994
 30
0.0
 40
1.50438505314894
 41
1.50438505314894
  0
SEQEND
  5
456
  8
PROFILEEDGES
  0
POLYLINE
  5
152
  8
PROFILEEDGES
 66
     1
 10
0.0
 20
0.0
 30
0.0
  0
VERTEX
  5
2FD
  8
PROFILEEDGES
 10
-80.09925161787804
 20
174.7319494228734
 30
0.0
 40
1.50438505314894
 41
1.50438505314894
  0
VERTEX
  5
2FE
  8
PROFILEEDGES
 10
-80.29505682586083
 20
175.0514744818687
 30
0.0
 40
1.50438505314894
 41
1.50438505314894
  0
SEQEND
  5
457
  8
PROFILEEDGES
  0
POLYLINE
  5
153
  8
PROFILEEDGES
 66
     1
 10
0.0
 20
0.0
 30
0.0
  0
VERTEX
  5
2FF
  8
PROFILEEDGES
 10
-89.72143259465174
 20
162.4421820457947
 30
0.0
 40
1.50438505314894
 41
1.50438505314894
  0
VERTEX
  5
300
  8
PROFILEEDGES
 10
-91.2663485357476
 20
163.1781258142971
 30
0.0
 40
1.50438505314894
 41
1.50438505314894
  0
SEQEND
  5
458
  8
PROFILEEDGES
  0
POLYLINE
  5
154
  8
PROFILEEDGES
 66
     1
 10
0.0
 20
0.0
 30
0.0
  0
VERTEX
  5
301
  8
PROFILEEDGES
 10
-82.1213248567514
 20
163.5208719356291
 30
0.0
 40
1.50438505314894
 41
1.50438505314894
  0
VERTEX
  5
302
  8
PROFILEEDGES
 10
-81.21214425284735
 20
164.3010784323019
 30
0.0
 40
1.50438505314894
 41
1.50438505314894
  0
SEQEND
  5
459
  8
PROFILEEDGES
  0
POLYLINE
  5
155
  8
PROFILEEDGES
 66
     1
 10
0.0
 20
0.0
 30
0.0
  0
VERTEX
  5
303
  8
PROFILEEDGES
 10
-91.2663485357476
 20
163.1781258142971
 30
0.0
 40
1.50438505314894
 41
1.50438505314894
  0
VERTEX
  5
304
  8
PROFILEEDGES
 10
-90.72118368977597
 20
162.8440483670194
 30
0.0
 40
1.50438505314894
 41
1.50438505314894
  0
SEQEND
  5
45A
  8
PROFILEEDGES
  0
POLYLINE
  5
156
  8
PROFILEEDGES
 66
     1
 10
0.0
 20
0.0
 30
0.0
  0
VERTEX
  5
305
  8
PROFILEEDGES
 10
-94.82446365644255
 20
172.7502425127596
 30
0.0
 40
1.50438505314894
 41
1.50438505314894
  0
VERTEX
  5
306
  8
PROFILEEDGES
 10
-94.76030521704912
 20
172.887067599966
 30
0.0
 40
1.50438505314894
 41
1.50438505314894
  0
SEQEND
  5
45B
  8
PROFILEEDGES
  0
POLYLINE
  5
157
  8
PROFILEEDGES
 66
     1
 10
0.0
 20
0.0
 30
0.0
  0
VERTEX
  5
307
  8
PROFILEEDGES
 10
-94.76030521704912
 20
172.887067599966
 30
0.0
 40
1.50438505314894
 41
1.50438505314894
  0
VERTEX
  5
308
  8
PROFILEEDGES
 10
-94.04998864280905
 20
174.401897576091
 30
0.0
 40
1.50438505314894
 41
1.50438505314894
  0
SEQEND
  5
45C
  8
PROFILEEDGES
  0
LINE
  5
158
  8
0
 10
-89.52442740299075
 20
178.0502787662108
 30
0.0
 11
-90.51119117614304
 21
177.6275469728793
 31
0.0
  0
POLYLINE
  5
159
  8
PROFILEEDGES
 66
     1
 10
0.0
 20
0.0
 30
0.0
  0
VERTEX
  5
309
  8
PROFILEEDGES
 10
-90.51119117614304
 20
177.6275469728793
 30
0.0
 40
1.50438505314894
 41
1.50438505314894
  0
VERTEX
  5
30A
  8
PROFILEEDGES
 10
-90.72118368977597
 20
177.5545660813692
 30
0.0
 40
1.50438505314894
 41
1.50438505314894
  0
SEQEND
  5
45D
  8
PROFILEEDGES
  0
LINE
  5
15A
  8
0
 10
-94.32875097160058
 20
173.9469987995442
 30
0.0
 11
-94.76030521704912
 21
172.887067599966
 31
0.0
  0
POLYLINE
  5
15B
  8
PROFILEEDGES
 66
     1
 10
0.0
 20
0.0
 30
0.0
  0
VERTEX
  5
30B
  8
PROFILEEDGES
 10
-95.1793227175287
 20
169.5745508004668
 30
0.0
 40
1.50438505314894
 41
1.50438505314894
  0
VERTEX
  5
30C
  8
PROFILEEDGES
 10
-94.87883799652073
 20
167.9435164482915
 30
0.0
 40
1.50438505314894
 41
1.50438505314894
  0
SEQEND
  5
45E
  8
PROFILEEDGES
  0
POLYLINE
  5
15C
  8
PROFILEEDGES
 66
     1
 10
0.0
 20
0.0
 30
0.0
  0
VERTEX
  5
30D
  8
PROFILEEDGES
 10
-94.87883799652073
 20
167.9435164482915
 30
0.0
 40
1.50438505314894
 41
1.50438505314894
  0
VERTEX
  5
30E
  8
PROFILEEDGES
 10
-94.82446365644255
 20
167.6483719356291
 30
0.0
 40
1.50438505314894
 41
1.50438505314894
  0
SEQEND
  5
45F
  8
PROFILEEDGES
  0
LINE
  5
15D
  8
0
 10
-95.12685936603849
 20
168.9079407152872
 30
0.0
 11
-94.87883799652073
 21
167.9435164482915
 31
0.0
  0
LINE
  5
15E
  8
0
 10
-94.82446365644255
 20
167.6483719356291
 30
0.0
 11
-94.38097322636392
 21
166.5932485543681
 31
0.0
  0
POLYLINE
  5
15F
  8
PROFILEEDGES
 66
     1
 10
0.0
 20
0.0
 30
0.0
  0
VERTEX
  5
30F
  8
PROFILEEDGES
 10
-94.38097322636392
 20
166.5932485543681
 30
0.0
 40
1.50438505314894
 41
1.50438505314894
  0
VERTEX
  5
310
  8
PROFILEEDGES
 10
-94.32875097160058
 20
166.4516156488444
 30
0.0
 40
1.50438505314894
 41
1.50438505314894
  0
SEQEND
  5
460
  8
PROFILEEDGES
  0
POLYLINE
  5
160
  8
PROFILEEDGES
 66
     1
 10
0.0
 20
0.0
 30
0.0
  0
VERTEX
  5
311
  8
PROFILEEDGES
 10
-94.38097322636392
 20
166.5932485543681
 30
0.0
 40
1.50438505314894
 41
1.50438505314894
  0
VERTEX
  5
312
  8
PROFILEEDGES
 10
-94.87883799652073
 20
167.9435164482915
 30
0.0
 40
1.50438505314894
 41
1.50438505314894
  0
SEQEND
  5
461
  8
PROFILEEDGES
  0
POLYLINE
  5
161
  8
PROFILEEDGES
 66
     1
 10
0.0
 20
0.0
 30
0.0
  0
VERTEX
  5
313
  8
PROFILEEDGES
 10
-90.51119117614304
 20
177.6275469728793
 30
0.0
 40
1.50438505314894
 41
1.50438505314894
  0
VERTEX
  5
314
  8
PROFILEEDGES
 10
-88.78191649928695
 20
178.2285398625755
 30
0.0
 40
1.50438505314894
 41
1.50438505314894
  0
SEQEND
  5
462
  8
PROFILEEDGES
  0
POLYLINE
  5
162
  8
PROFILEEDGES
 66
     1
 10
0.0
 20
0.0
 30
0.0
  0
VERTEX
  5
315
  8
PROFILEEDGES
 10
-81.2121442528473
 20
-152.8324639839133
 30
0.0
 40
1.50438505314894
 41
1.50438505314894
  0
VERTEX
  5
316
  8
PROFILEEDGES
 10
-81.1363256357313
 20
-152.8935262971108
 30
0.0
 40
1.50438505314894
 41
1.50438505314894
  0
SEQEND
  5
463
  8
PROFILEEDGES
  0
POLYLINE
  5
163
  8
PROFILEEDGES
 66
     1
 10
0.0
 20
0.0
 30
0.0
  0
VERTEX
  5
317
  8
PROFILEEDGES
 10
-90.72118368977597
 20
-166.0859516329806
 30
0.0
 40
1.50438505314894
 41
1.50438505314894
  0
VERTEX
  5
318
  8
PROFILEEDGES
 10
-90.5111911761426
 20
-166.1589325244909
 30
0.0
 40
1.50438505314894
 41
1.50438505314894
  0
SEQEND
  5
464
  8
PROFILEEDGES
  0
LINE
  5
164
  8
0
 10
-90.5111911761426
 20
-166.1589325244909
 30
0.0
 11
-89.52442740299075
 21
-166.5816643178222
 31
0.0
  0
POLYLINE
  5
165
  8
PROFILEEDGES
 66
     1
 10
0.0
 20
0.0
 30
0.0
  0
VERTEX
  5
319
  8
PROFILEEDGES
 10
-89.52442740299075
 20
-166.5816643178222
 30
0.0
 40
1.50438505314894
 41
1.50438505314894
  0
VERTEX
  5
31A
  8
PROFILEEDGES
 10
-88.78191649928567
 20
-166.7599254141872
 30
0.0
 40
1.50438505314894
 41
1.50438505314894
  0
SEQEND
  5
465
  8
PROFILEEDGES
  0
POLYLINE
  5
166
  8
PROFILEEDGES
 66
     1
 10
0.0
 20
0.0
 30
0.0
  0
VERTEX
  5
31B
  8
PROFILEEDGES
 10
-88.78191649928567
 20
-166.7599254141872
 30
0.0
 40
1.50438505314894
 41
1.50438505314894
  0
VERTEX
  5
31C
  8
PROFILEEDGES
 10
-90.5111911761426
 20
-166.1589325244909
 30
0.0
 40
1.50438505314894
 41
1.50438505314894
  0
SEQEND
  5
466
  8
PROFILEEDGES
  0
POLYLINE
  5
167
  8
PROFILEEDGES
 66
     1
 10
0.0
 20
0.0
 30
0.0
  0
VERTEX
  5
31D
  8
PROFILEEDGES
 10
-94.82446365644255
 20
-161.2816280643709
 30
0.0
 40
1.50438505314894
 41
1.50438505314894
  0
VERTEX
  5
31E
  8
PROFILEEDGES
 10
-94.76030521704915
 20
-161.4184531515772
 30
0.0
 40
1.50438505314894
 41
1.50438505314894
  0
SEQEND
  5
467
  8
PROFILEEDGES
  0
LINE
  5
168
  8
0
 10
-94.76030521704915
 20
-161.4184531515772
 30
0.0
 11
-94.32875097160058
 21
-162.4783843511556
 31
0.0
  0
POLYLINE
  5
169
  8
PROFILEEDGES
 66
     1
 10
0.0
 20
0.0
 30
0.0
  0
VERTEX
  5
31F
  8
PROFILEEDGES
 10
-94.04998864280887
 20
-162.9332831277027
 30
0.0
 40
1.50438505314894
 41
1.50438505314894
  0
VERTEX
  5
320
  8
PROFILEEDGES
 10
-94.76030521704915
 20
-161.4184531515772
 30
0.0
 40
1.50438505314894
 41
1.50438505314894
  0
SEQEND
  5
468
  8
PROFILEEDGES
  0
POLYLINE
  5
16A
  8
PROFILEEDGES
 66
     1
 10
0.0
 20
0.0
 30
0.0
  0
VERTEX
  5
321
  8
PROFILEEDGES
 10
-81.2121442528473
 20
-152.8324639839133
 30
0.0
 40
1.50438505314894
 41
1.50438505314894
  0
VERTEX
  5
322
  8
PROFILEEDGES
 10
-82.1213248567514
 20
-152.0522574872405
 30
0.0
 40
1.50438505314894
 41
1.50438505314894
  0
SEQEND
  5
469
  8
PROFILEEDGES
  0
POLYLINE
  5
16B
  8
PROFILEEDGES
 66
     1
 10
0.0
 20
0.0
 30
0.0
  0
VERTEX
  5
323
  8
PROFILEEDGES
 10
-93.66114370100635
 20
-153.8718294856727
 30
0.0
 40
1.50438505314894
 41
1.50438505314894
  0
VERTEX
  5
324
  8
PROFILEEDGES
 10
-93.6675718647889
 20
-153.9052655357999
 30
0.0
 40
1.50438505314894
 41
1.50438505314894
  0
SEQEND
  5
46A
  8
PROFILEEDGES
  0
POLYLINE
  5
16C
  8
PROFILEEDGES
 66
     1
 10
0.0
 20
0.0
 30
0.0
  0
VERTEX
  5
325
  8
PROFILEEDGES
 10
-93.6675718647889
 20
-153.9052655357999
 30
0.0
 40
1.50438505314894
 41
1.50438505314894
  0
VERTEX
  5
326
  8
PROFILEEDGES
 10
-94.32875097160058
 20
-154.9830012004557
 30
0.0
 40
1.50438505314894
 41
1.50438505314894
  0
SEQEND
  5
46B
  8
PROFILEEDGES
  0
POLYLINE
  5
16D
  8
PROFILEEDGES
 66
     1
 10
0.0
 20
0.0
 30
0.0
  0
VERTEX
  5
327
  8
PROFILEEDGES
 10
-90.72118368977597
 20
-151.3754339186307
 30
0.0
 40
1.50438505314894
 41
1.50438505314894
  0
VERTEX
  5
328
  8
PROFILEEDGES
 10
-91.26634853574767
 20
-151.7095113659085
 30
0.0
 40
1.50438505314894
 41
1.50438505314894
  0
SEQEND
  5
46C
  8
PROFILEEDGES
  0
POLYLINE
  5
16E
  8
PROFILEEDGES
 66
     1
 10
0.0
 20
0.0
 30
0.0
  0
VERTEX
  5
329
  8
PROFILEEDGES
 10
-89.52442740299075
 20
-150.8797212337892
 30
0.0
 40
1.50438505314894
 41
1.50438505314894
  0
VERTEX
  5
32A
  8
PROFILEEDGES
 10
-89.72143259465173
 20
-150.973567597406
 30
0.0
 40
1.50438505314894
 41
1.50438505314894
  0
SEQEND
  5
46D
  8
PROFILEEDGES
  0
LINE
  5
16F
  8
0
 10
-89.72143259465173
 20
-150.973567597406
 30
0.0
 11
-90.72118368977597
 21
-151.3754339186307
 31
0.0
  0
POLYLINE
  5
170
  8
PROFILEEDGES
 66
     1
 10
0.0
 20
0.0
 30
0.0
  0
VERTEX
  5
32B
  8
PROFILEEDGES
 10
-91.26634853574767
 20
-151.7095113659085
 30
0.0
 40
1.50438505314894
 41
1.50438505314894
  0
VERTEX
  5
32C
  8
PROFILEEDGES
 10
-89.72143259465173
 20
-150.973567597406
 30
0.0
 40
1.50438505314894
 41
1.50438505314894
  0
SEQEND
  5
46E
  8
PROFILEEDGES
  0
POLYLINE
  5
171
  8
PROFILEEDGES
 66
     1
 10
0.0
 20
0.0
 30
0.0
  0
VERTEX
  5
32D
  8
PROFILEEDGES
 10
-94.82446365644255
 20
-156.1797574872405
 30
0.0
 40
1.50438505314894
 41
1.50438505314894
  0
VERTEX
  5
32E
  8
PROFILEEDGES
 10
-94.87883799652073
 20
-156.4749019999028
 30
0.0
 40
1.50438505314894
 41
1.50438505314894
  0
SEQEND
  5
46F
  8
PROFILEEDGES
  0
POLYLINE
  5
172
  8
PROFILEEDGES
 66
     1
 10
0.0
 20
0.0
 30
0.0
  0
VERTEX
  5
32F
  8
PROFILEEDGES
 10
-94.87883799652073
 20
-156.4749019999028
 30
0.0
 40
1.50438505314894
 41
1.50438505314894
  0
VERTEX
  5
330
  8
PROFILEEDGES
 10
-95.1793227175287
 20
-158.1059363520782
 30
0.0
 40
1.50438505314894
 41
1.50438505314894
  0
SEQEND
  5
470
  8
PROFILEEDGES
  0
POLYLINE
  5
173
  8
PROFILEEDGES
 66
     1
 10
0.0
 20
0.0
 30
0.0
  0
VERTEX
  5
331
  8
PROFILEEDGES
 10
-94.38097322636392
 20
-155.1246341059795
 30
0.0
 40
1.50438505314894
 41
1.50438505314894
  0
VERTEX
  5
332
  8
PROFILEEDGES
 10
-94.32875097160058
 20
-154.9830012004557
 30
0.0
 40
1.50438505314894
 41
1.50438505314894
  0
SEQEND
  5
471
  8
PROFILEEDGES
  0
POLYLINE
  5
174
  8
PROFILEEDGES
 66
     1
 10
0.0
 20
0.0
 30
0.0
  0
VERTEX
  5
333
  8
PROFILEEDGES
 10
-94.87883799652073
 20
-156.4749019999028
 30
0.0
 40
1.50438505314894
 41
1.50438505314894
  0
VERTEX
  5
334
  8
PROFILEEDGES
 10
-94.38097322636392
 20
-155.1246341059795
 30
0.0
 40
1.50438505314894
 41
1.50438505314894
  0
SEQEND
  5
472
  8
PROFILEEDGES
  0
LINE
  5
175
  8
0
 10
-94.87883799652073
 20
-156.4749019999028
 30
0.0
 11
-95.12685936603849
 21
-157.4393262668985
 31
0.0
  0
LINE
  5
176
  8
0
 10
-94.38097322636392
 20
-155.1246341059795
 30
0.0
 11
-94.82446365644255
 21
-156.1797574872405
 31
0.0
  0
POLYLINE
  5
177
  8
PROFILEEDGES
 66
     1
 10
0.0
 20
0.0
 30
0.0
  0
VERTEX
  5
335
  8
PROFILEEDGES
 10
-79.87272269981145
 20
-162.8936733773545
 30
0.0
 40
1.50438505314894
 41
1.50438505314894
  0
VERTEX
  5
336
  8
PROFILEEDGES
 10
-79.61823325725084
 20
-162.4783843511556
 30
0.0
 40
1.50438505314894
 41
1.50438505314894
  0
SEQEND
  5
473
  8
PROFILEEDGES
  0
POLYLINE
  5
178
  8
PROFILEEDGES
 66
     1
 10
0.0
 20
0.0
 30
0.0
  0
VERTEX
  5
337
  8
PROFILEEDGES
 10
-84.42255682586068
 20
-166.5816643178222
 30
0.0
 40
1.50438505314894
 41
1.50438505314894
  0
VERTEX
  5
338
  8
PROFILEEDGES
 10
-83.97772403612737
 20
-166.3974085433263
 30
0.0
 40
1.50438505314894
 41
1.50438505314894
  0
SEQEND
  5
474
  8
PROFILEEDGES
  0
POLYLINE
  5
179
  8
PROFILEEDGES
 66
     1
 10
0.0
 20
0.0
 30
0.0
  0
VERTEX
  5
339
  8
PROFILEEDGES
 10
-81.1363256357313
 20
-164.5678592545006
 30
0.0
 40
1.50438505314894
 41
1.50438505314894
  0
VERTEX
  5
33A
  8
PROFILEEDGES
 10
-81.0757724033702
 20
-164.4916899932053
 30
0.0
 40
1.50438505314894
 41
1.50438505314894
  0
SEQEND
  5
475
  8
PROFILEEDGES
  0
LINE
  5
17A
  8
0
 10
-81.0757724033702
 20
-164.4916899932053
 30
0.0
 11
-80.29505682586083
 21
-163.58286003348
 31
0.0
  0
POLYLINE
  5
17B
  8
PROFILEEDGES
 66
     1
 10
0.0
 20
0.0
 30
0.0
  0
VERTEX
  5
33B
  8
PROFILEEDGES
 10
-78.81783951816145
 20
-159.979329504369
 30
0.0
 40
1.50438505314894
 41
1.50438505314894
  0
VERTEX
  5
33C
  8
PROFILEEDGES
 10
-78.82012486281293
 20
-160.0220592847128
 30
0.0
 40
1.50438505314894
 41
1.50438505314894
  0
SEQEND
  5
476
  8
PROFILEEDGES
  0
POLYLINE
  5
17C
  8
PROFILEEDGES
 66
     1
 10
0.0
 20
0.0
 30
0.0
  0
VERTEX
  5
33D
  8
PROFILEEDGES
 10
-81.0757724033702
 20
-164.4916899932053
 30
0.0
 40
1.50438505314894
 41
1.50438505314894
  0
VERTEX
  5
33E
  8
PROFILEEDGES
 10
-80.0992516178778
 20
-163.2633349744845
 30
0.0
 40
1.50438505314894
 41
1.50438505314894
  0
SEQEND
  5
477
  8
PROFILEEDGES
  0
POLYLINE
  5
17D
  8
PROFILEEDGES
 66
     1
 10
0.0
 20
0.0
 30
0.0
  0
VERTEX
  5
33F
  8
PROFILEEDGES
 10
-78.81783951816145
 20
-159.979329504369
 30
0.0
 40
1.50438505314894
 41
1.50438505314894
  0
VERTEX
  5
340
  8
PROFILEEDGES
 10
-78.71849211442564
 20
-158.7306927758057
 30
0.0
 40
1.50438505314894
 41
1.50438505314894
  0
SEQEND
  5
478
  8
PROFILEEDGES
  0
POLYLINE
  5
17E
  8
PROFILEEDGES
 66
     1
 10
0.0
 20
0.0
 30
0.0
  0
VERTEX
  5
341
  8
PROFILEEDGES
 10
-79.61823325725084
 20
-162.4783843511556
 30
0.0
 40
1.50438505314894
 41
1.50438505314894
  0
VERTEX
  5
342
  8
PROFILEEDGES
 10
-79.36397713543556
 20
-161.8645557735525
 30
0.0
 40
1.50438505314894
 41
1.50438505314894
  0
SEQEND
  5
479
  8
PROFILEEDGES
  0
POLYLINE
  5
17F
  8
PROFILEEDGES
 66
     1
 10
0.0
 20
0.0
 30
0.0
  0
VERTEX
  5
343
  8
PROFILEEDGES
 10
-79.61823325725084
 20
173.9469987995442
 30
0.0
 40
1.50438505314894
 41
1.50438505314894
  0
VERTEX
  5
344
  8
PROFILEEDGES
 10
-79.87272269981125
 20
174.3622878257428
 30
0.0
 40
1.50438505314894
 41
1.50438505314894
  0
SEQEND
  5
47A
  8
PROFILEEDGES
  0
POLYLINE
  5
180
  8
PROFILEEDGES
 66
     1
 10
0.0
 20
0.0
 30
0.0
  0
VERTEX
  5
345
  8
PROFILEEDGES
 10
-79.87272269981125
 20
174.3622878257428
 30
0.0
 40
1.50438505314894
 41
1.50438505314894
  0
VERTEX
  5
346
  8
PROFILEEDGES
 10
-80.09925161787804
 20
174.7319494228734
 30
0.0
 40
1.50438505314894
 41
1.50438505314894
  0
SEQEND
  5
47B
  8
PROFILEEDGES
  0
POLYLINE
  5
181
  8
PROFILEEDGES
 66
     1
 10
0.0
 20
0.0
 30
0.0
  0
VERTEX
  5
347
  8
PROFILEEDGES
 10
-79.36397713543556
 20
173.3331702219411
 30
0.0
 40
1.50438505314894
 41
1.50438505314894
  0
VERTEX
  5
348
  8
PROFILEEDGES
 10
-79.61823325725084
 20
173.9469987995442
 30
0.0
 40
1.50438505314894
 41
1.50438505314894
  0
SEQEND
  5
47C
  8
PROFILEEDGES
  0
POLYLINE
  5
182
  8
PROFILEEDGES
 66
     1
 10
0.0
 20
0.0
 30
0.0
  0
VERTEX
  5
349
  8
PROFILEEDGES
 10
-88.78191649928695
 20
178.2285398625755
 30
0.0
 40
1.50438505314894
 41
1.50438505314894
  0
VERTEX
  5
34A
  8
PROFILEEDGES
 10
-89.52442740299075
 20
178.0502787662108
 30
0.0
 40
1.50438505314894
 41
1.50438505314894
  0
SEQEND
  5
47D
  8
PROFILEEDGES
  0
POLYLINE
  5
183
  8
PROFILEEDGES
 66
     1
 10
0.0
 20
0.0
 30
0.0
  0
VERTEX
  5
34B
  8
PROFILEEDGES
 10
-83.97772403612815
 20
177.8660229917153
 30
0.0
 40
1.50438505314894
 41
1.50438505314894
  0
VERTEX
  5
34C
  8
PROFILEEDGES
 10
-84.42255682586068
 20
178.0502787662108
 30
0.0
 40
1.50438505314894
 41
1.50438505314894
  0
SEQEND
  5
47E
  8
PROFILEEDGES
  0
POLYLINE
  5
184
  8
PROFILEEDGES
 66
     1
 10
0.0
 20
0.0
 30
0.0
  0
VERTEX
  5
34D
  8
PROFILEEDGES
 10
-84.42255682586068
 20
178.0502787662108
 30
0.0
 40
1.50438505314894
 41
1.50438505314894
  0
VERTEX
  5
34E
  8
PROFILEEDGES
 10
-85.07587619070878
 20
178.2071268686065
 30
0.0
 40
1.50438505314894
 41
1.50438505314894
  0
SEQEND
  5
47F
  8
PROFILEEDGES
  0
POLYLINE
  5
185
  8
PROFILEEDGES
 66
     1
 10
0.0
 20
0.0
 30
0.0
  0
VERTEX
  5
34F
  8
PROFILEEDGES
 10
-94.04998864280905
 20
174.401897576091
 30
0.0
 40
1.50438505314894
 41
1.50438505314894
  0
VERTEX
  5
350
  8
PROFILEEDGES
 10
-94.32875097160058
 20
173.9469987995442
 30
0.0
 40
1.50438505314894
 41
1.50438505314894
  0
SEQEND
  5
480
  8
PROFILEEDGES
  0
POLYLINE
  5
186
  8
PROFILEEDGES
 66
     1
 10
0.0
 20
0.0
 30
0.0
  0
VERTEX
  5
351
  8
PROFILEEDGES
 10
-95.1793227175287
 20
169.5745508004668
 30
0.0
 40
1.50438505314894
 41
1.50438505314894
  0
VERTEX
  5
352
  8
PROFILEEDGES
 10
-95.12685936603849
 20
168.9079407152872
 30
0.0
 40
1.50438505314894
 41
1.50438505314894
  0
SEQEND
  5
481
  8
PROFILEEDGES
  0
POLYLINE
  5
187
  8
PROFILEEDGES
 66
     1
 10
0.0
 20
0.0
 30
0.0
  0
VERTEX
  5
353
  8
PROFILEEDGES
 10
-94.32875097160058
 20
-162.4783843511556
 30
0.0
 40
1.50438505314894
 41
1.50438505314894
  0
VERTEX
  5
354
  8
PROFILEEDGES
 10
-94.04998864280887
 20
-162.9332831277027
 30
0.0
 40
1.50438505314894
 41
1.50438505314894
  0
SEQEND
  5
482
  8
PROFILEEDGES
  0
POLYLINE
  5
188
  8
PROFILEEDGES
 66
     1
 10
0.0
 20
0.0
 30
0.0
  0
VERTEX
  5
355
  8
PROFILEEDGES
 10
-95.12685936603849
 20
-157.4393262668985
 30
0.0
 40
1.50438505314894
 41
1.50438505314894
  0
VERTEX
  5
356
  8
PROFILEEDGES
 10
-95.1793227175287
 20
-158.1059363520782
 30
0.0
 40
1.50438505314894
 41
1.50438505314894
  0
SEQEND
  5
483
  8
PROFILEEDGES
  0
POLYLINE
  5
189
  8
PROFILEEDGES
 66
     1
 10
0.0
 20
0.0
 30
0.0
  0
VERTEX
  5
357
  8
PROFILEEDGES
 10
-80.29505682586083
 20
-163.58286003348
 30
0.0
 40
1.50438505314894
 41
1.50438505314894
  0
VERTEX
  5
358
  8
PROFILEEDGES
 10
-80.0992516178778
 20
-163.2633349744845
 30
0.0
 40
1.50438505314894
 41
1.50438505314894
  0
SEQEND
  5
484
  8
PROFILEEDGES
  0
POLYLINE
  5
18A
  8
PROFILEEDGES
 66
     1
 10
0.0
 20
0.0
 30
0.0
  0
VERTEX
  5
359
  8
PROFILEEDGES
 10
-80.0992516178778
 20
-163.2633349744845
 30
0.0
 40
1.50438505314894
 41
1.50438505314894
  0
VERTEX
  5
35A
  8
PROFILEEDGES
 10
-79.87272269981145
 20
-162.8936733773545
 30
0.0
 40
1.50438505314894
 41
1.50438505314894
  0
SEQEND
  5
485
  8
PROFILEEDGES
  0
POLYLINE
  5
18B
  8
PROFILEEDGES
 66
     1
 10
0.0
 20
0.0
 30
0.0
  0
VERTEX
  5
35B
  8
PROFILEEDGES
 10
-85.07587619071072
 20
-166.7385124202183
 30
0.0
 40
1.50438505314894
 41
1.50438505314894
  0
VERTEX
  5
35C
  8
PROFILEEDGES
 10
-84.42255682586068
 20
-166.5816643178222
 30
0.0
 40
1.50438505314894
 41
1.50438505314894
  0
SEQEND
  5
486
  8
PROFILEEDGES
  0
POLYLINE
  5
18C
  8
PROFILEEDGES
 66
     1
 10
0.0
 20
0.0
 30
0.0
  0
VERTEX
  5
35D
  8
PROFILEEDGES
 10
-79.1225205724096
 20
172.7502425127596
 30
0.0
 40
1.50438505314894
 41
1.50438505314894
  0
VERTEX
  5
35E
  8
PROFILEEDGES
 10
-79.36397713543556
 20
173.3331702219411
 30
0.0
 40
1.50438505314894
 41
1.50438505314894
  0
SEQEND
  5
487
  8
PROFILEEDGES
  0
POLYLINE
  5
18D
  8
PROFILEEDGES
 66
     1
 10
0.0
 20
0.0
 30
0.0
  0
VERTEX
  5
35F
  8
PROFILEEDGES
 10
-78.82012486281293
 20
171.4906737331015
 30
0.0
 40
1.50438505314894
 41
1.50438505314894
  0
VERTEX
  5
360
  8
PROFILEEDGES
 10
-78.71849211442564
 20
170.1993072241943
 30
0.0
 40
1.50438505314894
 41
1.50438505314894
  0
SEQEND
  5
488
  8
PROFILEEDGES
  0
POLYLINE
  5
18E
  8
PROFILEEDGES
 66
     1
 10
0.0
 20
0.0
 30
0.0
  0
VERTEX
  5
361
  8
PROFILEEDGES
 10
-78.82012486281293
 20
168.9079407152872
 30
0.0
 40
1.50438505314894
 41
1.50438505314894
  0
VERTEX
  5
362
  8
PROFILEEDGES
 10
-78.71849211442564
 20
170.1993072241943
 30
0.0
 40
1.50438505314894
 41
1.50438505314894
  0
SEQEND
  5
489
  8
PROFILEEDGES
  0
POLYLINE
  5
18F
  8
PROFILEEDGES
 66
     1
 10
0.0
 20
0.0
 30
0.0
  0
VERTEX
  5
363
  8
PROFILEEDGES
 10
-78.82012486281293
 20
168.9079407152872
 30
0.0
 40
1.50438505314894
 41
1.50438505314894
  0
VERTEX
  5
364
  8
PROFILEEDGES
 10
-79.1225205724096
 20
167.6483719356291
 30
0.0
 40
1.50438505314894
 41
1.50438505314894
  0
SEQEND
  5
48A
  8
PROFILEEDGES
  0
POLYLINE
  5
190
  8
PROFILEEDGES
 66
     1
 10
0.0
 20
0.0
 30
0.0
  0
VERTEX
  5
365
  8
PROFILEEDGES
 10
-79.61823325725084
 20
166.4516156488444
 30
0.0
 40
1.50438505314894
 41
1.50438505314894
  0
VERTEX
  5
366
  8
PROFILEEDGES
 10
-79.1225205724096
 20
167.6483719356291
 30
0.0
 40
1.50438505314894
 41
1.50438505314894
  0
SEQEND
  5
48B
  8
PROFILEEDGES
  0
POLYLINE
  5
191
  8
PROFILEEDGES
 66
     1
 10
0.0
 20
0.0
 30
0.0
  0
VERTEX
  5
367
  8
PROFILEEDGES
 10
-79.61823325725084
 20
166.4516156488444
 30
0.0
 40
1.50438505314894
 41
1.50438505314894
  0
VERTEX
  5
368
  8
PROFILEEDGES
 10
-80.29505682586083
 20
165.3471399665199
 30
0.0
 40
1.50438505314894
 41
1.50438505314894
  0
SEQEND
  5
48C
  8
PROFILEEDGES
  0
POLYLINE
  5
192
  8
PROFILEEDGES
 66
     1
 10
0.0
 20
0.0
 30
0.0
  0
VERTEX
  5
369
  8
PROFILEEDGES
 10
-83.22580053907618
 20
162.8440483670194
 30
0.0
 40
1.50438505314894
 41
1.50438505314894
  0
VERTEX
  5
36A
  8
PROFILEEDGES
 10
-82.1213248567514
 20
163.5208719356291
 30
0.0
 40
1.50438505314894
 41
1.50438505314894
  0
SEQEND
  5
48D
  8
PROFILEEDGES
  0
POLYLINE
  5
193
  8
PROFILEEDGES
 66
     1
 10
0.0
 20
0.0
 30
0.0
  0
VERTEX
  5
36B
  8
PROFILEEDGES
 10
-84.42255682586068
 20
162.3483356821779
 30
0.0
 40
1.50438505314894
 41
1.50438505314894
  0
VERTEX
  5
36C
  8
PROFILEEDGES
 10
-83.22580053907618
 20
162.8440483670194
 30
0.0
 40
1.50438505314894
 41
1.50438505314894
  0
SEQEND
  5
48E
  8
PROFILEEDGES
  0
POLYLINE
  5
194
  8
PROFILEEDGES
 66
     1
 10
0.0
 20
0.0
 30
0.0
  0
VERTEX
  5
36D
  8
PROFILEEDGES
 10
-85.6821256055191
 20
162.0459399725815
 30
0.0
 40
1.50438505314894
 41
1.50438505314894
  0
VERTEX
  5
36E
  8
PROFILEEDGES
 10
-84.42255682586068
 20
162.3483356821779
 30
0.0
 40
1.50438505314894
 41
1.50438505314894
  0
SEQEND
  5
48F
  8
PROFILEEDGES
  0
POLYLINE
  5
195
  8
PROFILEEDGES
 66
     1
 10
0.0
 20
0.0
 30
0.0
  0
VERTEX
  5
36F
  8
PROFILEEDGES
 10
-89.52442740299075
 20
162.3483356821779
 30
0.0
 40
1.50438505314894
 41
1.50438505314894
  0
VERTEX
  5
370
  8
PROFILEEDGES
 10
-88.26485862333305
 20
162.0459399725815
 30
0.0
 40
1.50438505314894
 41
1.50438505314894
  0
SEQEND
  5
490
  8
PROFILEEDGES
  0
POLYLINE
  5
196
  8
PROFILEEDGES
 66
     1
 10
0.0
 20
0.0
 30
0.0
  0
VERTEX
  5
371
  8
PROFILEEDGES
 10
-91.82565937210002
 20
163.5208719356291
 30
0.0
 40
1.50438505314894
 41
1.50438505314894
  0
VERTEX
  5
372
  8
PROFILEEDGES
 10
-91.2663485357476
 20
163.1781258142971
 30
0.0
 40
1.50438505314894
 41
1.50438505314894
  0
SEQEND
  5
491
  8
PROFILEEDGES
  0
POLYLINE
  5
197
  8
PROFILEEDGES
 66
     1
 10
0.0
 20
0.0
 30
0.0
  0
VERTEX
  5
373
  8
PROFILEEDGES
 10
-92.81065859312085
 20
164.3621407454982
 30
0.0
 40
1.50438505314894
 41
1.50438505314894
  0
VERTEX
  5
374
  8
PROFILEEDGES
 10
-91.82565937210002
 20
163.5208719356291
 30
0.0
 40
1.50438505314894
 41
1.50438505314894
  0
SEQEND
  5
492
  8
PROFILEEDGES
  0
POLYLINE
  5
198
  8
PROFILEEDGES
 66
     1
 10
0.0
 20
0.0
 30
0.0
  0
VERTEX
  5
375
  8
PROFILEEDGES
 10
-85.6821256055191
 20
178.3526744758071
 30
0.0
 40
1.50438505314894
 41
1.50438505314894
  0
VERTEX
  5
376
  8
PROFILEEDGES
 10
-85.07587619070878
 20
178.2071268686065
 30
0.0
 40
1.50438505314894
 41
1.50438505314894
  0
SEQEND
  5
493
  8
PROFILEEDGES
  0
POLYLINE
  5
199
  8
PROFILEEDGES
 66
     1
 10
0.0
 20
0.0
 30
0.0
  0
VERTEX
  5
377
  8
PROFILEEDGES
 10
-83.22580053907618
 20
177.5545660813692
 30
0.0
 40
1.50438505314894
 41
1.50438505314894
  0
VERTEX
  5
378
  8
PROFILEEDGES
 10
-83.97772403612815
 20
177.8660229917153
 30
0.0
 40
1.50438505314894
 41
1.50438505314894
  0
SEQEND
  5
494
  8
PROFILEEDGES
  0
POLYLINE
  5
19A
  8
PROFILEEDGES
 66
     1
 10
0.0
 20
0.0
 30
0.0
  0
VERTEX
  5
379
  8
PROFILEEDGES
 10
-82.1213248567514
 20
176.8777425127596
 30
0.0
 40
1.50438505314894
 41
1.50438505314894
  0
VERTEX
  5
37A
  8
PROFILEEDGES
 10
-83.22580053907618
 20
177.5545660813692
 30
0.0
 40
1.50438505314894
 41
1.50438505314894
  0
SEQEND
  5
495
  8
PROFILEEDGES
  0
POLYLINE
  5
19B
  8
PROFILEEDGES
 66
     1
 10
0.0
 20
0.0
 30
0.0
  0
VERTEX
  5
37B
  8
PROFILEEDGES
 10
-88.26485862333305
 20
178.3526744758071
 30
0.0
 40
1.50438505314894
 41
1.50438505314894
  0
VERTEX
  5
37C
  8
PROFILEEDGES
 10
-88.78191649928695
 20
178.2285398625755
 30
0.0
 40
1.50438505314894
 41
1.50438505314894
  0
SEQEND
  5
496
  8
PROFILEEDGES
  0
POLYLINE
  5
19C
  8
PROFILEEDGES
 66
     1
 10
0.0
 20
0.0
 30
0.0
  0
VERTEX
  5
37D
  8
PROFILEEDGES
 10
-93.65192740299132
 20
175.0514744818687
 30
0.0
 40
1.50438505314894
 41
1.50438505314894
  0
VERTEX
  5
37E
  8
PROFILEEDGES
 10
-94.04998864280905
 20
174.401897576091
 30
0.0
 40
1.50438505314894
 41
1.50438505314894
  0
SEQEND
  5
497
  8
PROFILEEDGES
  0
POLYLINE
  5
19D
  8
PROFILEEDGES
 66
     1
 10
0.0
 20
0.0
 30
0.0
  0
VERTEX
  5
37F
  8
PROFILEEDGES
 10
-92.81065859312085
 20
176.0364737028893
 30
0.0
 40
1.50438505314894
 41
1.50438505314894
  0
VERTEX
  5
380
  8
PROFILEEDGES
 10
-93.65192740299132
 20
175.0514744818687
 30
0.0
 40
1.50438505314894
 41
1.50438505314894
  0
SEQEND
  5
498
  8
PROFILEEDGES
  0
POLYLINE
  5
19E
  8
PROFILEEDGES
 66
     1
 10
0.0
 20
0.0
 30
0.0
  0
VERTEX
  5
381
  8
PROFILEEDGES
 10
-95.22849211442578
 20
170.1993072241943
 30
0.0
 40
1.50438505314894
 41
1.50438505314894
  0
VERTEX
  5
382
  8
PROFILEEDGES
 10
-95.1793227175287
 20
169.5745508004668
 30
0.0
 40
1.50438505314894
 41
1.50438505314894
  0
SEQEND
  5
499
  8
PROFILEEDGES
  0
POLYLINE
  5
19F
  8
PROFILEEDGES
 66
     1
 10
0.0
 20
0.0
 30
0.0
  0
VERTEX
  5
383
  8
PROFILEEDGES
 10
-95.12685936603849
 20
171.4906737331015
 30
0.0
 40
1.50438505314894
 41
1.50438505314894
  0
VERTEX
  5
384
  8
PROFILEEDGES
 10
-95.22849211442578
 20
170.1993072241943
 30
0.0
 40
1.50438505314894
 41
1.50438505314894
  0
SEQEND
  5
49A
  8
PROFILEEDGES
  0
POLYLINE
  5
1A0
  8
PROFILEEDGES
 66
     1
 10
0.0
 20
0.0
 30
0.0
  0
VERTEX
  5
385
  8
PROFILEEDGES
 10
-90.72118368977597
 20
177.5545660813692
 30
0.0
 40
1.50438505314894
 41
1.50438505314894
  0
VERTEX
  5
386
  8
PROFILEEDGES
 10
-91.82565937210002
 20
176.8777425127596
 30
0.0
 40
1.50438505314894
 41
1.50438505314894
  0
SEQEND
  5
49B
  8
PROFILEEDGES
  0
POLYLINE
  5
1A1
  8
PROFILEEDGES
 66
     1
 10
0.0
 20
0.0
 30
0.0
  0
VERTEX
  5
387
  8
PROFILEEDGES
 10
-79.61823325725084
 20
-154.9830012004557
 30
0.0
 40
1.50438505314894
 41
1.50438505314894
  0
VERTEX
  5
388
  8
PROFILEEDGES
 10
-80.29505682586083
 20
-153.8785255181313
 30
0.0
 40
1.50438505314894
 41
1.50438505314894
  0
SEQEND
  5
49C
  8
PROFILEEDGES
  0
POLYLINE
  5
1A2
  8
PROFILEEDGES
 66
     1
 10
0.0
 20
0.0
 30
0.0
  0
VERTEX
  5
389
  8
PROFILEEDGES
 10
-84.42255682586068
 20
-150.8797212337892
 30
0.0
 40
1.50438505314894
 41
1.50438505314894
  0
VERTEX
  5
38A
  8
PROFILEEDGES
 10
-83.22580053907618
 20
-151.3754339186307
 30
0.0
 40
1.50438505314894
 41
1.50438505314894
  0
SEQEND
  5
49D
  8
PROFILEEDGES
  0
POLYLINE
  5
1A3
  8
PROFILEEDGES
 66
     1
 10
0.0
 20
0.0
 30
0.0
  0
VERTEX
  5
38B
  8
PROFILEEDGES
 10
-85.6821256055191
 20
-150.5773255241928
 30
0.0
 40
1.50438505314894
 41
1.50438505314894
  0
VERTEX
  5
38C
  8
PROFILEEDGES
 10
-84.42255682586068
 20
-150.8797212337892
 30
0.0
 40
1.50438505314894
 41
1.50438505314894
  0
SEQEND
  5
49E
  8
PROFILEEDGES
  0
POLYLINE
  5
1A4
  8
PROFILEEDGES
 66
     1
 10
0.0
 20
0.0
 30
0.0
  0
VERTEX
  5
38D
  8
PROFILEEDGES
 10
-79.1225205724096
 20
-156.1797574872405
 30
0.0
 40
1.50438505314894
 41
1.50438505314894
  0
VERTEX
  5
38E
  8
PROFILEEDGES
 10
-79.61823325725084
 20
-154.9830012004557
 30
0.0
 40
1.50438505314894
 41
1.50438505314894
  0
SEQEND
  5
49F
  8
PROFILEEDGES
  0
POLYLINE
  5
1A5
  8
PROFILEEDGES
 66
     1
 10
0.0
 20
0.0
 30
0.0
  0
VERTEX
  5
38F
  8
PROFILEEDGES
 10
-79.1225205724096
 20
-156.1797574872405
 30
0.0
 40
1.50438505314894
 41
1.50438505314894
  0
VERTEX
  5
390
  8
PROFILEEDGES
 10
-78.82012486281293
 20
-157.4393262668986
 30
0.0
 40
1.50438505314894
 41
1.50438505314894
  0
SEQEND
  5
4A0
  8
PROFILEEDGES
  0
POLYLINE
  5
1A6
  8
PROFILEEDGES
 66
     1
 10
0.0
 20
0.0
 30
0.0
  0
VERTEX
  5
391
  8
PROFILEEDGES
 10
-83.22580053907618
 20
-166.0859516329806
 30
0.0
 40
1.50438505314894
 41
1.50438505314894
  0
VERTEX
  5
392
  8
PROFILEEDGES
 10
-82.1213248567514
 20
-165.4091280643709
 30
0.0
 40
1.50438505314894
 41
1.50438505314894
  0
SEQEND
  5
4A1
  8
PROFILEEDGES
  0
POLYLINE
  5
1A7
  8
PROFILEEDGES
 66
     1
 10
0.0
 20
0.0
 30
0.0
  0
VERTEX
  5
393
  8
PROFILEEDGES
 10
-83.22580053907618
 20
-166.0859516329806
 30
0.0
 40
1.50438505314894
 41
1.50438505314894
  0
VERTEX
  5
394
  8
PROFILEEDGES
 10
-83.97772403612737
 20
-166.3974085433263
 30
0.0
 40
1.50438505314894
 41
1.50438505314894
  0
SEQEND
  5
4A2
  8
PROFILEEDGES
  0
POLYLINE
  5
1A8
  8
PROFILEEDGES
 66
     1
 10
0.0
 20
0.0
 30
0.0
  0
VERTEX
  5
395
  8
PROFILEEDGES
 10
-85.6821256055191
 20
-166.8840600274185
 30
0.0
 40
1.50438505314894
 41
1.50438505314894
  0
VERTEX
  5
396
  8
PROFILEEDGES
 10
-85.07587619071072
 20
-166.7385124202183
 30
0.0
 40
1.50438505314894
 41
1.50438505314894
  0
SEQEND
  5
4A3
  8
PROFILEEDGES
  0
POLYLINE
  5
1A9
  8
PROFILEEDGES
 66
     1
 10
0.0
 20
0.0
 30
0.0
  0
VERTEX
  5
397
  8
PROFILEEDGES
 10
-79.1225205724096
 20
-161.2816280643709
 30
0.0
 40
1.50438505314894
 41
1.50438505314894
  0
VERTEX
  5
398
  8
PROFILEEDGES
 10
-79.36397713543556
 20
-161.8645557735525
 30
0.0
 40
1.50438505314894
 41
1.50438505314894
  0
SEQEND
  5
4A4
  8
PROFILEEDGES
  0
POLYLINE
  5
1AA
  8
PROFILEEDGES
 66
     1
 10
0.0
 20
0.0
 30
0.0
  0
VERTEX
  5
399
  8
PROFILEEDGES
 10
-95.22849211442578
 20
-158.7306927758057
 30
0.0
 40
1.50438505314894
 41
1.50438505314894
  0
VERTEX
  5
39A
  8
PROFILEEDGES
 10
-95.1793227175287
 20
-158.1059363520782
 30
0.0
 40
1.50438505314894
 41
1.50438505314894
  0
SEQEND
  5
4A5
  8
PROFILEEDGES
  0
POLYLINE
  5
1AB
  8
PROFILEEDGES
 66
     1
 10
0.0
 20
0.0
 30
0.0
  0
VERTEX
  5
39B
  8
PROFILEEDGES
 10
-91.82565937210002
 20
-165.4091280643709
 30
0.0
 40
1.50438505314894
 41
1.50438505314894
  0
VERTEX
  5
39C
  8
PROFILEEDGES
 10
-90.72118368977597
 20
-166.0859516329806
 30
0.0
 40
1.50438505314894
 41
1.50438505314894
  0
SEQEND
  5
4A6
  8
PROFILEEDGES
  0
POLYLINE
  5
1AC
  8
PROFILEEDGES
 66
     1
 10
0.0
 20
0.0
 30
0.0
  0
VERTEX
  5
39D
  8
PROFILEEDGES
 10
-93.65192740299132
 20
-163.58286003348
 30
0.0
 40
1.50438505314894
 41
1.50438505314894
  0
VERTEX
  5
39E
  8
PROFILEEDGES
 10
-92.81065859312085
 20
-164.5678592545006
 30
0.0
 40
1.50438505314894
 41
1.50438505314894
  0
SEQEND
  5
4A7
  8
PROFILEEDGES
  0
POLYLINE
  5
1AD
  8
PROFILEEDGES
 66
     1
 10
0.0
 20
0.0
 30
0.0
  0
VERTEX
  5
39F
  8
PROFILEEDGES
 10
-93.65192740299132
 20
-163.58286003348
 30
0.0
 40
1.50438505314894
 41
1.50438505314894
  0
VERTEX
  5
3A0
  8
PROFILEEDGES
 10
-94.04998864280887
 20
-162.9332831277027
 30
0.0
 40
1.50438505314894
 41
1.50438505314894
  0
SEQEND
  5
4A8
  8
PROFILEEDGES
  0
POLYLINE
  5
1AE
  8
PROFILEEDGES
 66
     1
 10
0.0
 20
0.0
 30
0.0
  0
VERTEX
  5
3A1
  8
PROFILEEDGES
 10
-88.26485862333305
 20
-166.8840600274185
 30
0.0
 40
1.50438505314894
 41
1.50438505314894
  0
VERTEX
  5
3A2
  8
PROFILEEDGES
 10
-88.78191649928567
 20
-166.7599254141872
 30
0.0
 40
1.50438505314894
 41
1.50438505314894
  0
SEQEND
  5
4A9
  8
PROFILEEDGES
  0
POLYLINE
  5
1AF
  8
PROFILEEDGES
 66
     1
 10
0.0
 20
0.0
 30
0.0
  0
VERTEX
  5
3A3
  8
PROFILEEDGES
 10
-95.12685936603849
 20
-160.0220592847128
 30
0.0
 40
1.50438505314894
 41
1.50438505314894
  0
VERTEX
  5
3A4
  8
PROFILEEDGES
 10
-95.22849211442578
 20
-158.7306927758057
 30
0.0
 40
1.50438505314894
 41
1.50438505314894
  0
SEQEND
  5
4AA
  8
PROFILEEDGES
  0
POLYLINE
  5
1B0
  8
PROFILEEDGES
 66
     1
 10
0.0
 20
0.0
 30
0.0
  0
VERTEX
  5
3A5
  8
PROFILEEDGES
 10
-88.26485862333305
 20
-150.5773255241928
 30
0.0
 40
1.50438505314894
 41
1.50438505314894
  0
VERTEX
  5
3A6
  8
PROFILEEDGES
 10
-89.52442740299075
 20
-150.8797212337892
 30
0.0
 40
1.50438505314894
 41
1.50438505314894
  0
SEQEND
  5
4AB
  8
PROFILEEDGES
  0
POLYLINE
  5
1B1
  8
PROFILEEDGES
 66
     1
 10
0.0
 20
0.0
 30
0.0
  0
VERTEX
  5
3A7
  8
PROFILEEDGES
 10
-82.1213248567514
 20
-152.0522574872405
 30
0.0
 40
1.50438505314894
 41
1.50438505314894
  0
VERTEX
  5
3A8
  8
PROFILEEDGES
 10
-83.22580053907618
 20
-151.3754339186307
 30
0.0
 40
1.50438505314894
 41
1.50438505314894
  0
SEQEND
  5
4AC
  8
PROFILEEDGES
  0
POLYLINE
  5
1B2
  8
PROFILEEDGES
 66
     1
 10
0.0
 20
0.0
 30
0.0
  0
VERTEX
  5
3A9
  8
PROFILEEDGES
 10
-91.82565937210002
 20
-152.0522574872405
 30
0.0
 40
1.50438505314894
 41
1.50438505314894
  0
VERTEX
  5
3AA
  8
PROFILEEDGES
 10
-92.81065859312092
 20
-152.8935262971108
 30
0.0
 40
1.50438505314894
 41
1.50438505314894
  0
SEQEND
  5
4AD
  8
PROFILEEDGES
  0
POLYLINE
  5
1B3
  8
PROFILEEDGES
 66
     1
 10
0.0
 20
0.0
 30
0.0
  0
VERTEX
  5
3AB
  8
PROFILEEDGES
 10
-91.82565937210002
 20
-152.0522574872405
 30
0.0
 40
1.50438505314894
 41
1.50438505314894
  0
VERTEX
  5
3AC
  8
PROFILEEDGES
 10
-91.26634853574767
 20
-151.7095113659085
 30
0.0
 40
1.50438505314894
 41
1.50438505314894
  0
SEQEND
  5
4AE
  8
PROFILEEDGES
  0
POLYLINE
  5
1B4
  8
PROFILEEDGES
 66
     1
 10
0.0
 20
0.0
 30
0.0
  0
VERTEX
  5
3AD
  8
PROFILEEDGES
 10
-78.71849211442564
 20
-158.7306927758057
 30
0.0
 40
1.50438505314894
 41
1.50438505314894
  0
VERTEX
  5
3AE
  8
PROFILEEDGES
 10
-78.82012486281293
 20
-157.4393262668986
 30
0.0
 40
1.50438505314894
 41
1.50438505314894
  0
SEQEND
  5
4AF
  8
PROFILEEDGES
  0
POLYLINE
  5
1B5
  8
PROFILEEDGES
 66
     1
 10
0.0
 20
0.0
 30
0.0
  0
VERTEX
  5
3AF
  8
PROFILEEDGES
 10
278.561507885574
 20
-70.46569277580568
 30
0.0
 40
1.50438505314894
 41
1.50438505314894
  0
VERTEX
  5
3B0
  8
PROFILEEDGES
 10
278.561507885574
 20
81.93430722419431
 30
0.0
 40
1.50438505314894
 41
1.50438505314894
  0
SEQEND
  5
4B0
  8
PROFILEEDGES
  0
POLYLINE
  5
1B6
  8
PROFILEEDGES
 66
     1
 10
0.0
 20
0.0
 30
0.0
  0
VERTEX
  5
3B1
  8
PROFILEEDGES
 10
221.411507885574
 20
234.3343072241943
 30
0.0
 40
1.50438505314894
 41
1.50438505314894
  0
VERTEX
  5
3B2
  8
PROFILEEDGES
 10
221.411507885574
 20
-222.8656927758057
 30
0.0
 40
1.50438505314894
 41
1.50438505314894
  0
SEQEND
  5
4B1
  8
PROFILEEDGES
  0
POLYLINE
  5
1B7
  8
PROFILEEDGES
 66
     1
 10
0.0
 20
0.0
 30
0.0
  0
VERTEX
  5
3B3
  8
PROFILEEDGES
 10
278.561507885574
 20
-70.46569277580568
 30
0.0
 40
1.50438505314894
 41
1.50438505314894
  0
VERTEX
  5
3B4
  8
PROFILEEDGES
 10
278.561507885574
 20
-235.5656927758057
 30
0.0
 40
1.50438505314894
 41
1.50438505314894
  0
SEQEND
  5
4B2
  8
PROFILEEDGES
  0
POLYLINE
  5
1B8
  8
PROFILEEDGES
 66
     1
 10
0.0
 20
0.0
 30
0.0
  0
VERTEX
  5
3B5
  8
PROFILEEDGES
 10
278.561507885574
 20
81.93430722419431
 30
0.0
 40
1.50438505314894
 41
1.50438505314894
  0
VERTEX
  5
3B6
  8
PROFILEEDGES
 10
278.561507885574
 20
247.0343072241943
 30
0.0
 40
1.50438505314894
 41
1.50438505314894
  0
SEQEND
  5
4B3
  8
PROFILEEDGES
  0
POLYLINE
  5
1B9
  8
PROFILEEDGES
 66
     1
 10
0.0
 20
0.0
 30
0.0
  0
VERTEX
  5
3B7
  8
PROFILEEDGES
 10
309.041507885574
 20
-70.46569277580568
 30
0.0
 40
1.50438505314894
 41
1.50438505314894
  0
VERTEX
  5
3B8
  8
PROFILEEDGES
 10
309.041507885574
 20
81.93430722419431
 30
0.0
 40
1.50438505314894
 41
1.50438505314894
  0
SEQEND
  5
4B4
  8
PROFILEEDGES
  0
ENDSEC
  0
EOF
