  0
SECTION
  2
HEADER
  9
$ACADVER
  1
AC1009
  9
$DWGCODEPAGE
  3
ansi_1252
  9
$INSBASE
 10
0.0
 20
0.0
 30
0.0
  9
$EXTMIN
 10
1.000000000000000E+20
 20
1.000000000000000E+20
 30
1.000000000000000E+20
  9
$EXTMAX
 10
-1.000000000000000E+20
 20
-1.000000000000000E+20
 30
-1.000000000000000E+20
  9
$LIMMIN
 10
0.0
 20
0.0
  9
$LIMMAX
 10
12.0
 20
9.0
  9
$ORTHOMODE
 70
     0
  9
$REGENMODE
 70
     1
  9
$FILLMODE
 70
     1
  9
$QTEXTMODE
 70
     0
  9
$MIRRTEXT
 70
     1
  9
$DRAGMODE
 70
     2
  9
$LTSCALE
 40
1.0
  9
$OSMODE
 70
    37
  9
$ATTMODE
 70
     1
  9
$TEXTSIZE
 40
0.2
  9
$TRACEWID
 40
0.05
  9
$TEXTSTYLE
  7
STANDARD
  9
$CLAYER
  8
0
  9
$CELTYPE
  6
BYLAYER
  9
$CECOLOR
 62
   256
  9
$DIMSCALE
 40
1.0
  9
$DIMASZ
 40
0.18
  9
$DIMEXO
 40
0.0625
  9
$DIMDLI
 40
0.38
  9
$DIMRND
 40
0.0
  9
$DIMDLE
 40
0.0
  9
$DIMEXE
 40
0.18
  9
$DIMTP
 40
0.0
  9
$DIMTM
 40
0.0
  9
$DIMTXT
 40
0.18
  9
$DIMCEN
 40
0.09
  9
$DIMTSZ
 40
0.0
  9
$DIMTOL
 70
     0
  9
$DIMLIM
 70
     0
  9
$DIMTIH
 70
     1
  9
$DIMTOH
 70
     1
  9
$DIMSE1
 70
     0
  9
$DIMSE2
 70
     0
  9
$DIMTAD
 70
     0
  9
$DIMZIN
 70
     0
  9
$DIMBLK
  1

  9
$DIMASO
 70
     1
  9
$DIMSHO
 70
     1
  9
$DIMPOST
  1

  9
$DIMAPOST
  1

  9
$DIMALT
 70
     0
  9
$DIMALTD
 70
     2
  9
$DIMALTF
 40
25.4
  9
$DIMLFAC
 40
1.0
  9
$DIMTOFL
 70
     0
  9
$DIMTVP
 40
0.0
  9
$DIMTIX
 70
     0
  9
$DIMSOXD
 70
     0
  9
$DIMSAH
 70
     0
  9
$DIMBLK1
  1

  9
$DIMBLK2
  1

  9
$DIMSTYLE
  2
STANDARD
  9
$DIMCLRD
 70
     0
  9
$DIMCLRE
 70
     0
  9
$DIMCLRT
 70
     0
  9
$DIMTFAC
 40
1.0
  9
$DIMGAP
 40
0.09
  9
$LUNITS
 70
     2
  9
$LUPREC
 70
     4
  9
$SKETCHINC
 40
0.1
  9
$FILLETRAD
 40
0.0
  9
$AUNITS
 70
     0
  9
$AUPREC
 70
     0
  9
$MENU
  1
.
  9
$ELEVATION
 40
0.0
  9
$PELEVATION
 40
0.0
  9
$THICKNESS
 40
0.0
  9
$LIMCHECK
 70
     0
  9
$CHAMFERA
 40
0.0
  9
$CHAMFERB
 40
0.0
  9
$SKPOLY
 70
     0
  9
$TDCREATE
 40
2460273.357076169
  9
$TDUPDATE
 40
2460273.357076389
  9
$TDINDWG
 40
0.0000000116
  9
$TDUSRTIMER
 40
0.0000000116
  9
$USRTIMER
 70
     1
  9
$ANGBASE
 50
0.0
  9
$ANGDIR
 70
     0
  9
$PDMODE
 70
     0
  9
$PDSIZE
 40
0.0
  9
$PLINEWID
 40
0.0
  9
$COORDS
 70
     1
  9
$SPLFRAME
 70
     0
  9
$SPLINETYPE
 70
     6
  9
$SPLINESEGS
 70
     8
  9
$ATTDIA
 70
     0
  9
$ATTREQ
 70
     1
  9
$HANDLING
 70
     1
  9
$HANDSEED
  5
4DD
  9
$SURFTAB1
 70
     6
  9
$SURFTAB2
 70
     6
  9
$SURFTYPE
 70
     6
  9
$SURFU
 70
     6
  9
$SURFV
 70
     6
  9
$UCSNAME
  2

  9
$UCSORG
 10
0.0
 20
0.0
 30
0.0
  9
$UCSXDIR
 10
1.0
 20
0.0
 30
0.0
  9
$UCSYDIR
 10
0.0
 20
1.0
 30
0.0
  9
$PUCSNAME
  2

  9
$PUCSORG
 10
0.0
 20
0.0
 30
0.0
  9
$PUCSXDIR
 10
1.0
 20
0.0
 30
0.0
  9
$PUCSYDIR
 10
0.0
 20
1.0
 30
0.0
  9
$USERI1
 70
     0
  9
$USERI2
 70
     0
  9
$USERI3
 70
     0
  9
$USERI4
 70
     0
  9
$USERI5
 70
     0
  9
$USERR1
 40
0.0
  9
$USERR2
 40
0.0
  9
$USERR3
 40
0.0
  9
$USERR4
 40
0.0
  9
$USERR5
 40
0.0
  9
$WORLDVIEW
 70
     1
  9
$SHADEDGE
 70
     3
  9
$SHADEDIF
 70
    70
  9
$TILEMODE
 70
     1
  9
$MAXACTVP
 70
    64
  9
$PLIMCHECK
 70
     0
  9
$PEXTMIN
 10
1.000000000000000E+20
 20
1.000000000000000E+20
 30
1.000000000000000E+20
  9
$PEXTMAX
 10
-1.000000000000000E+20
 20
-1.000000000000000E+20
 30
-1.000000000000000E+20
  9
$PLIMMIN
 10
0.0
 20
0.0
  9
$PLIMMAX
 10
12.0
 20
9.0
  9
$UNITMODE
 70
     0
  9
$VISRETAIN
 70
     1
  9
$PLINEGEN
 70
     0
  9
$PSLTSCALE
 70
     1
  0
ENDSEC
  0
SECTION
  2
TABLES
  0
TABLE
  2
VPORT
 70
     1
  0
VPORT
  2
*ACTIVE
 70
     0
 10
0.0
 20
0.0
 11
1.0
 21
1.0
 12
0.0
 22
0.0
 13
0.0
 23
0.0
 14
0.5
 24
0.5
 15
0.5
 25
0.5
 16
0.0
 26
0.0
 36
1.0
 17
0.0
 27
0.0
 37
-1000.0
 40
299.8538663960469
 41
1.658454647256439
 42
50.0
 43
702.2888939892969
 44
989.5658701369094
 50
0.0
 51
0.0
 71
     0
 72
   100
 73
     1
 74
     3
 75
     0
 76
     0
 77
     0
 78
     0
  0
ENDTAB
  0
TABLE
  2
LTYPE
 70
     1
  0
LTYPE
  2
CONTINUOUS
 70
     0
  3
Solid line
 72
    65
 73
     0
 40
0.0
  0
ENDTAB
  0
TABLE
  2
LAYER
 70
     3
  0
LAYER
  2
0
 70
     0
 62
     7
  6
CONTINUOUS
  0
LAYER
  2
PROFILEEDGES
 70
     0
 62
     7
  6
CONTINUOUS
  0
LAYER
  2
SECTIONCUTEDGES
 70
     0
 62
     7
  6
CONTINUOUS
  0
ENDTAB
  0
TABLE
  2
STYLE
 70
     1
  0
STYLE
  2
STANDARD
 70
     0
 40
0.0
 41
1.0
 50
0.0
 71
     0
 42
0.2
  3
txt
  4

  0
ENDTAB
  0
TABLE
  2
VIEW
 70
     0
  0
ENDTAB
  0
TABLE
  2
UCS
 70
     0
  0
ENDTAB
  0
TABLE
  2
APPID
 70
     1
  0
APPID
  2
ACAD
 70
     0
  0
ENDTAB
  0
TABLE
  2
DIMSTYLE
 70
     1
  0
DIMSTYLE
  2
STANDARD
 70
     0
  3

  4

  5

  6

  7

 40
1.0
 41
0.18
 42
0.0625
 43
0.38
 44
0.18
 45
0.0
 46
0.0
 47
0.0
 48
0.0
140
0.18
141
0.09
142
0.0
143
25.4
144
1.0
145
0.0
146
1.0
147
0.09
 71
     0
 72
     0
 73
     1
 74
     1
 75
     0
 76
     0
 77
     0
 78
     0
170
     0
171
     2
172
     0
173
     0
174
     0
175
     0
176
     0
177
     0
178
     0
  0
ENDTAB
  0
ENDSEC
  0
SECTION
  2
BLOCKS
  0
BLOCK
  8
0
  2
$MODEL_SPACE
 70
     0
 10
0.0
 20
0.0
 30
0.0
  3
$MODEL_SPACE
  1

  0
ENDBLK
  5
21
  8
0
  0
BLOCK
 67
     1
  8
0
  2
$PAPER_SPACE
 70
     0
 10
0.0
 20
0.0
 30
0.0
  3
$PAPER_SPACE
  1

  0
ENDBLK
  5
1D
 67
     1
  8
0
  0
ENDSEC
  0
SECTION
  2
ENTITIES
  0
POLYLINE
  5
60
  8
PROFILEEDGES
 66
     1
 10
0.0
 20
0.0
 30
0.0
  0
VERTEX
  5
1CE
  8
PROFILEEDGES
 10
-58.73571977470411
 20
-57.44479354485334
 30
0.0
 40
0.6715652102934981
 41
0.6715652102934981
  0
VERTEX
  5
1CF
  8
PROFILEEDGES
 10
-59.03208814499894
 20
-56.18326636394024
 30
0.0
 40
0.6715652102934981
 41
0.6715652102934981
  0
SEQEND
  5
3D8
  8
PROFILEEDGES
  0
POLYLINE
  5
61
  8
PROFILEEDGES
 66
     1
 10
0.0
 20
0.0
 30
0.0
  0
VERTEX
  5
1D0
  8
PROFILEEDGES
 10
-59.53382816914218
 20
-62.48385162911313
 30
0.0
 40
0.6715652102934981
 41
0.6715652102934981
  0
VERTEX
  5
1D1
  8
PROFILEEDGES
 10
-59.03322478077659
 20
-61.28868442822904
 30
0.0
 40
0.6715652102934981
 41
0.6715652102934981
  0
SEQEND
  5
3D9
  8
PROFILEEDGES
  0
POLYLINE
  5
62
  8
PROFILEEDGES
 66
     1
 10
0.0
 20
0.0
 30
0.0
  0
VERTEX
  5
1D2
  8
PROFILEEDGES
 10
-68.18045353522425
 20
-66.88952730537329
 30
0.0
 40
0.6715652102934981
 41
0.6715652102934981
  0
VERTEX
  5
1D3
  8
PROFILEEDGES
 10
-66.88908702631713
 20
-66.99116005376042
 30
0.0
 40
0.6715652102934981
 41
0.6715652102934981
  0
SEQEND
  5
3DA
  8
PROFILEEDGES
  0
POLYLINE
  5
63
  8
PROFILEEDGES
 66
     1
 10
0.0
 20
0.0
 30
0.0
  0
VERTEX
  5
1D4
  8
PROFILEEDGES
 10
-71.74125428399151
 20
-65.41459534232563
 30
0.0
 40
0.6715652102934981
 41
0.6715652102934981
  0
VERTEX
  5
1D5
  8
PROFILEEDGES
 10
-70.63677860166709
 20
-66.09141891093539
 30
0.0
 40
0.6715652102934981
 41
0.6715652102934981
  0
SEQEND
  5
3DB
  8
PROFILEEDGES
  0
POLYLINE
  5
64
  8
PROFILEEDGES
 66
     1
 10
0.0
 20
0.0
 30
0.0
  0
VERTEX
  5
1D6
  8
PROFILEEDGES
 10
-74.7400585683336
 20
-61.28709534232564
 30
0.0
 40
0.6715652102934981
 41
0.6715652102934981
  0
VERTEX
  5
1D7
  8
PROFILEEDGES
 10
-74.24434588349214
 20
-62.4838516291104
 30
0.0
 40
0.6715652102934981
 41
0.6715652102934981
  0
SEQEND
  5
3DC
  8
PROFILEEDGES
  0
POLYLINE
  5
65
  8
PROFILEEDGES
 66
     1
 10
0.0
 20
0.0
 30
0.0
  0
VERTEX
  5
1D8
  8
PROFILEEDGES
 10
-74.7400585683336
 20
-56.18522476519524
 30
0.0
 40
0.6715652102934981
 41
0.6715652102934981
  0
VERTEX
  5
1D9
  8
PROFILEEDGES
 10
-75.04245427793005
 20
-57.44479354485334
 30
0.0
 40
0.6715652102934981
 41
0.6715652102934981
  0
SEQEND
  5
3DD
  8
PROFILEEDGES
  0
POLYLINE
  5
66
  8
PROFILEEDGES
 66
     1
 10
0.0
 20
0.0
 30
0.0
  0
VERTEX
  5
1DA
  8
PROFILEEDGES
 10
-65.59772051741008
 20
-50.58279280214757
 30
0.0
 40
0.6715652102934981
 41
0.6715652102934981
  0
VERTEX
  5
1DB
  8
PROFILEEDGES
 10
-66.88908702631713
 20
-50.48116005376044
 30
0.0
 40
0.6715652102934981
 41
0.6715652102934981
  0
SEQEND
  5
3DE
  8
PROFILEEDGES
  0
POLYLINE
  5
67
  8
PROFILEEDGES
 66
     1
 10
0.0
 20
0.0
 30
0.0
  0
VERTEX
  5
1DC
  8
PROFILEEDGES
 10
-66.88908702631713
 20
-50.48116005376044
 30
0.0
 40
0.6715652102934981
 41
0.6715652102934981
  0
VERTEX
  5
1DD
  8
PROFILEEDGES
 10
-68.18045353522425
 20
-50.58279280214757
 30
0.0
 40
0.6715652102934981
 41
0.6715652102934981
  0
SEQEND
  5
3DF
  8
PROFILEEDGES
  0
POLYLINE
  5
68
  8
PROFILEEDGES
 66
     1
 10
0.0
 20
0.0
 30
0.0
  0
VERTEX
  5
1DE
  8
PROFILEEDGES
 10
-58.69698532222841
 20
-59.53535867916534
 30
0.0
 40
0.6715652102934981
 41
0.6715652102934981
  0
VERTEX
  5
1DF
  8
PROFILEEDGES
 10
-58.92560831074311
 20
-60.81846923817288
 30
0.0
 40
0.6715652102934981
 41
0.6715652102934981
  0
SEQEND
  5
3E0
  8
PROFILEEDGES
  0
POLYLINE
  5
69
  8
PROFILEEDGES
 66
     1
 10
0.0
 20
0.0
 30
0.0
  0
VERTEX
  5
1E0
  8
PROFILEEDGES
 10
-59.79644015314793
 20
-62.9123954382704
 30
0.0
 40
0.6715652102934981
 41
0.6715652102934981
  0
VERTEX
  5
1E1
  8
PROFILEEDGES
 10
-60.50842337165778
 20
-63.936973099794
 30
0.0
 40
0.6715652102934981
 41
0.6715652102934981
  0
SEQEND
  5
3E1
  8
PROFILEEDGES
  0
POLYLINE
  5
6A
  8
PROFILEEDGES
 66
     1
 10
0.0
 20
0.0
 30
0.0
  0
VERTEX
  5
1E2
  8
PROFILEEDGES
 10
-63.14139545096715
 20
-66.09141891093539
 30
0.0
 40
0.6715652102934981
 41
0.6715652102934981
  0
VERTEX
  5
1E3
  8
PROFILEEDGES
 10
-62.03691976864287
 20
-65.41459534232563
 30
0.0
 40
0.6715652102934981
 41
0.6715652102934981
  0
SEQEND
  5
3E2
  8
PROFILEEDGES
  0
POLYLINE
  5
6B
  8
PROFILEEDGES
 66
     1
 10
0.0
 20
0.0
 30
0.0
  0
VERTEX
  5
1E4
  8
PROFILEEDGES
 10
-63.71898312489451
 20
-66.33066355893563
 30
0.0
 40
0.6715652102934981
 41
0.6715652102934981
  0
VERTEX
  5
1E5
  8
PROFILEEDGES
 10
-64.92250438070377
 20
-66.72742225316198
 30
0.0
 40
0.6715652102934981
 41
0.6715652102934981
  0
SEQEND
  5
3E3
  8
PROFILEEDGES
  0
POLYLINE
  5
6C
  8
PROFILEEDGES
 66
     1
 10
0.0
 20
0.0
 30
0.0
  0
VERTEX
  5
1E6
  8
PROFILEEDGES
 10
-66.88908702631713
 20
-66.99116005376042
 30
0.0
 40
0.6715652102934981
 41
0.6715652102934981
  0
VERTEX
  5
1E7
  8
PROFILEEDGES
 10
-65.59772051741008
 20
-66.88952730537329
 30
0.0
 40
0.6715652102934981
 41
0.6715652102934981
  0
SEQEND
  5
3E4
  8
PROFILEEDGES
  0
LINE
  5
6D
  8
0
 10
-69.37248415883083
 20
-74.41571246070829
 30
0.0
 11
-66.88908702631713
 21
-74.61116005376047
 31
0.0
  0
LINE
  5
6E
  8
0
 10
-66.88908702631713
 20
-74.61116005376047
 30
0.0
 11
-66.88908702631713
 21
-66.99116005376042
 31
0.0
  0
LINE
  5
6F
  8
0
 10
-71.79473181201948
 20
-73.83418224994604
 30
0.0
 11
-69.37248415883083
 21
-74.41571246070829
 31
0.0
  0
LINE
  5
70
  8
0
 10
-74.09618620968244
 20
-72.8808886252508
 30
0.0
 11
-71.79473181201948
 21
-73.83418224994604
 31
0.0
  0
LINE
  5
71
  8
0
 10
-76.22017790646022
 20
-71.57930483946276
 30
0.0
 11
-74.09618620968244
 21
-72.8808886252508
 31
0.0
  0
LINE
  5
72
  8
0
 10
-78.11440717765359
 20
-69.96148020509692
 30
0.0
 11
-76.22017790646022
 21
-71.57930483946276
 31
0.0
  0
LINE
  5
73
  8
0
 10
-79.73223181201948
 20
-68.06725093390347
 30
0.0
 11
-78.11440717765359
 21
-69.96148020509692
 31
0.0
  0
LINE
  5
74
  8
0
 10
-81.03381559780756
 20
-65.94325923712577
 30
0.0
 11
-79.73223181201948
 21
-68.06725093390347
 31
0.0
  0
LINE
  5
75
  8
0
 10
-81.98710922250274
 20
-63.64180483946274
 30
0.0
 11
-81.03381559780756
 21
-65.94325923712577
 31
0.0
  0
LINE
  5
76
  8
0
 10
-82.56863943326499
 20
-61.21955718627409
 30
0.0
 11
-81.98710922250274
 21
-63.64180483946274
 31
0.0
  0
LINE
  5
77
  8
0
 10
-82.76408702631718
 20
-58.73616005376043
 30
0.0
 11
-82.56863943326499
 21
-61.21955718627409
 31
0.0
  0
LINE
  5
78
  8
0
 10
-82.56863943326499
 20
-56.25276292124678
 30
0.0
 11
-82.76408702631718
 21
-58.73616005376043
 31
0.0
  0
LINE
  5
79
  8
0
 10
-81.98710922250274
 20
-53.83051526805814
 30
0.0
 11
-82.56863943326499
 21
-56.25276292124678
 31
0.0
  0
LINE
  5
7A
  8
0
 10
-81.03381559780756
 20
-51.52906087039511
 30
0.0
 11
-81.98710922250274
 21
-53.83051526805814
 31
0.0
  0
LINE
  5
7B
  8
0
 10
-79.73223181201948
 20
-49.4050691736174
 30
0.0
 11
-81.03381559780756
 21
-51.52906087039511
 31
0.0
  0
LINE
  5
7C
  8
0
 10
-78.11440717765366
 20
-47.51083990242398
 30
0.0
 11
-79.73223181201948
 21
-49.4050691736174
 31
0.0
  0
LINE
  5
7D
  8
0
 10
-76.22017790646022
 20
-45.89301526805811
 30
0.0
 11
-78.11440717765366
 21
-47.51083990242398
 31
0.0
  0
LINE
  5
7E
  8
0
 10
-74.09618620968244
 20
-44.59143148227007
 30
0.0
 11
-76.22017790646022
 21
-45.89301526805811
 31
0.0
  0
LINE
  5
7F
  8
0
 10
-71.79473181201948
 20
-43.63813785757484
 30
0.0
 11
-74.09618620968244
 21
-44.59143148227007
 31
0.0
  0
LINE
  5
80
  8
0
 10
-69.37248415883083
 20
-43.05660764681259
 30
0.0
 11
-71.79473181201948
 21
-43.63813785757484
 31
0.0
  0
LINE
  5
81
  8
0
 10
-66.88908702631713
 20
-42.86116005376041
 30
0.0
 11
-69.37248415883083
 21
-43.05660764681259
 31
0.0
  0
LINE
  5
82
  8
0
 10
-64.40568989380348
 20
-43.05660764681259
 30
0.0
 11
-66.88908702631713
 21
-42.86116005376041
 31
0.0
  0
LINE
  5
83
  8
0
 10
-61.98344224061491
 20
-43.63813785757484
 30
0.0
 11
-64.40568989380348
 21
-43.05660764681259
 31
0.0
  0
LINE
  5
84
  8
0
 10
-59.68198784295188
 20
-44.59143148227005
 30
0.0
 11
-61.98344224061491
 21
-43.63813785757484
 31
0.0
  0
LINE
  5
85
  8
0
 10
-57.55799614617417
 20
-45.89301526805811
 30
0.0
 11
-59.68198784295188
 21
-44.59143148227005
 31
0.0
  0
LINE
  5
86
  8
0
 10
-55.66376687498074
 20
-47.51083990242396
 30
0.0
 11
-57.55799614617417
 21
-45.89301526805811
 31
0.0
  0
LINE
  5
87
  8
0
 10
-54.04594224061477
 20
-49.4050691736174
 30
0.0
 11
-55.66376687498074
 21
-47.51083990242396
 31
0.0
  0
LINE
  5
88
  8
0
 10
-52.74435845482683
 20
-51.52906087039511
 30
0.0
 11
-54.04594224061477
 21
-49.4050691736174
 31
0.0
  0
LINE
  5
89
  8
0
 10
-51.79106483013158
 20
-53.83051526805814
 30
0.0
 11
-52.74435845482683
 21
-51.52906087039511
 31
0.0
  0
LINE
  5
8A
  8
0
 10
-51.20953461936933
 20
-56.25276292124677
 30
0.0
 11
-51.79106483013158
 21
-53.83051526805814
 31
0.0
  0
LINE
  5
8B
  8
0
 10
-51.01408702631712
 20
-58.73616005376043
 30
0.0
 11
-51.20953461936933
 21
-56.25276292124677
 31
0.0
  0
LINE
  5
8C
  8
0
 10
-51.20953461936933
 20
-61.21955718627409
 30
0.0
 11
-51.01408702631712
 21
-58.73616005376043
 31
0.0
  0
LINE
  5
8D
  8
0
 10
-51.79106483013158
 20
-63.64180483946274
 30
0.0
 11
-51.20953461936933
 21
-61.21955718627409
 31
0.0
  0
LINE
  5
8E
  8
0
 10
-52.74435845482683
 20
-65.94325923712577
 30
0.0
 11
-51.79106483013158
 21
-63.64180483946274
 31
0.0
  0
LINE
  5
8F
  8
0
 10
-54.04594224061477
 20
-68.06725093390345
 30
0.0
 11
-52.74435845482683
 21
-65.94325923712577
 31
0.0
  0
LINE
  5
90
  8
0
 10
-55.66376687498074
 20
-69.9614802050969
 30
0.0
 11
-54.04594224061477
 21
-68.06725093390345
 31
0.0
  0
LINE
  5
91
  8
0
 10
-57.55799614617417
 20
-71.57930483946276
 30
0.0
 11
-55.66376687498074
 21
-69.9614802050969
 31
0.0
  0
LINE
  5
92
  8
0
 10
-59.68198784295188
 20
-72.8808886252508
 30
0.0
 11
-57.55799614617417
 21
-71.57930483946276
 31
0.0
  0
LINE
  5
93
  8
0
 10
-61.98344224061491
 20
-73.83418224994604
 30
0.0
 11
-59.68198784295188
 21
-72.8808886252508
 31
0.0
  0
LINE
  5
94
  8
0
 10
-64.40568989380348
 20
-74.41571246070829
 30
0.0
 11
-61.98344224061491
 21
-73.83418224994604
 31
0.0
  0
LINE
  5
95
  8
0
 10
-66.88908702631713
 20
-74.61116005376047
 30
0.0
 11
-64.40568989380348
 21
-74.41571246070829
 31
0.0
  0
POLYLINE
  5
96
  8
PROFILEEDGES
 66
     1
 10
0.0
 20
0.0
 30
0.0
  0
VERTEX
  5
1E8
  8
PROFILEEDGES
 10
-66.88908702631713
 20
66.35883994623954
 30
0.0
 40
0.6715652102934981
 41
0.6715652102934981
  0
VERTEX
  5
1E9
  8
PROFILEEDGES
 10
-68.18045353522425
 20
66.2572071978524
 30
0.0
 40
0.6715652102934981
 41
0.6715652102934981
  0
SEQEND
  5
3E5
  8
PROFILEEDGES
  0
POLYLINE
  5
97
  8
PROFILEEDGES
 66
     1
 10
0.0
 20
0.0
 30
0.0
  0
VERTEX
  5
1EA
  8
PROFILEEDGES
 10
-70.63677860166709
 20
65.45909880341449
 30
0.0
 40
0.6715652102934981
 41
0.6715652102934981
  0
VERTEX
  5
1EB
  8
PROFILEEDGES
 10
-71.74125428399151
 20
64.78227523480471
 30
0.0
 40
0.6715652102934981
 41
0.6715652102934981
  0
SEQEND
  5
3E6
  8
PROFILEEDGES
  0
POLYLINE
  5
98
  8
PROFILEEDGES
 66
     1
 10
0.0
 20
0.0
 30
0.0
  0
VERTEX
  5
1EC
  8
PROFILEEDGES
 10
-74.24434588349214
 20
61.85153152158949
 30
0.0
 40
0.6715652102934981
 41
0.6715652102934981
  0
VERTEX
  5
1ED
  8
PROFILEEDGES
 10
-74.7400585683336
 20
60.65477523480473
 30
0.0
 40
0.6715652102934981
 41
0.6715652102934981
  0
SEQEND
  5
3E7
  8
PROFILEEDGES
  0
POLYLINE
  5
99
  8
PROFILEEDGES
 66
     1
 10
0.0
 20
0.0
 30
0.0
  0
VERTEX
  5
1EE
  8
PROFILEEDGES
 10
-75.04245427793005
 20
56.81247343733242
 30
0.0
 40
0.6715652102934981
 41
0.6715652102934981
  0
VERTEX
  5
1EF
  8
PROFILEEDGES
 10
-74.7400585683336
 20
55.55290465767436
 30
0.0
 40
0.6715652102934981
 41
0.6715652102934981
  0
SEQEND
  5
3E8
  8
PROFILEEDGES
  0
POLYLINE
  5
9A
  8
PROFILEEDGES
 66
     1
 10
0.0
 20
0.0
 30
0.0
  0
VERTEX
  5
1F0
  8
PROFILEEDGES
 10
-66.88908702631713
 20
49.84883994623954
 30
0.0
 40
0.6715652102934981
 41
0.6715652102934981
  0
VERTEX
  5
1F1
  8
PROFILEEDGES
 10
-65.59772051741008
 20
49.95047269462668
 30
0.0
 40
0.6715652102934981
 41
0.6715652102934981
  0
SEQEND
  5
3E9
  8
PROFILEEDGES
  0
POLYLINE
  5
9B
  8
PROFILEEDGES
 66
     1
 10
0.0
 20
0.0
 30
0.0
  0
VERTEX
  5
1F2
  8
PROFILEEDGES
 10
-68.18045353522425
 20
49.95047269462668
 30
0.0
 40
0.6715652102934981
 41
0.6715652102934981
  0
VERTEX
  5
1F3
  8
PROFILEEDGES
 10
-66.88908702631713
 20
49.84883994623954
 30
0.0
 40
0.6715652102934981
 41
0.6715652102934981
  0
SEQEND
  5
3EA
  8
PROFILEEDGES
  0
POLYLINE
  5
9C
  8
PROFILEEDGES
 66
     1
 10
0.0
 20
0.0
 30
0.0
  0
VERTEX
  5
1F4
  8
PROFILEEDGES
 10
-59.03811548430065
 20
55.55290465767436
 30
0.0
 40
0.6715652102934981
 41
0.6715652102934981
  0
VERTEX
  5
1F5
  8
PROFILEEDGES
 10
-58.73571977470428
 20
56.81247343733242
 30
0.0
 40
0.6715652102934981
 41
0.6715652102934981
  0
SEQEND
  5
3EB
  8
PROFILEEDGES
  0
POLYLINE
  5
9D
  8
PROFILEEDGES
 66
     1
 10
0.0
 20
0.0
 30
0.0
  0
VERTEX
  5
1F6
  8
PROFILEEDGES
 10
-58.92560831074314
 20
60.1861491306521
 30
0.0
 40
0.6715652102934981
 41
0.6715652102934981
  0
VERTEX
  5
1F7
  8
PROFILEEDGES
 10
-58.69698532222841
 20
58.90303857164441
 30
0.0
 40
0.6715652102934981
 41
0.6715652102934981
  0
SEQEND
  5
3EC
  8
PROFILEEDGES
  0
POLYLINE
  5
9E
  8
PROFILEEDGES
 66
     1
 10
0.0
 20
0.0
 30
0.0
  0
VERTEX
  5
1F8
  8
PROFILEEDGES
 10
-59.03811548430065
 20
60.65477523480473
 30
0.0
 40
0.6715652102934981
 41
0.6715652102934981
  0
VERTEX
  5
1F9
  8
PROFILEEDGES
 10
-59.53382816914218
 20
61.85153152158949
 30
0.0
 40
0.6715652102934981
 41
0.6715652102934981
  0
SEQEND
  5
3ED
  8
PROFILEEDGES
  0
POLYLINE
  5
9F
  8
PROFILEEDGES
 66
     1
 10
0.0
 20
0.0
 30
0.0
  0
VERTEX
  5
1FA
  8
PROFILEEDGES
 10
-60.50842337165749
 20
63.30465299227276
 30
0.0
 40
0.6715652102934981
 41
0.6715652102934981
  0
VERTEX
  5
1FB
  8
PROFILEEDGES
 10
-59.79644015314788
 20
62.28007533074938
 30
0.0
 40
0.6715652102934981
 41
0.6715652102934981
  0
SEQEND
  5
3EE
  8
PROFILEEDGES
  0
POLYLINE
  5
A0
  8
PROFILEEDGES
 66
     1
 10
0.0
 20
0.0
 30
0.0
  0
VERTEX
  5
1FC
  8
PROFILEEDGES
 10
-62.03691976864287
 20
64.78227523480471
 30
0.0
 40
0.6715652102934981
 41
0.6715652102934981
  0
VERTEX
  5
1FD
  8
PROFILEEDGES
 10
-63.14139545096715
 20
65.45909880341449
 30
0.0
 40
0.6715652102934981
 41
0.6715652102934981
  0
SEQEND
  5
3EF
  8
PROFILEEDGES
  0
POLYLINE
  5
A1
  8
PROFILEEDGES
 66
     1
 10
0.0
 20
0.0
 30
0.0
  0
VERTEX
  5
1FE
  8
PROFILEEDGES
 10
-64.92250438070396
 20
66.09510214564112
 30
0.0
 40
0.6715652102934981
 41
0.6715652102934981
  0
VERTEX
  5
1FF
  8
PROFILEEDGES
 10
-63.71898312489442
 20
65.69834345141469
 30
0.0
 40
0.6715652102934981
 41
0.6715652102934981
  0
SEQEND
  5
3F0
  8
PROFILEEDGES
  0
POLYLINE
  5
A2
  8
PROFILEEDGES
 66
     1
 10
0.0
 20
0.0
 30
0.0
  0
VERTEX
  5
200
  8
PROFILEEDGES
 10
-65.59772051741008
 20
66.2572071978524
 30
0.0
 40
0.6715652102934981
 41
0.6715652102934981
  0
VERTEX
  5
201
  8
PROFILEEDGES
 10
-66.88908702631713
 20
66.35883994623954
 30
0.0
 40
0.6715652102934981
 41
0.6715652102934981
  0
SEQEND
  5
3F1
  8
PROFILEEDGES
  0
LINE
  5
A3
  8
0
 10
-66.88908702631713
 20
66.35883994623954
 30
0.0
 11
-66.88908702631713
 21
73.97883994623955
 31
0.0
  0
LINE
  5
A4
  8
0
 10
-66.88908702631713
 20
73.97883994623955
 30
0.0
 11
-69.37248415883083
 21
73.78339235318734
 31
0.0
  0
LINE
  5
A5
  8
0
 10
-69.37248415883083
 20
73.78339235318734
 30
0.0
 11
-71.79473181201948
 21
73.20186214242509
 31
0.0
  0
LINE
  5
A6
  8
0
 10
-71.79473181201948
 20
73.20186214242509
 30
0.0
 11
-74.09618620968244
 21
72.24856851772988
 31
0.0
  0
LINE
  5
A7
  8
0
 10
-74.09618620968244
 20
72.24856851772988
 30
0.0
 11
-76.22017790646022
 21
70.94698473194182
 31
0.0
  0
LINE
  5
A8
  8
0
 10
-76.22017790646022
 20
70.94698473194182
 30
0.0
 11
-78.11440717765359
 21
69.32916009757596
 31
0.0
  0
LINE
  5
A9
  8
0
 10
-78.11440717765359
 20
69.32916009757596
 30
0.0
 11
-79.7322318120194
 21
67.43493082638257
 31
0.0
  0
LINE
  5
AA
  8
0
 10
-79.7322318120194
 20
67.43493082638257
 30
0.0
 11
-81.03381559780749
 21
65.31093912960483
 31
0.0
  0
LINE
  5
AB
  8
0
 10
-81.03381559780749
 20
65.31093912960483
 30
0.0
 11
-81.98710922250274
 21
63.00948473194182
 31
0.0
  0
LINE
  5
AC
  8
0
 10
-81.98710922250274
 20
63.00948473194182
 30
0.0
 11
-82.56863943326499
 21
60.58723707875321
 31
0.0
  0
LINE
  5
AD
  8
0
 10
-82.56863943326499
 20
60.58723707875321
 30
0.0
 11
-82.76408702631713
 21
58.10383994623955
 31
0.0
  0
LINE
  5
AE
  8
0
 10
-82.76408702631713
 20
58.10383994623955
 30
0.0
 11
-82.56863943326499
 21
55.62044281372591
 31
0.0
  0
LINE
  5
AF
  8
0
 10
-82.56863943326499
 20
55.62044281372591
 30
0.0
 11
-81.98710922250274
 21
53.19819516053726
 31
0.0
  0
LINE
  5
B0
  8
0
 10
-81.98710922250274
 20
53.19819516053726
 30
0.0
 11
-81.03381559780749
 21
50.89674076287422
 31
0.0
  0
LINE
  5
B1
  8
0
 10
-81.03381559780749
 20
50.89674076287422
 30
0.0
 11
-79.7322318120194
 21
48.77274906609652
 31
0.0
  0
LINE
  5
B2
  8
0
 10
-79.7322318120194
 20
48.77274906609652
 30
0.0
 11
-78.11440717765359
 21
46.87851979490308
 31
0.0
  0
LINE
  5
B3
  8
0
 10
-78.11440717765359
 20
46.87851979490308
 30
0.0
 11
-76.22017790646022
 21
45.26069516053726
 31
0.0
  0
LINE
  5
B4
  8
0
 10
-76.22017790646022
 20
45.26069516053726
 30
0.0
 11
-74.09618620968244
 21
43.95911137474919
 31
0.0
  0
LINE
  5
B5
  8
0
 10
-74.09618620968244
 20
43.95911137474919
 30
0.0
 11
-71.79473181201948
 21
43.00581775005398
 31
0.0
  0
LINE
  5
B6
  8
0
 10
-71.79473181201948
 20
43.00581775005398
 30
0.0
 11
-69.37248415883083
 21
42.42428753929171
 31
0.0
  0
LINE
  5
B7
  8
0
 10
-69.37248415883083
 20
42.42428753929171
 30
0.0
 11
-66.88908702631713
 21
42.22883994623952
 31
0.0
  0
LINE
  5
B8
  8
0
 10
-66.88908702631713
 20
42.22883994623952
 30
0.0
 11
-64.40568989380348
 21
42.42428753929175
 31
0.0
  0
LINE
  5
B9
  8
0
 10
-64.40568989380348
 20
42.42428753929175
 30
0.0
 11
-61.98344224061491
 21
43.00581775005398
 31
0.0
  0
LINE
  5
BA
  8
0
 10
-61.98344224061491
 20
43.00581775005398
 30
0.0
 11
-59.68198784295188
 21
43.95911137474919
 31
0.0
  0
LINE
  5
BB
  8
0
 10
-59.68198784295188
 20
43.95911137474919
 30
0.0
 11
-57.55799614617417
 21
45.26069516053726
 31
0.0
  0
LINE
  5
BC
  8
0
 10
-57.55799614617417
 20
45.26069516053726
 30
0.0
 11
-55.66376687498074
 21
46.87851979490308
 31
0.0
  0
LINE
  5
BD
  8
0
 10
-55.66376687498074
 20
46.87851979490308
 30
0.0
 11
-54.04594224061491
 21
48.77274906609652
 31
0.0
  0
LINE
  5
BE
  8
0
 10
-54.04594224061491
 20
48.77274906609652
 30
0.0
 11
-52.74435845482683
 21
50.89674076287422
 31
0.0
  0
LINE
  5
BF
  8
0
 10
-52.74435845482683
 20
50.89674076287422
 30
0.0
 11
-51.79106483013158
 21
53.19819516053726
 31
0.0
  0
LINE
  5
C0
  8
0
 10
-51.79106483013158
 20
53.19819516053726
 30
0.0
 11
-51.20953461936933
 21
55.62044281372591
 31
0.0
  0
LINE
  5
C1
  8
0
 10
-51.20953461936933
 20
55.62044281372591
 30
0.0
 11
-51.01408702631712
 21
58.10383994623955
 31
0.0
  0
LINE
  5
C2
  8
0
 10
-51.01408702631712
 20
58.10383994623955
 30
0.0
 11
-51.20953461936933
 21
60.58723707875321
 31
0.0
  0
LINE
  5
C3
  8
0
 10
-51.20953461936933
 20
60.58723707875321
 30
0.0
 11
-51.79106483013158
 21
63.00948473194182
 31
0.0
  0
LINE
  5
C4
  8
0
 10
-51.79106483013158
 20
63.00948473194182
 30
0.0
 11
-52.74435845482683
 21
65.31093912960483
 31
0.0
  0
LINE
  5
C5
  8
0
 10
-52.74435845482683
 20
65.31093912960483
 30
0.0
 11
-54.04594224061491
 21
67.43493082638257
 31
0.0
  0
LINE
  5
C6
  8
0
 10
-54.04594224061491
 20
67.43493082638257
 30
0.0
 11
-55.66376687498074
 21
69.32916009757596
 31
0.0
  0
LINE
  5
C7
  8
0
 10
-55.66376687498074
 20
69.32916009757596
 30
0.0
 11
-57.55799614617417
 21
70.94698473194182
 31
0.0
  0
LINE
  5
C8
  8
0
 10
-57.55799614617417
 20
70.94698473194182
 30
0.0
 11
-59.68198784295188
 21
72.24856851772988
 31
0.0
  0
LINE
  5
C9
  8
0
 10
-59.68198784295188
 20
72.24856851772988
 30
0.0
 11
-61.98344224061491
 21
73.20186214242509
 31
0.0
  0
LINE
  5
CA
  8
0
 10
-61.98344224061491
 20
73.20186214242509
 30
0.0
 11
-64.40568989380348
 21
73.78339235318734
 31
0.0
  0
LINE
  5
CB
  8
0
 10
-64.40568989380348
 20
73.78339235318734
 30
0.0
 11
-66.88908702631713
 21
73.97883994623955
 31
0.0
  0
POLYLINE
  5
CC
  8
PROFILEEDGES
 66
     1
 10
0.0
 20
0.0
 30
0.0
  0
VERTEX
  5
202
  8
PROFILEEDGES
 10
-61.82295687598932
 20
-32.30244696393399
 30
0.0
 40
0.6715652102934981
 41
0.6715652102934981
  0
VERTEX
  5
203
  8
PROFILEEDGES
 10
-66.88908702631713
 20
-32.70116005376046
 30
0.0
 40
0.6715652102934981
 41
0.6715652102934981
  0
SEQEND
  5
3F2
  8
PROFILEEDGES
  0
POLYLINE
  5
CD
  8
PROFILEEDGES
 66
     1
 10
0.0
 20
0.0
 30
0.0
  0
VERTEX
  5
204
  8
PROFILEEDGES
 10
-61.82295687598932
 20
-32.30244696393399
 30
0.0
 40
0.6715652102934981
 41
0.6715652102934981
  0
VERTEX
  5
205
  8
PROFILEEDGES
 10
-56.88157166348448
 20
-31.11612533397901
 30
0.0
 40
0.6715652102934981
 41
0.6715652102934981
  0
SEQEND
  5
3F3
  8
PROFILEEDGES
  0
POLYLINE
  5
CE
  8
PROFILEEDGES
 66
     1
 10
0.0
 20
0.0
 30
0.0
  0
VERTEX
  5
206
  8
PROFILEEDGES
 10
-52.18660469225199
 20
-29.17140633960076
 30
0.0
 40
0.6715652102934981
 41
0.6715652102934981
  0
VERTEX
  5
207
  8
PROFILEEDGES
 10
-56.88157166348448
 20
-31.11612533397901
 30
0.0
 40
0.6715652102934981
 41
0.6715652102934981
  0
SEQEND
  5
3F4
  8
PROFILEEDGES
  0
POLYLINE
  5
CF
  8
PROFILEEDGES
 66
     1
 10
0.0
 20
0.0
 30
0.0
  0
VERTEX
  5
208
  8
PROFILEEDGES
 10
-47.85366163082539
 20
-26.51617541659314
 30
0.0
 40
0.6715652102934981
 41
0.6715652102934981
  0
VERTEX
  5
209
  8
PROFILEEDGES
 10
-52.18660469225199
 20
-29.17140633960076
 30
0.0
 40
0.6715652102934981
 41
0.6715652102934981
  0
SEQEND
  5
3F5
  8
PROFILEEDGES
  0
POLYLINE
  5
D0
  8
PROFILEEDGES
 66
     1
 10
0.0
 20
0.0
 30
0.0
  0
VERTEX
  5
20A
  8
PROFILEEDGES
 10
-47.85366163082539
 20
-26.51617541659314
 30
0.0
 40
0.6715652102934981
 41
0.6715652102934981
  0
VERTEX
  5
20B
  8
PROFILEEDGES
 10
-43.98943391759082
 20
-23.21581316248679
 30
0.0
 40
0.6715652102934981
 41
0.6715652102934981
  0
SEQEND
  5
3F6
  8
PROFILEEDGES
  0
POLYLINE
  5
D1
  8
PROFILEEDGES
 66
     1
 10
0.0
 20
0.0
 30
0.0
  0
VERTEX
  5
20C
  8
PROFILEEDGES
 10
-40.68907166348448
 20
-19.35158544925219
 30
0.0
 40
0.6715652102934981
 41
0.6715652102934981
  0
VERTEX
  5
20D
  8
PROFILEEDGES
 10
-43.98943391759082
 20
-23.21581316248679
 30
0.0
 40
0.6715652102934981
 41
0.6715652102934981
  0
SEQEND
  5
3F7
  8
PROFILEEDGES
  0
POLYLINE
  5
D2
  8
PROFILEEDGES
 66
     1
 10
0.0
 20
0.0
 30
0.0
  0
VERTEX
  5
20E
  8
PROFILEEDGES
 10
-40.68907166348448
 20
-19.35158544925219
 30
0.0
 40
0.6715652102934981
 41
0.6715652102934981
  0
VERTEX
  5
20F
  8
PROFILEEDGES
 10
-38.03384074047686
 20
-15.01864238782568
 30
0.0
 40
0.6715652102934981
 41
0.6715652102934981
  0
SEQEND
  5
3F8
  8
PROFILEEDGES
  0
POLYLINE
  5
D3
  8
PROFILEEDGES
 66
     1
 10
0.0
 20
0.0
 30
0.0
  0
VERTEX
  5
210
  8
PROFILEEDGES
 10
-36.08912174609856
 20
-10.32367541659312
 30
0.0
 40
0.6715652102934981
 41
0.6715652102934981
  0
VERTEX
  5
211
  8
PROFILEEDGES
 10
-38.03384074047686
 20
-15.01864238782568
 30
0.0
 40
0.6715652102934981
 41
0.6715652102934981
  0
SEQEND
  5
3F9
  8
PROFILEEDGES
  0
POLYLINE
  5
D4
  8
PROFILEEDGES
 66
     1
 10
0.0
 20
0.0
 30
0.0
  0
VERTEX
  5
212
  8
PROFILEEDGES
 10
-34.90280011614356
 20
-5.382290204088333
 30
0.0
 40
0.6715652102934981
 41
0.6715652102934981
  0
VERTEX
  5
213
  8
PROFILEEDGES
 10
-36.08912174609856
 20
-10.32367541659312
 30
0.0
 40
0.6715652102934981
 41
0.6715652102934981
  0
SEQEND
  5
3FA
  8
PROFILEEDGES
  0
POLYLINE
  5
D5
  8
PROFILEEDGES
 66
     1
 10
0.0
 20
0.0
 30
0.0
  0
VERTEX
  5
214
  8
PROFILEEDGES
 10
-34.90280011614356
 20
-5.382290204088333
 30
0.0
 40
0.6715652102934981
 41
0.6715652102934981
  0
VERTEX
  5
215
  8
PROFILEEDGES
 10
-34.50408702631719
 20
-0.3161600537604572
 30
0.0
 40
0.6715652102934981
 41
0.6715652102934981
  0
SEQEND
  5
3FB
  8
PROFILEEDGES
  0
POLYLINE
  5
D6
  8
PROFILEEDGES
 66
     1
 10
0.0
 20
0.0
 30
0.0
  0
VERTEX
  5
216
  8
PROFILEEDGES
 10
-34.90280011614356
 20
4.749970096567436
 30
0.0
 40
0.6715652102934981
 41
0.6715652102934981
  0
VERTEX
  5
217
  8
PROFILEEDGES
 10
-34.50408702631719
 20
-0.3161600537604572
 30
0.0
 40
0.6715652102934981
 41
0.6715652102934981
  0
SEQEND
  5
3FC
  8
PROFILEEDGES
  0
POLYLINE
  5
D7
  8
PROFILEEDGES
 66
     1
 10
0.0
 20
0.0
 30
0.0
  0
VERTEX
  5
218
  8
PROFILEEDGES
 10
-34.90280011614356
 20
4.749970096567436
 30
0.0
 40
0.6715652102934981
 41
0.6715652102934981
  0
VERTEX
  5
219
  8
PROFILEEDGES
 10
-36.08912174609856
 20
9.691355309072225
 30
0.0
 40
0.6715652102934981
 41
0.6715652102934981
  0
SEQEND
  5
3FD
  8
PROFILEEDGES
  0
POLYLINE
  5
D8
  8
PROFILEEDGES
 66
     1
 10
0.0
 20
0.0
 30
0.0
  0
VERTEX
  5
21A
  8
PROFILEEDGES
 10
-38.03384074047686
 20
14.38632228030478
 30
0.0
 40
0.6715652102934981
 41
0.6715652102934981
  0
VERTEX
  5
21B
  8
PROFILEEDGES
 10
-36.08912174609856
 20
9.691355309072225
 30
0.0
 40
0.6715652102934981
 41
0.6715652102934981
  0
SEQEND
  5
3FE
  8
PROFILEEDGES
  0
POLYLINE
  5
D9
  8
PROFILEEDGES
 66
     1
 10
0.0
 20
0.0
 30
0.0
  0
VERTEX
  5
21C
  8
PROFILEEDGES
 10
-40.68907166348448
 20
18.71926534173131
 30
0.0
 40
0.6715652102934981
 41
0.6715652102934981
  0
VERTEX
  5
21D
  8
PROFILEEDGES
 10
-38.03384074047686
 20
14.38632228030478
 30
0.0
 40
0.6715652102934981
 41
0.6715652102934981
  0
SEQEND
  5
3FF
  8
PROFILEEDGES
  0
POLYLINE
  5
DA
  8
PROFILEEDGES
 66
     1
 10
0.0
 20
0.0
 30
0.0
  0
VERTEX
  5
21E
  8
PROFILEEDGES
 10
-40.68907166348448
 20
18.71926534173131
 30
0.0
 40
0.6715652102934981
 41
0.6715652102934981
  0
VERTEX
  5
21F
  8
PROFILEEDGES
 10
-43.98943391759082
 20
22.58349305496592
 30
0.0
 40
0.6715652102934981
 41
0.6715652102934981
  0
SEQEND
  5
400
  8
PROFILEEDGES
  0
POLYLINE
  5
DB
  8
PROFILEEDGES
 66
     1
 10
0.0
 20
0.0
 30
0.0
  0
VERTEX
  5
220
  8
PROFILEEDGES
 10
-47.85366163082539
 20
25.88385530907222
 30
0.0
 40
0.6715652102934981
 41
0.6715652102934981
  0
VERTEX
  5
221
  8
PROFILEEDGES
 10
-43.98943391759082
 20
22.58349305496592
 30
0.0
 40
0.6715652102934981
 41
0.6715652102934981
  0
SEQEND
  5
401
  8
PROFILEEDGES
  0
POLYLINE
  5
DC
  8
PROFILEEDGES
 66
     1
 10
0.0
 20
0.0
 30
0.0
  0
VERTEX
  5
222
  8
PROFILEEDGES
 10
-47.85366163082539
 20
25.88385530907222
 30
0.0
 40
0.6715652102934981
 41
0.6715652102934981
  0
VERTEX
  5
223
  8
PROFILEEDGES
 10
-52.18660469225199
 20
28.53908623207986
 30
0.0
 40
0.6715652102934981
 41
0.6715652102934981
  0
SEQEND
  5
402
  8
PROFILEEDGES
  0
POLYLINE
  5
DD
  8
PROFILEEDGES
 66
     1
 10
0.0
 20
0.0
 30
0.0
  0
VERTEX
  5
224
  8
PROFILEEDGES
 10
-56.88157166348448
 20
30.48380522645811
 30
0.0
 40
0.6715652102934981
 41
0.6715652102934981
  0
VERTEX
  5
225
  8
PROFILEEDGES
 10
-52.18660469225199
 20
28.53908623207986
 30
0.0
 40
0.6715652102934981
 41
0.6715652102934981
  0
SEQEND
  5
403
  8
PROFILEEDGES
  0
POLYLINE
  5
DE
  8
PROFILEEDGES
 66
     1
 10
0.0
 20
0.0
 30
0.0
  0
VERTEX
  5
226
  8
PROFILEEDGES
 10
-61.82295687598932
 20
31.67012685641309
 30
0.0
 40
0.6715652102934981
 41
0.6715652102934981
  0
VERTEX
  5
227
  8
PROFILEEDGES
 10
-56.88157166348448
 20
30.48380522645811
 30
0.0
 40
0.6715652102934981
 41
0.6715652102934981
  0
SEQEND
  5
404
  8
PROFILEEDGES
  0
POLYLINE
  5
DF
  8
PROFILEEDGES
 66
     1
 10
0.0
 20
0.0
 30
0.0
  0
VERTEX
  5
228
  8
PROFILEEDGES
 10
-71.95521717664506
 20
31.67012685641309
 30
0.0
 40
0.6715652102934981
 41
0.6715652102934981
  0
VERTEX
  5
229
  8
PROFILEEDGES
 10
-76.89660238914985
 20
30.48380522645811
 30
0.0
 40
0.6715652102934981
 41
0.6715652102934981
  0
SEQEND
  5
405
  8
PROFILEEDGES
  0
POLYLINE
  5
E0
  8
PROFILEEDGES
 66
     1
 10
0.0
 20
0.0
 30
0.0
  0
VERTEX
  5
22A
  8
PROFILEEDGES
 10
-71.95521717664506
 20
31.67012685641309
 30
0.0
 40
0.6715652102934981
 41
0.6715652102934981
  0
VERTEX
  5
22B
  8
PROFILEEDGES
 10
-66.88908702631713
 20
32.06883994623956
 30
0.0
 40
0.6715652102934981
 41
0.6715652102934981
  0
SEQEND
  5
406
  8
PROFILEEDGES
  0
POLYLINE
  5
E1
  8
PROFILEEDGES
 66
     1
 10
0.0
 20
0.0
 30
0.0
  0
VERTEX
  5
22C
  8
PROFILEEDGES
 10
-66.88908702631713
 20
32.06883994623956
 30
0.0
 40
0.6715652102934981
 41
0.6715652102934981
  0
VERTEX
  5
22D
  8
PROFILEEDGES
 10
-61.82295687598932
 20
31.67012685641309
 30
0.0
 40
0.6715652102934981
 41
0.6715652102934981
  0
SEQEND
  5
407
  8
PROFILEEDGES
  0
POLYLINE
  5
E2
  8
PROFILEEDGES
 66
     1
 10
0.0
 20
0.0
 30
0.0
  0
VERTEX
  5
22E
  8
PROFILEEDGES
 10
-81.5915693603824
 20
28.53908623207986
 30
0.0
 40
0.6715652102934981
 41
0.6715652102934981
  0
VERTEX
  5
22F
  8
PROFILEEDGES
 10
-76.89660238914985
 20
30.48380522645811
 30
0.0
 40
0.6715652102934981
 41
0.6715652102934981
  0
SEQEND
  5
408
  8
PROFILEEDGES
  0
POLYLINE
  5
E3
  8
PROFILEEDGES
 66
     1
 10
0.0
 20
0.0
 30
0.0
  0
VERTEX
  5
230
  8
PROFILEEDGES
 10
-85.92451242180893
 20
25.88385530907222
 30
0.0
 40
0.6715652102934981
 41
0.6715652102934981
  0
VERTEX
  5
231
  8
PROFILEEDGES
 10
-81.5915693603824
 20
28.53908623207986
 30
0.0
 40
0.6715652102934981
 41
0.6715652102934981
  0
SEQEND
  5
409
  8
PROFILEEDGES
  0
POLYLINE
  5
E4
  8
PROFILEEDGES
 66
     1
 10
0.0
 20
0.0
 30
0.0
  0
VERTEX
  5
232
  8
PROFILEEDGES
 10
-85.92451242180893
 20
25.88385530907222
 30
0.0
 40
0.6715652102934981
 41
0.6715652102934981
  0
VERTEX
  5
233
  8
PROFILEEDGES
 10
-89.78874013504351
 20
22.58349305496589
 30
0.0
 40
0.6715652102934981
 41
0.6715652102934981
  0
SEQEND
  5
40A
  8
PROFILEEDGES
  0
POLYLINE
  5
E5
  8
PROFILEEDGES
 66
     1
 10
0.0
 20
0.0
 30
0.0
  0
VERTEX
  5
234
  8
PROFILEEDGES
 10
-93.08910238914984
 20
18.71926534173131
 30
0.0
 40
0.6715652102934981
 41
0.6715652102934981
  0
VERTEX
  5
235
  8
PROFILEEDGES
 10
-89.78874013504351
 20
22.58349305496589
 30
0.0
 40
0.6715652102934981
 41
0.6715652102934981
  0
SEQEND
  5
40B
  8
PROFILEEDGES
  0
POLYLINE
  5
E6
  8
PROFILEEDGES
 66
     1
 10
0.0
 20
0.0
 30
0.0
  0
VERTEX
  5
236
  8
PROFILEEDGES
 10
-93.08910238914984
 20
18.71926534173131
 30
0.0
 40
0.6715652102934981
 41
0.6715652102934981
  0
VERTEX
  5
237
  8
PROFILEEDGES
 10
-95.74433331215745
 20
14.38632228030478
 30
0.0
 40
0.6715652102934981
 41
0.6715652102934981
  0
SEQEND
  5
40C
  8
PROFILEEDGES
  0
POLYLINE
  5
E7
  8
PROFILEEDGES
 66
     1
 10
0.0
 20
0.0
 30
0.0
  0
VERTEX
  5
238
  8
PROFILEEDGES
 10
-97.68905230653569
 20
9.691355309072225
 30
0.0
 40
0.6715652102934981
 41
0.6715652102934981
  0
VERTEX
  5
239
  8
PROFILEEDGES
 10
-95.74433331215745
 20
14.38632228030478
 30
0.0
 40
0.6715652102934981
 41
0.6715652102934981
  0
SEQEND
  5
40D
  8
PROFILEEDGES
  0
POLYLINE
  5
E8
  8
PROFILEEDGES
 66
     1
 10
0.0
 20
0.0
 30
0.0
  0
VERTEX
  5
23A
  8
PROFILEEDGES
 10
-98.87537393649069
 20
4.749970096567436
 30
0.0
 40
0.6715652102934981
 41
0.6715652102934981
  0
VERTEX
  5
23B
  8
PROFILEEDGES
 10
-97.68905230653569
 20
9.691355309072225
 30
0.0
 40
0.6715652102934981
 41
0.6715652102934981
  0
SEQEND
  5
40E
  8
PROFILEEDGES
  0
POLYLINE
  5
E9
  8
PROFILEEDGES
 66
     1
 10
0.0
 20
0.0
 30
0.0
  0
VERTEX
  5
23C
  8
PROFILEEDGES
 10
-98.87537393649069
 20
4.749970096567436
 30
0.0
 40
0.6715652102934981
 41
0.6715652102934981
  0
VERTEX
  5
23D
  8
PROFILEEDGES
 10
-99.2740870263172
 20
-0.3161600537604579
 30
0.0
 40
0.6715652102934981
 41
0.6715652102934981
  0
SEQEND
  5
40F
  8
PROFILEEDGES
  0
POLYLINE
  5
EA
  8
PROFILEEDGES
 66
     1
 10
0.0
 20
0.0
 30
0.0
  0
VERTEX
  5
23E
  8
PROFILEEDGES
 10
-98.87537393649069
 20
-5.382290204088333
 30
0.0
 40
0.6715652102934981
 41
0.6715652102934981
  0
VERTEX
  5
23F
  8
PROFILEEDGES
 10
-99.2740870263172
 20
-0.3161600537604579
 30
0.0
 40
0.6715652102934981
 41
0.6715652102934981
  0
SEQEND
  5
410
  8
PROFILEEDGES
  0
POLYLINE
  5
EB
  8
PROFILEEDGES
 66
     1
 10
0.0
 20
0.0
 30
0.0
  0
VERTEX
  5
240
  8
PROFILEEDGES
 10
-98.87537393649069
 20
-5.382290204088333
 30
0.0
 40
0.6715652102934981
 41
0.6715652102934981
  0
VERTEX
  5
241
  8
PROFILEEDGES
 10
-97.68905230653569
 20
-10.32367541659312
 30
0.0
 40
0.6715652102934981
 41
0.6715652102934981
  0
SEQEND
  5
411
  8
PROFILEEDGES
  0
POLYLINE
  5
EC
  8
PROFILEEDGES
 66
     1
 10
0.0
 20
0.0
 30
0.0
  0
VERTEX
  5
242
  8
PROFILEEDGES
 10
-95.74433331215745
 20
-15.01864238782568
 30
0.0
 40
0.6715652102934981
 41
0.6715652102934981
  0
VERTEX
  5
243
  8
PROFILEEDGES
 10
-97.68905230653569
 20
-10.32367541659312
 30
0.0
 40
0.6715652102934981
 41
0.6715652102934981
  0
SEQEND
  5
412
  8
PROFILEEDGES
  0
POLYLINE
  5
ED
  8
PROFILEEDGES
 66
     1
 10
0.0
 20
0.0
 30
0.0
  0
VERTEX
  5
244
  8
PROFILEEDGES
 10
-93.08910238914984
 20
-19.35158544925221
 30
0.0
 40
0.6715652102934981
 41
0.6715652102934981
  0
VERTEX
  5
245
  8
PROFILEEDGES
 10
-95.74433331215745
 20
-15.01864238782568
 30
0.0
 40
0.6715652102934981
 41
0.6715652102934981
  0
SEQEND
  5
413
  8
PROFILEEDGES
  0
POLYLINE
  5
EE
  8
PROFILEEDGES
 66
     1
 10
0.0
 20
0.0
 30
0.0
  0
VERTEX
  5
246
  8
PROFILEEDGES
 10
-93.08910238914984
 20
-19.35158544925221
 30
0.0
 40
0.6715652102934981
 41
0.6715652102934981
  0
VERTEX
  5
247
  8
PROFILEEDGES
 10
-89.78874013504351
 20
-23.2158131624868
 30
0.0
 40
0.6715652102934981
 41
0.6715652102934981
  0
SEQEND
  5
414
  8
PROFILEEDGES
  0
POLYLINE
  5
EF
  8
PROFILEEDGES
 66
     1
 10
0.0
 20
0.0
 30
0.0
  0
VERTEX
  5
248
  8
PROFILEEDGES
 10
-85.92451242180893
 20
-26.51617541659314
 30
0.0
 40
0.6715652102934981
 41
0.6715652102934981
  0
VERTEX
  5
249
  8
PROFILEEDGES
 10
-89.78874013504351
 20
-23.2158131624868
 30
0.0
 40
0.6715652102934981
 41
0.6715652102934981
  0
SEQEND
  5
415
  8
PROFILEEDGES
  0
POLYLINE
  5
F0
  8
PROFILEEDGES
 66
     1
 10
0.0
 20
0.0
 30
0.0
  0
VERTEX
  5
24A
  8
PROFILEEDGES
 10
-85.92451242180893
 20
-26.51617541659314
 30
0.0
 40
0.6715652102934981
 41
0.6715652102934981
  0
VERTEX
  5
24B
  8
PROFILEEDGES
 10
-81.5915693603824
 20
-29.17140633960076
 30
0.0
 40
0.6715652102934981
 41
0.6715652102934981
  0
SEQEND
  5
416
  8
PROFILEEDGES
  0
POLYLINE
  5
F1
  8
PROFILEEDGES
 66
     1
 10
0.0
 20
0.0
 30
0.0
  0
VERTEX
  5
24C
  8
PROFILEEDGES
 10
-76.89660238914985
 20
-31.11612533397901
 30
0.0
 40
0.6715652102934981
 41
0.6715652102934981
  0
VERTEX
  5
24D
  8
PROFILEEDGES
 10
-81.5915693603824
 20
-29.17140633960076
 30
0.0
 40
0.6715652102934981
 41
0.6715652102934981
  0
SEQEND
  5
417
  8
PROFILEEDGES
  0
POLYLINE
  5
F2
  8
PROFILEEDGES
 66
     1
 10
0.0
 20
0.0
 30
0.0
  0
VERTEX
  5
24E
  8
PROFILEEDGES
 10
-71.95521717664501
 20
-32.30244696393399
 30
0.0
 40
0.6715652102934981
 41
0.6715652102934981
  0
VERTEX
  5
24F
  8
PROFILEEDGES
 10
-76.89660238914985
 20
-31.11612533397901
 30
0.0
 40
0.6715652102934981
 41
0.6715652102934981
  0
SEQEND
  5
418
  8
PROFILEEDGES
  0
POLYLINE
  5
F3
  8
PROFILEEDGES
 66
     1
 10
0.0
 20
0.0
 30
0.0
  0
VERTEX
  5
250
  8
PROFILEEDGES
 10
-71.95521717664501
 20
-32.30244696393399
 30
0.0
 40
0.6715652102934981
 41
0.6715652102934981
  0
VERTEX
  5
251
  8
PROFILEEDGES
 10
-66.88908702631713
 20
-32.70116005376046
 30
0.0
 40
0.6715652102934981
 41
0.6715652102934981
  0
SEQEND
  5
419
  8
PROFILEEDGES
  0
POLYLINE
  5
F4
  8
PROFILEEDGES
 66
     1
 10
0.0
 20
0.0
 30
0.0
  0
VERTEX
  5
252
  8
PROFILEEDGES
 10
-50.99534537822971
 20
100.0329753507055
 30
0.0
 40
0.6715652102934981
 41
0.6715652102934981
  0
VERTEX
  5
253
  8
PROFILEEDGES
 10
-66.88908702631713
 20
101.2838399462395
 30
0.0
 40
0.6715652102934981
 41
0.6715652102934981
  0
SEQEND
  5
41A
  8
PROFILEEDGES
  0
POLYLINE
  5
F5
  8
PROFILEEDGES
 66
     1
 10
0.0
 20
0.0
 30
0.0
  0
VERTEX
  5
254
  8
PROFILEEDGES
 10
-66.88908702631713
 20
101.2838399462395
 30
0.0
 40
0.6715652102934981
 41
0.6715652102934981
  0
VERTEX
  5
255
  8
PROFILEEDGES
 10
-82.78282867440468
 20
100.0329753507055
 30
0.0
 40
0.6715652102934981
 41
0.6715652102934981
  0
SEQEND
  5
41B
  8
PROFILEEDGES
  0
POLYLINE
  5
F6
  8
PROFILEEDGES
 66
     1
 10
0.0
 20
0.0
 30
0.0
  0
VERTEX
  5
256
  8
PROFILEEDGES
 10
-82.78282867440468
 20
100.0329753507055
 30
0.0
 40
0.6715652102934981
 41
0.6715652102934981
  0
VERTEX
  5
257
  8
PROFILEEDGES
 10
-98.28521365481184
 20
96.31118200182715
 30
0.0
 40
0.6715652102934981
 41
0.6715652102934981
  0
SEQEND
  5
41C
  8
PROFILEEDGES
  0
POLYLINE
  5
F7
  8
PROFILEEDGES
 66
     1
 10
0.0
 20
0.0
 30
0.0
  0
VERTEX
  5
258
  8
PROFILEEDGES
 10
-98.28521365481184
 20
96.31118200182715
 30
0.0
 40
0.6715652102934981
 41
0.6715652102934981
  0
VERTEX
  5
259
  8
PROFILEEDGES
 10
-113.0145217998551
 20
90.21010280377772
 30
0.0
 40
0.6715652102934981
 41
0.6715652102934981
  0
SEQEND
  5
41D
  8
PROFILEEDGES
  0
POLYLINE
  5
F8
  8
PROFILEEDGES
 66
     1
 10
0.0
 20
0.0
 30
0.0
  0
VERTEX
  5
25A
  8
PROFILEEDGES
 10
-113.0145217998551
 20
90.21010280377772
 30
0.0
 40
0.6715652102934981
 41
0.6715652102934981
  0
VERTEX
  5
25B
  8
PROFILEEDGES
 10
-126.6080686592325
 20
81.87996657473423
 30
0.0
 40
0.6715652102934981
 41
0.6715652102934981
  0
SEQEND
  5
41E
  8
PROFILEEDGES
  0
POLYLINE
  5
F9
  8
PROFILEEDGES
 66
     1
 10
0.0
 20
0.0
 30
0.0
  0
VERTEX
  5
25C
  8
PROFILEEDGES
 10
-126.6080686592325
 20
81.87996657473423
 30
0.0
 40
0.6715652102934981
 41
0.6715652102934981
  0
VERTEX
  5
25D
  8
PROFILEEDGES
 10
-138.7311359948704
 20
71.52588891479277
 30
0.0
 40
0.6715652102934981
 41
0.6715652102934981
  0
SEQEND
  5
41F
  8
PROFILEEDGES
  0
POLYLINE
  5
FA
  8
PROFILEEDGES
 66
     1
 10
0.0
 20
0.0
 30
0.0
  0
VERTEX
  5
25E
  8
PROFILEEDGES
 10
-138.7311359948704
 20
71.52588891479277
 30
0.0
 40
0.6715652102934981
 41
0.6715652102934981
  0
VERTEX
  5
25F
  8
PROFILEEDGES
 10
-149.0852136548118
 20
59.4028215791548
 30
0.0
 40
0.6715652102934981
 41
0.6715652102934981
  0
SEQEND
  5
420
  8
PROFILEEDGES
  0
POLYLINE
  5
FB
  8
PROFILEEDGES
 66
     1
 10
0.0
 20
0.0
 30
0.0
  0
VERTEX
  5
260
  8
PROFILEEDGES
 10
-149.0852136548118
 20
59.4028215791548
 30
0.0
 40
0.6715652102934981
 41
0.6715652102934981
  0
VERTEX
  5
261
  8
PROFILEEDGES
 10
-157.4153498838554
 20
45.80927471977749
 30
0.0
 40
0.6715652102934981
 41
0.6715652102934981
  0
SEQEND
  5
421
  8
PROFILEEDGES
  0
POLYLINE
  5
FC
  8
PROFILEEDGES
 66
     1
 10
0.0
 20
0.0
 30
0.0
  0
VERTEX
  5
262
  8
PROFILEEDGES
 10
-157.4153498838554
 20
45.80927471977749
 30
0.0
 40
0.6715652102934981
 41
0.6715652102934981
  0
VERTEX
  5
263
  8
PROFILEEDGES
 10
-163.5164290819048
 20
31.07996657473418
 30
0.0
 40
0.6715652102934981
 41
0.6715652102934981
  0
SEQEND
  5
422
  8
PROFILEEDGES
  0
POLYLINE
  5
FD
  8
PROFILEEDGES
 66
     1
 10
0.0
 20
0.0
 30
0.0
  0
VERTEX
  5
264
  8
PROFILEEDGES
 10
-163.5164290819048
 20
31.07996657473418
 30
0.0
 40
0.6715652102934981
 41
0.6715652102934981
  0
VERTEX
  5
265
  8
PROFILEEDGES
 10
-167.2382224307832
 20
15.577581594327
 30
0.0
 40
0.6715652102934981
 41
0.6715652102934981
  0
SEQEND
  5
423
  8
PROFILEEDGES
  0
POLYLINE
  5
FE
  8
PROFILEEDGES
 66
     1
 10
0.0
 20
0.0
 30
0.0
  0
VERTEX
  5
266
  8
PROFILEEDGES
 10
-167.2382224307832
 20
15.577581594327
 30
0.0
 40
0.6715652102934981
 41
0.6715652102934981
  0
VERTEX
  5
267
  8
PROFILEEDGES
 10
-168.4890870263172
 20
-0.3161600537604748
 30
0.0
 40
0.6715652102934981
 41
0.6715652102934981
  0
SEQEND
  5
424
  8
PROFILEEDGES
  0
POLYLINE
  5
FF
  8
PROFILEEDGES
 66
     1
 10
0.0
 20
0.0
 30
0.0
  0
VERTEX
  5
268
  8
PROFILEEDGES
 10
-168.4890870263172
 20
-0.3161600537604748
 30
0.0
 40
0.6715652102934981
 41
0.6715652102934981
  0
VERTEX
  5
269
  8
PROFILEEDGES
 10
-167.2382224307832
 20
-16.20990170184793
 30
0.0
 40
0.6715652102934981
 41
0.6715652102934981
  0
SEQEND
  5
425
  8
PROFILEEDGES
  0
POLYLINE
  5
100
  8
PROFILEEDGES
 66
     1
 10
0.0
 20
0.0
 30
0.0
  0
VERTEX
  5
26A
  8
PROFILEEDGES
 10
-167.2382224307832
 20
-16.20990170184793
 30
0.0
 40
0.6715652102934981
 41
0.6715652102934981
  0
VERTEX
  5
26B
  8
PROFILEEDGES
 10
-163.5164290819048
 20
-31.71228668225512
 30
0.0
 40
0.6715652102934981
 41
0.6715652102934981
  0
SEQEND
  5
426
  8
PROFILEEDGES
  0
POLYLINE
  5
101
  8
PROFILEEDGES
 66
     1
 10
0.0
 20
0.0
 30
0.0
  0
VERTEX
  5
26C
  8
PROFILEEDGES
 10
-163.5164290819048
 20
-31.71228668225512
 30
0.0
 40
0.6715652102934981
 41
0.6715652102934981
  0
VERTEX
  5
26D
  8
PROFILEEDGES
 10
-157.4153498838553
 20
-46.44159482729843
 30
0.0
 40
0.6715652102934981
 41
0.6715652102934981
  0
SEQEND
  5
427
  8
PROFILEEDGES
  0
POLYLINE
  5
102
  8
PROFILEEDGES
 66
     1
 10
0.0
 20
0.0
 30
0.0
  0
VERTEX
  5
26E
  8
PROFILEEDGES
 10
-157.4153498838553
 20
-46.44159482729843
 30
0.0
 40
0.6715652102934981
 41
0.6715652102934981
  0
VERTEX
  5
26F
  8
PROFILEEDGES
 10
-149.0852136548118
 20
-60.03514168667574
 30
0.0
 40
0.6715652102934981
 41
0.6715652102934981
  0
SEQEND
  5
428
  8
PROFILEEDGES
  0
POLYLINE
  5
103
  8
PROFILEEDGES
 66
     1
 10
0.0
 20
0.0
 30
0.0
  0
VERTEX
  5
270
  8
PROFILEEDGES
 10
-149.0852136548118
 20
-60.03514168667574
 30
0.0
 40
0.6715652102934981
 41
0.6715652102934981
  0
VERTEX
  5
271
  8
PROFILEEDGES
 10
-138.7311359948704
 20
-72.15820902231371
 30
0.0
 40
0.6715652102934981
 41
0.6715652102934981
  0
SEQEND
  5
429
  8
PROFILEEDGES
  0
POLYLINE
  5
104
  8
PROFILEEDGES
 66
     1
 10
0.0
 20
0.0
 30
0.0
  0
VERTEX
  5
272
  8
PROFILEEDGES
 10
-138.7311359948704
 20
-72.15820902231371
 30
0.0
 40
0.6715652102934981
 41
0.6715652102934981
  0
VERTEX
  5
273
  8
PROFILEEDGES
 10
-126.6080686592324
 20
-82.51228668225511
 30
0.0
 40
0.6715652102934981
 41
0.6715652102934981
  0
SEQEND
  5
42A
  8
PROFILEEDGES
  0
POLYLINE
  5
105
  8
PROFILEEDGES
 66
     1
 10
0.0
 20
0.0
 30
0.0
  0
VERTEX
  5
274
  8
PROFILEEDGES
 10
-126.6080686592324
 20
-82.51228668225511
 30
0.0
 40
0.6715652102934981
 41
0.6715652102934981
  0
VERTEX
  5
275
  8
PROFILEEDGES
 10
-113.0145217998551
 20
-90.84242291129863
 30
0.0
 40
0.6715652102934981
 41
0.6715652102934981
  0
SEQEND
  5
42B
  8
PROFILEEDGES
  0
POLYLINE
  5
106
  8
PROFILEEDGES
 66
     1
 10
0.0
 20
0.0
 30
0.0
  0
VERTEX
  5
276
  8
PROFILEEDGES
 10
-113.0145217998551
 20
-90.84242291129863
 30
0.0
 40
0.6715652102934981
 41
0.6715652102934981
  0
VERTEX
  5
277
  8
PROFILEEDGES
 10
-98.28521365481184
 20
-96.94350210934806
 30
0.0
 40
0.6715652102934981
 41
0.6715652102934981
  0
SEQEND
  5
42C
  8
PROFILEEDGES
  0
POLYLINE
  5
107
  8
PROFILEEDGES
 66
     1
 10
0.0
 20
0.0
 30
0.0
  0
VERTEX
  5
278
  8
PROFILEEDGES
 10
-98.28521365481184
 20
-96.94350210934806
 30
0.0
 40
0.6715652102934981
 41
0.6715652102934981
  0
VERTEX
  5
279
  8
PROFILEEDGES
 10
-82.78282867440461
 20
-100.6652954582265
 30
0.0
 40
0.6715652102934981
 41
0.6715652102934981
  0
SEQEND
  5
42D
  8
PROFILEEDGES
  0
POLYLINE
  5
108
  8
PROFILEEDGES
 66
     1
 10
0.0
 20
0.0
 30
0.0
  0
VERTEX
  5
27A
  8
PROFILEEDGES
 10
-82.78282867440461
 20
-100.6652954582265
 30
0.0
 40
0.6715652102934981
 41
0.6715652102934981
  0
VERTEX
  5
27B
  8
PROFILEEDGES
 10
-66.88908702631713
 20
-101.9161600537604
 30
0.0
 40
0.6715652102934981
 41
0.6715652102934981
  0
SEQEND
  5
42E
  8
PROFILEEDGES
  0
POLYLINE
  5
109
  8
PROFILEEDGES
 66
     1
 10
0.0
 20
0.0
 30
0.0
  0
VERTEX
  5
27C
  8
PROFILEEDGES
 10
-66.88908702631713
 20
-101.9161600537604
 30
0.0
 40
0.6715652102934981
 41
0.6715652102934981
  0
VERTEX
  5
27D
  8
PROFILEEDGES
 10
-50.99534537822971
 20
-100.6652954582265
 30
0.0
 40
0.6715652102934981
 41
0.6715652102934981
  0
SEQEND
  5
42F
  8
PROFILEEDGES
  0
POLYLINE
  5
10A
  8
PROFILEEDGES
 66
     1
 10
0.0
 20
0.0
 30
0.0
  0
VERTEX
  5
27E
  8
PROFILEEDGES
 10
-35.49296039782248
 20
-96.94350210934805
 30
0.0
 40
0.6715652102934981
 41
0.6715652102934981
  0
VERTEX
  5
27F
  8
PROFILEEDGES
 10
-20.76365225277918
 20
-90.84242291129863
 30
0.0
 40
0.6715652102934981
 41
0.6715652102934981
  0
SEQEND
  5
430
  8
PROFILEEDGES
  0
POLYLINE
  5
10B
  8
PROFILEEDGES
 66
     1
 10
0.0
 20
0.0
 30
0.0
  0
VERTEX
  5
280
  8
PROFILEEDGES
 10
-20.76365225277918
 20
-90.84242291129863
 30
0.0
 40
0.6715652102934981
 41
0.6715652102934981
  0
VERTEX
  5
281
  8
PROFILEEDGES
 10
-7.170105393401901
 20
-82.51228668225511
 30
0.0
 40
0.6715652102934981
 41
0.6715652102934981
  0
SEQEND
  5
431
  8
PROFILEEDGES
  0
POLYLINE
  5
10C
  8
PROFILEEDGES
 66
     1
 10
0.0
 20
0.0
 30
0.0
  0
VERTEX
  5
282
  8
PROFILEEDGES
 10
-7.170105393401901
 20
-82.51228668225511
 30
0.0
 40
0.6715652102934981
 41
0.6715652102934981
  0
VERTEX
  5
283
  8
PROFILEEDGES
 10
2.077068719829724
 20
-74.9233270124261
 30
0.0
 40
0.6715652102934981
 41
0.6715652102934981
  0
SEQEND
  5
432
  8
PROFILEEDGES
  0
POLYLINE
  5
10D
  8
PROFILEEDGES
 66
     1
 10
0.0
 20
0.0
 30
0.0
  0
VERTEX
  5
284
  8
PROFILEEDGES
 10
2.077068719829724
 20
-74.9233270124261
 30
0.0
 40
0.6715652102934981
 41
0.6715652102934981
  0
VERTEX
  5
285
  8
PROFILEEDGES
 10
10.36815907864595
 20
-66.30008176410709
 30
0.0
 40
0.6715652102934981
 41
0.6715652102934981
  0
SEQEND
  5
433
  8
PROFILEEDGES
  0
POLYLINE
  5
10E
  8
PROFILEEDGES
 66
     1
 10
0.0
 20
0.0
 30
0.0
  0
VERTEX
  5
286
  8
PROFILEEDGES
 10
10.36815907864595
 20
-66.30008176410709
 30
0.0
 40
0.6715652102934981
 41
0.6715652102934981
  0
VERTEX
  5
287
  8
PROFILEEDGES
 10
17.58822558362151
 20
-56.76209572855203
 30
0.0
 40
0.6715652102934981
 41
0.6715652102934981
  0
SEQEND
  5
434
  8
PROFILEEDGES
  0
POLYLINE
  5
10F
  8
PROFILEEDGES
 66
     1
 10
0.0
 20
0.0
 30
0.0
  0
VERTEX
  5
288
  8
PROFILEEDGES
 10
17.58822558362151
 20
-56.76209572855203
 30
0.0
 40
0.6715652102934981
 41
0.6715652102934981
  0
VERTEX
  5
289
  8
PROFILEEDGES
 10
23.63717583122105
 20
-46.4415948272984
 30
0.0
 40
0.6715652102934981
 41
0.6715652102934981
  0
SEQEND
  5
435
  8
PROFILEEDGES
  0
POLYLINE
  5
110
  8
PROFILEEDGES
 66
     1
 10
0.0
 20
0.0
 30
0.0
  0
VERTEX
  5
28A
  8
PROFILEEDGES
 10
23.63717583122105
 20
-46.4415948272984
 30
0.0
 40
0.6715652102934981
 41
0.6715652102934981
  0
VERTEX
  5
28B
  8
PROFILEEDGES
 10
28.43115270340724
 20
-35.48165305283374
 30
0.0
 40
0.6715652102934981
 41
0.6715652102934981
  0
SEQEND
  5
436
  8
PROFILEEDGES
  0
POLYLINE
  5
111
  8
PROFILEEDGES
 66
     1
 10
0.0
 20
0.0
 30
0.0
  0
VERTEX
  5
28C
  8
PROFILEEDGES
 10
28.43115270340724
 20
-35.48165305283374
 30
0.0
 40
0.6715652102934981
 41
0.6715652102934981
  0
VERTEX
  5
28D
  8
PROFILEEDGES
 10
31.9036968860868
 20
-24.03420902152043
 30
0.0
 40
0.6715652102934981
 41
0.6715652102934981
  0
SEQEND
  5
437
  8
PROFILEEDGES
  0
POLYLINE
  5
112
  8
PROFILEEDGES
 66
     1
 10
0.0
 20
0.0
 30
0.0
  0
VERTEX
  5
28E
  8
PROFILEEDGES
 10
31.9036968860868
 20
-24.03420902152043
 30
0.0
 40
0.6715652102934981
 41
0.6715652102934981
  0
VERTEX
  5
28F
  8
PROFILEEDGES
 10
34.00666820030332
 20
-12.25795963547674
 30
0.0
 40
0.6715652102934981
 41
0.6715652102934981
  0
SEQEND
  5
438
  8
PROFILEEDGES
  0
POLYLINE
  5
113
  8
PROFILEEDGES
 66
     1
 10
0.0
 20
0.0
 30
0.0
  0
VERTEX
  5
290
  8
PROFILEEDGES
 10
34.00666820030332
 20
-12.25795963547674
 30
0.0
 40
0.6715652102934981
 41
0.6715652102934981
  0
VERTEX
  5
291
  8
PROFILEEDGES
 10
34.71091297368287
 20
-0.3161600537604594
 30
0.0
 40
0.6715652102934981
 41
0.6715652102934981
  0
SEQEND
  5
439
  8
PROFILEEDGES
  0
POLYLINE
  5
114
  8
PROFILEEDGES
 66
     1
 10
0.0
 20
0.0
 30
0.0
  0
VERTEX
  5
292
  8
PROFILEEDGES
 10
34.71091297368287
 20
-0.3161600537604594
 30
0.0
 40
0.6715652102934981
 41
0.6715652102934981
  0
VERTEX
  5
293
  8
PROFILEEDGES
 10
33.46004837814885
 20
15.57758159432701
 30
0.0
 40
0.6715652102934981
 41
0.6715652102934981
  0
SEQEND
  5
43A
  8
PROFILEEDGES
  0
POLYLINE
  5
115
  8
PROFILEEDGES
 66
     1
 10
0.0
 20
0.0
 30
0.0
  0
VERTEX
  5
294
  8
PROFILEEDGES
 10
33.46004837814885
 20
15.57758159432701
 30
0.0
 40
0.6715652102934981
 41
0.6715652102934981
  0
VERTEX
  5
295
  8
PROFILEEDGES
 10
29.73825502927048
 20
31.07996657473423
 30
0.0
 40
0.6715652102934981
 41
0.6715652102934981
  0
SEQEND
  5
43B
  8
PROFILEEDGES
  0
POLYLINE
  5
116
  8
PROFILEEDGES
 66
     1
 10
0.0
 20
0.0
 30
0.0
  0
VERTEX
  5
296
  8
PROFILEEDGES
 10
29.73825502927048
 20
31.07996657473423
 30
0.0
 40
0.6715652102934981
 41
0.6715652102934981
  0
VERTEX
  5
297
  8
PROFILEEDGES
 10
23.63717583122105
 20
45.80927471977749
 30
0.0
 40
0.6715652102934981
 41
0.6715652102934981
  0
SEQEND
  5
43C
  8
PROFILEEDGES
  0
POLYLINE
  5
117
  8
PROFILEEDGES
 66
     1
 10
0.0
 20
0.0
 30
0.0
  0
VERTEX
  5
298
  8
PROFILEEDGES
 10
23.63717583122105
 20
45.80927471977749
 30
0.0
 40
0.6715652102934981
 41
0.6715652102934981
  0
VERTEX
  5
299
  8
PROFILEEDGES
 10
15.30703960217752
 20
59.40282157915483
 30
0.0
 40
0.6715652102934981
 41
0.6715652102934981
  0
SEQEND
  5
43D
  8
PROFILEEDGES
  0
POLYLINE
  5
118
  8
PROFILEEDGES
 66
     1
 10
0.0
 20
0.0
 30
0.0
  0
VERTEX
  5
29A
  8
PROFILEEDGES
 10
15.30703960217752
 20
59.40282157915483
 30
0.0
 40
0.6715652102934981
 41
0.6715652102934981
  0
VERTEX
  5
29B
  8
PROFILEEDGES
 10
4.952961942236106
 20
71.52588891479277
 30
0.0
 40
0.6715652102934981
 41
0.6715652102934981
  0
SEQEND
  5
43E
  8
PROFILEEDGES
  0
POLYLINE
  5
119
  8
PROFILEEDGES
 66
     1
 10
0.0
 20
0.0
 30
0.0
  0
VERTEX
  5
29C
  8
PROFILEEDGES
 10
4.952961942236106
 20
71.52588891479277
 30
0.0
 40
0.6715652102934981
 41
0.6715652102934981
  0
VERTEX
  5
29D
  8
PROFILEEDGES
 10
-7.170105393401901
 20
81.87996657473423
 30
0.0
 40
0.6715652102934981
 41
0.6715652102934981
  0
SEQEND
  5
43F
  8
PROFILEEDGES
  0
POLYLINE
  5
11A
  8
PROFILEEDGES
 66
     1
 10
0.0
 20
0.0
 30
0.0
  0
VERTEX
  5
29E
  8
PROFILEEDGES
 10
-7.170105393401901
 20
81.87996657473423
 30
0.0
 40
0.6715652102934981
 41
0.6715652102934981
  0
VERTEX
  5
29F
  8
PROFILEEDGES
 10
-20.76365225277918
 20
90.21010280377772
 30
0.0
 40
0.6715652102934981
 41
0.6715652102934981
  0
SEQEND
  5
440
  8
PROFILEEDGES
  0
POLYLINE
  5
11B
  8
PROFILEEDGES
 66
     1
 10
0.0
 20
0.0
 30
0.0
  0
VERTEX
  5
2A0
  8
PROFILEEDGES
 10
-20.76365225277918
 20
90.21010280377772
 30
0.0
 40
0.6715652102934981
 41
0.6715652102934981
  0
VERTEX
  5
2A1
  8
PROFILEEDGES
 10
-35.49296039782248
 20
96.31118200182715
 30
0.0
 40
0.6715652102934981
 41
0.6715652102934981
  0
SEQEND
  5
441
  8
PROFILEEDGES
  0
POLYLINE
  5
11C
  8
PROFILEEDGES
 66
     1
 10
0.0
 20
0.0
 30
0.0
  0
VERTEX
  5
2A2
  8
PROFILEEDGES
 10
-35.49296039782248
 20
96.31118200182715
 30
0.0
 40
0.6715652102934981
 41
0.6715652102934981
  0
VERTEX
  5
2A3
  8
PROFILEEDGES
 10
-50.99534537822971
 20
100.0329753507055
 30
0.0
 40
0.6715652102934981
 41
0.6715652102934981
  0
SEQEND
  5
442
  8
PROFILEEDGES
  0
POLYLINE
  5
11D
  8
PROFILEEDGES
 66
     1
 10
0.0
 20
0.0
 30
0.0
  0
VERTEX
  5
2A4
  8
PROFILEEDGES
 10
-50.99534537822971
 20
-100.6652954582265
 30
0.0
 40
0.6715652102934981
 41
0.6715652102934981
  0
VERTEX
  5
2A5
  8
PROFILEEDGES
 10
-35.49296039782248
 20
-96.94350210934805
 30
0.0
 40
0.6715652102934981
 41
0.6715652102934981
  0
SEQEND
  5
443
  8
PROFILEEDGES
  0
POLYLINE
  5
11E
  8
PROFILEEDGES
 66
     1
 10
0.0
 20
0.0
 30
0.0
  0
VERTEX
  5
2A6
  8
PROFILEEDGES
 10
-66.88908702631713
 20
-16.82616005376044
 30
0.0
 40
0.6715652102934981
 41
0.6715652102934981
  0
VERTEX
  5
2A7
  8
PROFILEEDGES
 10
-64.30635400850296
 20
-16.62289455698618
 30
0.0
 40
0.6715652102934981
 41
0.6715652102934981
  0
SEQEND
  5
444
  8
PROFILEEDGES
  0
POLYLINE
  5
11F
  8
PROFILEEDGES
 66
     1
 10
0.0
 20
0.0
 30
0.0
  0
VERTEX
  5
2A8
  8
PROFILEEDGES
 10
-64.30635400850296
 20
-16.62289455698618
 30
0.0
 40
0.6715652102934981
 41
0.6715652102934981
  0
VERTEX
  5
2A9
  8
PROFILEEDGES
 10
-61.78721644918684
 20
-16.01810313779343
 30
0.0
 40
0.6715652102934981
 41
0.6715652102934981
  0
SEQEND
  5
445
  8
PROFILEEDGES
  0
POLYLINE
  5
120
  8
PROFILEEDGES
 66
     1
 10
0.0
 20
0.0
 30
0.0
  0
VERTEX
  5
2AA
  8
PROFILEEDGES
 10
-61.78721644918684
 20
-16.01810313779343
 30
0.0
 40
0.6715652102934981
 41
0.6715652102934981
  0
VERTEX
  5
2AB
  8
PROFILEEDGES
 10
-59.39370387561725
 20
-15.02667776811041
 30
0.0
 40
0.6715652102934981
 41
0.6715652102934981
  0
SEQEND
  5
446
  8
PROFILEEDGES
  0
POLYLINE
  5
121
  8
PROFILEEDGES
 66
     1
 10
0.0
 20
0.0
 30
0.0
  0
VERTEX
  5
2AC
  8
PROFILEEDGES
 10
-59.39370387561725
 20
-15.02667776811041
 30
0.0
 40
0.6715652102934981
 41
0.6715652102934981
  0
VERTEX
  5
2AD
  8
PROFILEEDGES
 10
-57.18475251096842
 20
-13.67303063089084
 30
0.0
 40
0.6715652102934981
 41
0.6715652102934981
  0
SEQEND
  5
447
  8
PROFILEEDGES
  0
POLYLINE
  5
122
  8
PROFILEEDGES
 66
     1
 10
0.0
 20
0.0
 30
0.0
  0
VERTEX
  5
2AE
  8
PROFILEEDGES
 10
-57.18475251096842
 20
-13.67303063089084
 30
0.0
 40
0.6715652102934981
 41
0.6715652102934981
  0
VERTEX
  5
2AF
  8
PROFILEEDGES
 10
-55.21475406892727
 20
-11.99049301115034
 30
0.0
 40
0.6715652102934981
 41
0.6715652102934981
  0
SEQEND
  5
448
  8
PROFILEEDGES
  0
POLYLINE
  5
123
  8
PROFILEEDGES
 66
     1
 10
0.0
 20
0.0
 30
0.0
  0
VERTEX
  5
2B0
  8
PROFILEEDGES
 10
-55.21475406892727
 20
-11.99049301115034
 30
0.0
 40
0.6715652102934981
 41
0.6715652102934981
  0
VERTEX
  5
2B1
  8
PROFILEEDGES
 10
-53.53221644918676
 20
-10.02049456910918
 30
0.0
 40
0.6715652102934981
 41
0.6715652102934981
  0
SEQEND
  5
449
  8
PROFILEEDGES
  0
POLYLINE
  5
124
  8
PROFILEEDGES
 66
     1
 10
0.0
 20
0.0
 30
0.0
  0
VERTEX
  5
2B2
  8
PROFILEEDGES
 10
-53.53221644918676
 20
-10.02049456910918
 30
0.0
 40
0.6715652102934981
 41
0.6715652102934981
  0
VERTEX
  5
2B3
  8
PROFILEEDGES
 10
-52.17856931196722
 20
-7.811543204460374
 30
0.0
 40
0.6715652102934981
 41
0.6715652102934981
  0
SEQEND
  5
44A
  8
PROFILEEDGES
  0
POLYLINE
  5
125
  8
PROFILEEDGES
 66
     1
 10
0.0
 20
0.0
 30
0.0
  0
VERTEX
  5
2B4
  8
PROFILEEDGES
 10
-52.17856931196722
 20
-7.811543204460374
 30
0.0
 40
0.6715652102934981
 41
0.6715652102934981
  0
VERTEX
  5
2B5
  8
PROFILEEDGES
 10
-51.18714394228417
 20
-5.41803063089084
 30
0.0
 40
0.6715652102934981
 41
0.6715652102934981
  0
SEQEND
  5
44B
  8
PROFILEEDGES
  0
POLYLINE
  5
126
  8
PROFILEEDGES
 66
     1
 10
0.0
 20
0.0
 30
0.0
  0
VERTEX
  5
2B6
  8
PROFILEEDGES
 10
-51.18714394228417
 20
-5.41803063089084
 30
0.0
 40
0.6715652102934981
 41
0.6715652102934981
  0
VERTEX
  5
2B7
  8
PROFILEEDGES
 10
-50.58235252309142
 20
-2.898893071574661
 30
0.0
 40
0.6715652102934981
 41
0.6715652102934981
  0
SEQEND
  5
44C
  8
PROFILEEDGES
  0
POLYLINE
  5
127
  8
PROFILEEDGES
 66
     1
 10
0.0
 20
0.0
 30
0.0
  0
VERTEX
  5
2B8
  8
PROFILEEDGES
 10
-50.58235252309142
 20
-2.898893071574661
 30
0.0
 40
0.6715652102934981
 41
0.6715652102934981
  0
VERTEX
  5
2B9
  8
PROFILEEDGES
 10
-50.37908702631719
 20
-0.3161600537604579
 30
0.0
 40
0.6715652102934981
 41
0.6715652102934981
  0
SEQEND
  5
44D
  8
PROFILEEDGES
  0
POLYLINE
  5
128
  8
PROFILEEDGES
 66
     1
 10
0.0
 20
0.0
 30
0.0
  0
VERTEX
  5
2BA
  8
PROFILEEDGES
 10
-50.37908702631719
 20
-0.3161600537604579
 30
0.0
 40
0.6715652102934981
 41
0.6715652102934981
  0
VERTEX
  5
2BB
  8
PROFILEEDGES
 10
-50.58235252309142
 20
2.266572964053781
 30
0.0
 40
0.6715652102934981
 41
0.6715652102934981
  0
SEQEND
  5
44E
  8
PROFILEEDGES
  0
POLYLINE
  5
129
  8
PROFILEEDGES
 66
     1
 10
0.0
 20
0.0
 30
0.0
  0
VERTEX
  5
2BC
  8
PROFILEEDGES
 10
-50.58235252309142
 20
2.266572964053781
 30
0.0
 40
0.6715652102934981
 41
0.6715652102934981
  0
VERTEX
  5
2BD
  8
PROFILEEDGES
 10
-51.18714394228417
 20
4.785710523369941
 30
0.0
 40
0.6715652102934981
 41
0.6715652102934981
  0
SEQEND
  5
44F
  8
PROFILEEDGES
  0
POLYLINE
  5
12A
  8
PROFILEEDGES
 66
     1
 10
0.0
 20
0.0
 30
0.0
  0
VERTEX
  5
2BE
  8
PROFILEEDGES
 10
-51.18714394228417
 20
4.785710523369941
 30
0.0
 40
0.6715652102934981
 41
0.6715652102934981
  0
VERTEX
  5
2BF
  8
PROFILEEDGES
 10
-52.17856931196722
 20
7.179223096939477
 30
0.0
 40
0.6715652102934981
 41
0.6715652102934981
  0
SEQEND
  5
450
  8
PROFILEEDGES
  0
POLYLINE
  5
12B
  8
PROFILEEDGES
 66
     1
 10
0.0
 20
0.0
 30
0.0
  0
VERTEX
  5
2C0
  8
PROFILEEDGES
 10
-52.17856931196722
 20
7.179223096939477
 30
0.0
 40
0.6715652102934981
 41
0.6715652102934981
  0
VERTEX
  5
2C1
  8
PROFILEEDGES
 10
-53.53221644918676
 20
9.388174461588282
 30
0.0
 40
0.6715652102934981
 41
0.6715652102934981
  0
SEQEND
  5
451
  8
PROFILEEDGES
  0
POLYLINE
  5
12C
  8
PROFILEEDGES
 66
     1
 10
0.0
 20
0.0
 30
0.0
  0
VERTEX
  5
2C2
  8
PROFILEEDGES
 10
-53.53221644918676
 20
9.388174461588282
 30
0.0
 40
0.6715652102934981
 41
0.6715652102934981
  0
VERTEX
  5
2C3
  8
PROFILEEDGES
 10
-55.21475406892727
 20
11.35817290362945
 30
0.0
 40
0.6715652102934981
 41
0.6715652102934981
  0
SEQEND
  5
452
  8
PROFILEEDGES
  0
POLYLINE
  5
12D
  8
PROFILEEDGES
 66
     1
 10
0.0
 20
0.0
 30
0.0
  0
VERTEX
  5
2C4
  8
PROFILEEDGES
 10
-55.21475406892727
 20
11.35817290362945
 30
0.0
 40
0.6715652102934981
 41
0.6715652102934981
  0
VERTEX
  5
2C5
  8
PROFILEEDGES
 10
-57.18475251096842
 20
13.04071052336992
 30
0.0
 40
0.6715652102934981
 41
0.6715652102934981
  0
SEQEND
  5
453
  8
PROFILEEDGES
  0
POLYLINE
  5
12E
  8
PROFILEEDGES
 66
     1
 10
0.0
 20
0.0
 30
0.0
  0
VERTEX
  5
2C6
  8
PROFILEEDGES
 10
-57.18475251096842
 20
13.04071052336992
 30
0.0
 40
0.6715652102934981
 41
0.6715652102934981
  0
VERTEX
  5
2C7
  8
PROFILEEDGES
 10
-59.39370387561725
 20
14.39435766058951
 30
0.0
 40
0.6715652102934981
 41
0.6715652102934981
  0
SEQEND
  5
454
  8
PROFILEEDGES
  0
POLYLINE
  5
12F
  8
PROFILEEDGES
 66
     1
 10
0.0
 20
0.0
 30
0.0
  0
VERTEX
  5
2C8
  8
PROFILEEDGES
 10
-59.39370387561725
 20
14.39435766058951
 30
0.0
 40
0.6715652102934981
 41
0.6715652102934981
  0
VERTEX
  5
2C9
  8
PROFILEEDGES
 10
-61.78721644918684
 20
15.38578303027253
 30
0.0
 40
0.6715652102934981
 41
0.6715652102934981
  0
SEQEND
  5
455
  8
PROFILEEDGES
  0
POLYLINE
  5
130
  8
PROFILEEDGES
 66
     1
 10
0.0
 20
0.0
 30
0.0
  0
VERTEX
  5
2CA
  8
PROFILEEDGES
 10
-61.78721644918684
 20
15.38578303027253
 30
0.0
 40
0.6715652102934981
 41
0.6715652102934981
  0
VERTEX
  5
2CB
  8
PROFILEEDGES
 10
-64.30635400850296
 20
15.99057444946526
 30
0.0
 40
0.6715652102934981
 41
0.6715652102934981
  0
SEQEND
  5
456
  8
PROFILEEDGES
  0
POLYLINE
  5
131
  8
PROFILEEDGES
 66
     1
 10
0.0
 20
0.0
 30
0.0
  0
VERTEX
  5
2CC
  8
PROFILEEDGES
 10
-69.47182004413136
 20
15.99057444946526
 30
0.0
 40
0.6715652102934981
 41
0.6715652102934981
  0
VERTEX
  5
2CD
  8
PROFILEEDGES
 10
-71.99095760344755
 20
15.38578303027253
 30
0.0
 40
0.6715652102934981
 41
0.6715652102934981
  0
SEQEND
  5
457
  8
PROFILEEDGES
  0
POLYLINE
  5
132
  8
PROFILEEDGES
 66
     1
 10
0.0
 20
0.0
 30
0.0
  0
VERTEX
  5
2CE
  8
PROFILEEDGES
 10
-66.88908702631713
 20
16.19383994623956
 30
0.0
 40
0.6715652102934981
 41
0.6715652102934981
  0
VERTEX
  5
2CF
  8
PROFILEEDGES
 10
-69.47182004413136
 20
15.99057444946526
 30
0.0
 40
0.6715652102934981
 41
0.6715652102934981
  0
SEQEND
  5
458
  8
PROFILEEDGES
  0
POLYLINE
  5
133
  8
PROFILEEDGES
 66
     1
 10
0.0
 20
0.0
 30
0.0
  0
VERTEX
  5
2D0
  8
PROFILEEDGES
 10
-64.30635400850296
 20
15.99057444946526
 30
0.0
 40
0.6715652102934981
 41
0.6715652102934981
  0
VERTEX
  5
2D1
  8
PROFILEEDGES
 10
-66.88908702631713
 20
16.19383994623956
 30
0.0
 40
0.6715652102934981
 41
0.6715652102934981
  0
SEQEND
  5
459
  8
PROFILEEDGES
  0
POLYLINE
  5
134
  8
PROFILEEDGES
 66
     1
 10
0.0
 20
0.0
 30
0.0
  0
VERTEX
  5
2D2
  8
PROFILEEDGES
 10
-71.99095760344755
 20
15.38578303027253
 30
0.0
 40
0.6715652102934981
 41
0.6715652102934981
  0
VERTEX
  5
2D3
  8
PROFILEEDGES
 10
-74.38447017701708
 20
14.39435766058951
 30
0.0
 40
0.6715652102934981
 41
0.6715652102934981
  0
SEQEND
  5
45A
  8
PROFILEEDGES
  0
POLYLINE
  5
135
  8
PROFILEEDGES
 66
     1
 10
0.0
 20
0.0
 30
0.0
  0
VERTEX
  5
2D4
  8
PROFILEEDGES
 10
-74.38447017701708
 20
14.39435766058951
 30
0.0
 40
0.6715652102934981
 41
0.6715652102934981
  0
VERTEX
  5
2D5
  8
PROFILEEDGES
 10
-76.5934215416659
 20
13.04071052336992
 30
0.0
 40
0.6715652102934981
 41
0.6715652102934981
  0
SEQEND
  5
45B
  8
PROFILEEDGES
  0
POLYLINE
  5
136
  8
PROFILEEDGES
 66
     1
 10
0.0
 20
0.0
 30
0.0
  0
VERTEX
  5
2D6
  8
PROFILEEDGES
 10
-76.5934215416659
 20
13.04071052336992
 30
0.0
 40
0.6715652102934981
 41
0.6715652102934981
  0
VERTEX
  5
2D7
  8
PROFILEEDGES
 10
-78.5634199837071
 20
11.35817290362945
 30
0.0
 40
0.6715652102934981
 41
0.6715652102934981
  0
SEQEND
  5
45C
  8
PROFILEEDGES
  0
POLYLINE
  5
137
  8
PROFILEEDGES
 66
     1
 10
0.0
 20
0.0
 30
0.0
  0
VERTEX
  5
2D8
  8
PROFILEEDGES
 10
-78.5634199837071
 20
11.35817290362945
 30
0.0
 40
0.6715652102934981
 41
0.6715652102934981
  0
VERTEX
  5
2D9
  8
PROFILEEDGES
 10
-80.24595760344756
 20
9.388174461588282
 30
0.0
 40
0.6715652102934981
 41
0.6715652102934981
  0
SEQEND
  5
45D
  8
PROFILEEDGES
  0
POLYLINE
  5
138
  8
PROFILEEDGES
 66
     1
 10
0.0
 20
0.0
 30
0.0
  0
VERTEX
  5
2DA
  8
PROFILEEDGES
 10
-80.24595760344756
 20
9.388174461588282
 30
0.0
 40
0.6715652102934981
 41
0.6715652102934981
  0
VERTEX
  5
2DB
  8
PROFILEEDGES
 10
-81.59960474066709
 20
7.179223096939477
 30
0.0
 40
0.6715652102934981
 41
0.6715652102934981
  0
SEQEND
  5
45E
  8
PROFILEEDGES
  0
POLYLINE
  5
139
  8
PROFILEEDGES
 66
     1
 10
0.0
 20
0.0
 30
0.0
  0
VERTEX
  5
2DC
  8
PROFILEEDGES
 10
-81.59960474066709
 20
7.179223096939477
 30
0.0
 40
0.6715652102934981
 41
0.6715652102934981
  0
VERTEX
  5
2DD
  8
PROFILEEDGES
 10
-82.59103011035015
 20
4.785710523369923
 30
0.0
 40
0.6715652102934981
 41
0.6715652102934981
  0
SEQEND
  5
45F
  8
PROFILEEDGES
  0
POLYLINE
  5
13A
  8
PROFILEEDGES
 66
     1
 10
0.0
 20
0.0
 30
0.0
  0
VERTEX
  5
2DE
  8
PROFILEEDGES
 10
-82.59103011035015
 20
4.785710523369923
 30
0.0
 40
0.6715652102934981
 41
0.6715652102934981
  0
VERTEX
  5
2DF
  8
PROFILEEDGES
 10
-83.1958215295429
 20
2.266572964053745
 30
0.0
 40
0.6715652102934981
 41
0.6715652102934981
  0
SEQEND
  5
460
  8
PROFILEEDGES
  0
POLYLINE
  5
13B
  8
PROFILEEDGES
 66
     1
 10
0.0
 20
0.0
 30
0.0
  0
VERTEX
  5
2E0
  8
PROFILEEDGES
 10
-83.1958215295429
 20
2.266572964053745
 30
0.0
 40
0.6715652102934981
 41
0.6715652102934981
  0
VERTEX
  5
2E1
  8
PROFILEEDGES
 10
-83.3990870263172
 20
-0.3161600537604579
 30
0.0
 40
0.6715652102934981
 41
0.6715652102934981
  0
SEQEND
  5
461
  8
PROFILEEDGES
  0
POLYLINE
  5
13C
  8
PROFILEEDGES
 66
     1
 10
0.0
 20
0.0
 30
0.0
  0
VERTEX
  5
2E2
  8
PROFILEEDGES
 10
-83.3990870263172
 20
-0.3161600537604579
 30
0.0
 40
0.6715652102934981
 41
0.6715652102934981
  0
VERTEX
  5
2E3
  8
PROFILEEDGES
 10
-83.1958215295429
 20
-2.898893071574661
 30
0.0
 40
0.6715652102934981
 41
0.6715652102934981
  0
SEQEND
  5
462
  8
PROFILEEDGES
  0
POLYLINE
  5
13D
  8
PROFILEEDGES
 66
     1
 10
0.0
 20
0.0
 30
0.0
  0
VERTEX
  5
2E4
  8
PROFILEEDGES
 10
-83.1958215295429
 20
-2.898893071574661
 30
0.0
 40
0.6715652102934981
 41
0.6715652102934981
  0
VERTEX
  5
2E5
  8
PROFILEEDGES
 10
-82.59103011035015
 20
-5.41803063089084
 30
0.0
 40
0.6715652102934981
 41
0.6715652102934981
  0
SEQEND
  5
463
  8
PROFILEEDGES
  0
POLYLINE
  5
13E
  8
PROFILEEDGES
 66
     1
 10
0.0
 20
0.0
 30
0.0
  0
VERTEX
  5
2E6
  8
PROFILEEDGES
 10
-82.59103011035015
 20
-5.41803063089084
 30
0.0
 40
0.6715652102934981
 41
0.6715652102934981
  0
VERTEX
  5
2E7
  8
PROFILEEDGES
 10
-81.59960474066709
 20
-7.811543204460374
 30
0.0
 40
0.6715652102934981
 41
0.6715652102934981
  0
SEQEND
  5
464
  8
PROFILEEDGES
  0
POLYLINE
  5
13F
  8
PROFILEEDGES
 66
     1
 10
0.0
 20
0.0
 30
0.0
  0
VERTEX
  5
2E8
  8
PROFILEEDGES
 10
-81.59960474066709
 20
-7.811543204460374
 30
0.0
 40
0.6715652102934981
 41
0.6715652102934981
  0
VERTEX
  5
2E9
  8
PROFILEEDGES
 10
-80.24595760344756
 20
-10.02049456910918
 30
0.0
 40
0.6715652102934981
 41
0.6715652102934981
  0
SEQEND
  5
465
  8
PROFILEEDGES
  0
POLYLINE
  5
140
  8
PROFILEEDGES
 66
     1
 10
0.0
 20
0.0
 30
0.0
  0
VERTEX
  5
2EA
  8
PROFILEEDGES
 10
-80.24595760344756
 20
-10.02049456910918
 30
0.0
 40
0.6715652102934981
 41
0.6715652102934981
  0
VERTEX
  5
2EB
  8
PROFILEEDGES
 10
-78.56341998370705
 20
-11.99049301115034
 30
0.0
 40
0.6715652102934981
 41
0.6715652102934981
  0
SEQEND
  5
466
  8
PROFILEEDGES
  0
POLYLINE
  5
141
  8
PROFILEEDGES
 66
     1
 10
0.0
 20
0.0
 30
0.0
  0
VERTEX
  5
2EC
  8
PROFILEEDGES
 10
-78.56341998370705
 20
-11.99049301115034
 30
0.0
 40
0.6715652102934981
 41
0.6715652102934981
  0
VERTEX
  5
2ED
  8
PROFILEEDGES
 10
-76.5934215416659
 20
-13.67303063089084
 30
0.0
 40
0.6715652102934981
 41
0.6715652102934981
  0
SEQEND
  5
467
  8
PROFILEEDGES
  0
POLYLINE
  5
142
  8
PROFILEEDGES
 66
     1
 10
0.0
 20
0.0
 30
0.0
  0
VERTEX
  5
2EE
  8
PROFILEEDGES
 10
-76.5934215416659
 20
-13.67303063089084
 30
0.0
 40
0.6715652102934981
 41
0.6715652102934981
  0
VERTEX
  5
2EF
  8
PROFILEEDGES
 10
-74.38447017701708
 20
-15.02667776811041
 30
0.0
 40
0.6715652102934981
 41
0.6715652102934981
  0
SEQEND
  5
468
  8
PROFILEEDGES
  0
POLYLINE
  5
143
  8
PROFILEEDGES
 66
     1
 10
0.0
 20
0.0
 30
0.0
  0
VERTEX
  5
2F0
  8
PROFILEEDGES
 10
-74.38447017701708
 20
-15.02667776811041
 30
0.0
 40
0.6715652102934981
 41
0.6715652102934981
  0
VERTEX
  5
2F1
  8
PROFILEEDGES
 10
-71.99095760344755
 20
-16.01810313779343
 30
0.0
 40
0.6715652102934981
 41
0.6715652102934981
  0
SEQEND
  5
469
  8
PROFILEEDGES
  0
POLYLINE
  5
144
  8
PROFILEEDGES
 66
     1
 10
0.0
 20
0.0
 30
0.0
  0
VERTEX
  5
2F2
  8
PROFILEEDGES
 10
-71.99095760344755
 20
-16.01810313779343
 30
0.0
 40
0.6715652102934981
 41
0.6715652102934981
  0
VERTEX
  5
2F3
  8
PROFILEEDGES
 10
-69.47182004413136
 20
-16.62289455698618
 30
0.0
 40
0.6715652102934981
 41
0.6715652102934981
  0
SEQEND
  5
46A
  8
PROFILEEDGES
  0
POLYLINE
  5
145
  8
PROFILEEDGES
 66
     1
 10
0.0
 20
0.0
 30
0.0
  0
VERTEX
  5
2F4
  8
PROFILEEDGES
 10
-69.47182004413136
 20
-16.62289455698618
 30
0.0
 40
0.6715652102934981
 41
0.6715652102934981
  0
VERTEX
  5
2F5
  8
PROFILEEDGES
 10
-66.88908702631713
 20
-16.82616005376044
 30
0.0
 40
0.6715652102934981
 41
0.6715652102934981
  0
SEQEND
  5
46B
  8
PROFILEEDGES
  0
POLYLINE
  5
146
  8
PROFILEEDGES
 66
     1
 10
0.0
 20
0.0
 30
0.0
  0
VERTEX
  5
2F6
  8
PROFILEEDGES
 10
148.520912973683
 20
-32.70116005376046
 30
0.0
 40
0.6715652102934981
 41
0.6715652102934981
  0
VERTEX
  5
2F7
  8
PROFILEEDGES
 10
128.2009129736889
 20
-32.70116005376046
 30
0.0
 40
0.6715652102934981
 41
0.6715652102934981
  0
SEQEND
  5
46C
  8
PROFILEEDGES
  0
POLYLINE
  5
147
  8
PROFILEEDGES
 66
     1
 10
0.0
 20
0.0
 30
0.0
  0
VERTEX
  5
2F8
  8
PROFILEEDGES
 10
148.520912973683
 20
32.06883994623956
 30
0.0
 40
0.6715652102934981
 41
0.6715652102934981
  0
VERTEX
  5
2F9
  8
PROFILEEDGES
 10
128.2009129736889
 20
32.06883994623956
 30
0.0
 40
0.6715652102934981
 41
0.6715652102934981
  0
SEQEND
  5
46D
  8
PROFILEEDGES
  0
POLYLINE
  5
148
  8
PROFILEEDGES
 66
     1
 10
0.0
 20
0.0
 30
0.0
  0
VERTEX
  5
2FA
  8
PROFILEEDGES
 10
108.7736486268944
 20
-99.99248178770303
 30
0.0
 40
0.6715652102934981
 41
0.6715652102934981
  0
VERTEX
  5
2FB
  8
PROFILEEDGES
 10
90.10091297368295
 20
-94.29616005376046
 30
0.0
 40
0.6715652102934981
 41
0.6715652102934981
  0
SEQEND
  5
46E
  8
PROFILEEDGES
  0
POLYLINE
  5
149
  8
PROFILEEDGES
 66
     1
 10
0.0
 20
0.0
 30
0.0
  0
VERTEX
  5
2FC
  8
PROFILEEDGES
 10
128.200912973683
 20
-101.9161600537604
 30
0.0
 40
0.6715652102934981
 41
0.6715652102934981
  0
VERTEX
  5
2FD
  8
PROFILEEDGES
 10
108.7736486268944
 20
-99.99248178770303
 30
0.0
 40
0.6715652102934981
 41
0.6715652102934981
  0
SEQEND
  5
46F
  8
PROFILEEDGES
  0
POLYLINE
  5
14A
  8
PROFILEEDGES
 66
     1
 10
0.0
 20
0.0
 30
0.0
  0
VERTEX
  5
2FE
  8
PROFILEEDGES
 10
108.7736486268944
 20
99.3601616801821
 30
0.0
 40
0.6715652102934981
 41
0.6715652102934981
  0
VERTEX
  5
2FF
  8
PROFILEEDGES
 10
90.10091297368295
 20
93.66383994623955
 30
0.0
 40
0.6715652102934981
 41
0.6715652102934981
  0
SEQEND
  5
470
  8
PROFILEEDGES
  0
POLYLINE
  5
14B
  8
PROFILEEDGES
 66
     1
 10
0.0
 20
0.0
 30
0.0
  0
VERTEX
  5
300
  8
PROFILEEDGES
 10
128.200912973683
 20
101.2838399462395
 30
0.0
 40
0.6715652102934981
 41
0.6715652102934981
  0
VERTEX
  5
301
  8
PROFILEEDGES
 10
108.7736486268944
 20
99.3601616801821
 30
0.0
 40
0.6715652102934981
 41
0.6715652102934981
  0
SEQEND
  5
471
  8
PROFILEEDGES
  0
POLYLINE
  5
14C
  8
PROFILEEDGES
 66
     1
 10
0.0
 20
0.0
 30
0.0
  0
VERTEX
  5
302
  8
PROFILEEDGES
 10
-70.63677860166709
 20
-66.09141891093539
 30
0.0
 40
0.6715652102934981
 41
0.6715652102934981
  0
VERTEX
  5
303
  8
PROFILEEDGES
 10
-70.48699092593056
 20
-66.14442739297586
 30
0.0
 40
0.6715652102934981
 41
0.6715652102934981
  0
SEQEND
  5
472
  8
PROFILEEDGES
  0
LINE
  5
14D
  8
0
 10
-70.48699092593056
 20
-66.14442739297586
 30
0.0
 11
-69.44002231488231
 21
-66.58713159577691
 31
0.0
  0
POLYLINE
  5
14E
  8
PROFILEEDGES
 66
     1
 10
0.0
 20
0.0
 30
0.0
  0
VERTEX
  5
304
  8
PROFILEEDGES
 10
-68.8057166260751
 20
-66.73941491842321
 30
0.0
 40
0.6715652102934981
 41
0.6715652102934981
  0
VERTEX
  5
305
  8
PROFILEEDGES
 10
-70.48699092593056
 20
-66.14442739297586
 30
0.0
 40
0.6715652102934981
 41
0.6715652102934981
  0
SEQEND
  5
473
  8
PROFILEEDGES
  0
POLYLINE
  5
14F
  8
PROFILEEDGES
 66
     1
 10
0.0
 20
0.0
 30
0.0
  0
VERTEX
  5
306
  8
PROFILEEDGES
 10
-74.24434588349214
 20
-62.4838516291104
 30
0.0
 40
0.6715652102934981
 41
0.6715652102934981
  0
VERTEX
  5
307
  8
PROFILEEDGES
 10
-74.16880877205551
 20
-62.59597010024169
 30
0.0
 40
0.6715652102934981
 41
0.6715652102934981
  0
SEQEND
  5
474
  8
PROFILEEDGES
  0
POLYLINE
  5
150
  8
PROFILEEDGES
 66
     1
 10
0.0
 20
0.0
 30
0.0
  0
VERTEX
  5
308
  8
PROFILEEDGES
 10
-74.16880877205551
 20
-62.59597010024169
 30
0.0
 40
0.6715652102934981
 41
0.6715652102934981
  0
VERTEX
  5
309
  8
PROFILEEDGES
 10
-73.24886552498117
 20
-63.96142647562938
 30
0.0
 40
0.6715652102934981
 41
0.6715652102934981
  0
SEQEND
  5
475
  8
PROFILEEDGES
  0
LINE
  5
151
  8
0
 10
-74.16880877205551
 20
-62.59597010024169
 30
0.0
 11
-73.56752231488231
 21
-63.58832731143479
 31
0.0
  0
POLYLINE
  5
152
  8
PROFILEEDGES
 66
     1
 10
0.0
 20
0.0
 30
0.0
  0
VERTEX
  5
30A
  8
PROFILEEDGES
 10
-75.14408702631712
 20
-58.73616005376043
 30
0.0
 40
0.6715652102934981
 41
0.6715652102934981
  0
VERTEX
  5
30B
  8
PROFILEEDGES
 10
-75.10799480469346
 20
-58.98669876014757
 30
0.0
 40
0.6715652102934981
 41
0.6715652102934981
  0
SEQEND
  5
476
  8
PROFILEEDGES
  0
POLYLINE
  5
153
  8
PROFILEEDGES
 66
     1
 10
0.0
 20
0.0
 30
0.0
  0
VERTEX
  5
30C
  8
PROFILEEDGES
 10
-75.10799480469346
 20
-58.98669876014757
 30
0.0
 40
0.6715652102934981
 41
0.6715652102934981
  0
VERTEX
  5
30D
  8
PROFILEEDGES
 10
-74.83143082058592
 20
-60.9065025210265
 30
0.0
 40
0.6715652102934981
 41
0.6715652102934981
  0
SEQEND
  5
477
  8
PROFILEEDGES
  0
LINE
  5
154
  8
0
 10
-75.10799480469346
 20
-58.98669876014757
 30
0.0
 11
-75.04245427793005
 21
-60.02752656266752
 31
0.0
  0
POLYLINE
  5
155
  8
PROFILEEDGES
 66
     1
 10
0.0
 20
0.0
 30
0.0
  0
VERTEX
  5
30E
  8
PROFILEEDGES
 10
-75.04245427793005
 20
-57.44479354485334
 30
0.0
 40
0.6715652102934981
 41
0.6715652102934981
  0
VERTEX
  5
30F
  8
PROFILEEDGES
 10
-75.04478635361569
 20
-57.49965791411795
 30
0.0
 40
0.6715652102934981
 41
0.6715652102934981
  0
SEQEND
  5
478
  8
PROFILEEDGES
  0
LINE
  5
156
  8
0
 10
-75.04478635361569
 20
-57.49965791411795
 30
0.0
 11
-75.14408702631712
 21
-58.73616005376043
 31
0.0
  0
POLYLINE
  5
157
  8
PROFILEEDGES
 66
     1
 10
0.0
 20
0.0
 30
0.0
  0
VERTEX
  5
310
  8
PROFILEEDGES
 10
-75.10799480469346
 20
-58.98669876014757
 30
0.0
 40
0.6715652102934981
 41
0.6715652102934981
  0
VERTEX
  5
311
  8
PROFILEEDGES
 10
-75.04478635361569
 20
-57.49965791411795
 30
0.0
 40
0.6715652102934981
 41
0.6715652102934981
  0
SEQEND
  5
479
  8
PROFILEEDGES
  0
POLYLINE
  5
158
  8
PROFILEEDGES
 66
     1
 10
0.0
 20
0.0
 30
0.0
  0
VERTEX
  5
312
  8
PROFILEEDGES
 10
-70.63677860166709
 20
-51.38090119658546
 30
0.0
 40
0.6715652102934981
 41
0.6715652102934981
  0
VERTEX
  5
313
  8
PROFILEEDGES
 10
-70.86229435686266
 20
-51.53269826329357
 30
0.0
 40
0.6715652102934981
 41
0.6715652102934981
  0
SEQEND
  5
47A
  8
PROFILEEDGES
  0
POLYLINE
  5
159
  8
PROFILEEDGES
 66
     1
 10
0.0
 20
0.0
 30
0.0
  0
VERTEX
  5
314
  8
PROFILEEDGES
 10
-70.86229435686266
 20
-51.53269826329357
 30
0.0
 40
0.6715652102934981
 41
0.6715652102934981
  0
VERTEX
  5
315
  8
PROFILEEDGES
 10
-72.10933092104503
 20
-52.372091911673
 30
0.0
 40
0.6715652102934981
 41
0.6715652102934981
  0
SEQEND
  5
47B
  8
PROFILEEDGES
  0
LINE
  5
15A
  8
0
 10
-70.86229435686266
 20
-51.53269826329357
 30
0.0
 11
-71.74125428399151
 21
-52.05772476519525
 31
0.0
  0
POLYLINE
  5
15B
  8
PROFILEEDGES
 66
     1
 10
0.0
 20
0.0
 30
0.0
  0
VERTEX
  5
316
  8
PROFILEEDGES
 10
-69.58051863440895
 20
-50.94915147682036
 30
0.0
 40
0.6715652102934981
 41
0.6715652102934981
  0
VERTEX
  5
317
  8
PROFILEEDGES
 10
-69.44002231488231
 20
-50.88518851174396
 30
0.0
 40
0.6715652102934981
 41
0.6715652102934981
  0
SEQEND
  5
47C
  8
PROFILEEDGES
  0
LINE
  5
15C
  8
0
 10
-69.58051863440895
 20
-50.94915147682036
 30
0.0
 11
-70.63677860166709
 21
-51.38090119658546
 31
0.0
  0
POLYLINE
  5
15D
  8
PROFILEEDGES
 66
     1
 10
0.0
 20
0.0
 30
0.0
  0
VERTEX
  5
318
  8
PROFILEEDGES
 10
-70.86229435686266
 20
-51.53269826329357
 30
0.0
 40
0.6715652102934981
 41
0.6715652102934981
  0
VERTEX
  5
319
  8
PROFILEEDGES
 10
-69.58051863440895
 20
-50.94915147682036
 30
0.0
 40
0.6715652102934981
 41
0.6715652102934981
  0
SEQEND
  5
47D
  8
PROFILEEDGES
  0
POLYLINE
  5
15E
  8
PROFILEEDGES
 66
     1
 10
0.0
 20
0.0
 30
0.0
  0
VERTEX
  5
31A
  8
PROFILEEDGES
 10
-60.34246948988002
 20
-53.74041631606167
 30
0.0
 40
0.6715652102934981
 41
0.6715652102934981
  0
VERTEX
  5
31B
  8
PROFILEEDGES
 10
-60.21065173775202
 20
-53.88399279608607
 30
0.0
 40
0.6715652102934981
 41
0.6715652102934981
  0
SEQEND
  5
47E
  8
PROFILEEDGES
  0
LINE
  5
15F
  8
0
 10
-60.34246948988002
 20
-53.74041631606167
 30
0.0
 11
-61.0519205476222
 21
-52.8989935750655
 31
0.0
  0
POLYLINE
  5
160
  8
PROFILEEDGES
 66
     1
 10
0.0
 20
0.0
 30
0.0
  0
VERTEX
  5
31C
  8
PROFILEEDGES
 10
-61.3440454570886
 20
-52.64949533214747
 30
0.0
 40
0.6715652102934981
 41
0.6715652102934981
  0
VERTEX
  5
31D
  8
PROFILEEDGES
 10
-60.34246948988002
 20
-53.74041631606167
 30
0.0
 40
0.6715652102934981
 41
0.6715652102934981
  0
SEQEND
  5
47F
  8
PROFILEEDGES
  0
POLYLINE
  5
161
  8
PROFILEEDGES
 66
     1
 10
0.0
 20
0.0
 30
0.0
  0
VERTEX
  5
31E
  8
PROFILEEDGES
 10
-59.03208814499894
 20
-56.18326636394024
 30
0.0
 40
0.6715652102934981
 41
0.6715652102934981
  0
VERTEX
  5
31F
  8
PROFILEEDGES
 10
-59.05788483222446
 20
-56.13749733731831
 30
0.0
 40
0.6715652102934981
 41
0.6715652102934981
  0
SEQEND
  5
480
  8
PROFILEEDGES
  0
POLYLINE
  5
162
  8
PROFILEEDGES
 66
     1
 10
0.0
 20
0.0
 30
0.0
  0
VERTEX
  5
320
  8
PROFILEEDGES
 10
-59.05788483222446
 20
-56.13749733731831
 30
0.0
 40
0.6715652102934981
 41
0.6715652102934981
  0
VERTEX
  5
321
  8
PROFILEEDGES
 10
-59.53382816914218
 20
-54.98846847841047
 30
0.0
 40
0.6715652102934981
 41
0.6715652102934981
  0
SEQEND
  5
481
  8
PROFILEEDGES
  0
POLYLINE
  5
163
  8
PROFILEEDGES
 66
     1
 10
0.0
 20
0.0
 30
0.0
  0
VERTEX
  5
322
  8
PROFILEEDGES
 10
-58.92560831074311
 20
-60.81846923817288
 30
0.0
 40
0.6715652102934981
 41
0.6715652102934981
  0
VERTEX
  5
323
  8
PROFILEEDGES
 10
-58.73571977470428
 20
-60.02752656266754
 30
0.0
 40
0.6715652102934981
 41
0.6715652102934981
  0
SEQEND
  5
482
  8
PROFILEEDGES
  0
POLYLINE
  5
164
  8
PROFILEEDGES
 66
     1
 10
0.0
 20
0.0
 30
0.0
  0
VERTEX
  5
324
  8
PROFILEEDGES
 10
-60.50842337165778
 20
-63.936973099794
 30
0.0
 40
0.6715652102934981
 41
0.6715652102934981
  0
VERTEX
  5
325
  8
PROFILEEDGES
 10
-60.21065173775202
 20
-63.58832731143479
 30
0.0
 40
0.6715652102934981
 41
0.6715652102934981
  0
SEQEND
  5
483
  8
PROFILEEDGES
  0
POLYLINE
  5
165
  8
PROFILEEDGES
 66
     1
 10
0.0
 20
0.0
 30
0.0
  0
VERTEX
  5
326
  8
PROFILEEDGES
 10
-62.03691976864287
 20
-65.41459534232563
 30
0.0
 40
0.6715652102934981
 41
0.6715652102934981
  0
VERTEX
  5
327
  8
PROFILEEDGES
 10
-61.977889875447
 20
-65.3604459438987
 30
0.0
 40
0.6715652102934981
 41
0.6715652102934981
  0
SEQEND
  5
484
  8
PROFILEEDGES
  0
LINE
  5
166
  8
0
 10
-61.977889875447
 20
-65.3604459438987
 30
0.0
 11
-61.0519205476222
 21
-64.57332653245538
 31
0.0
  0
POLYLINE
  5
167
  8
PROFILEEDGES
 66
     1
 10
0.0
 20
0.0
 30
0.0
  0
VERTEX
  5
328
  8
PROFILEEDGES
 10
-60.806218656977
 20
-64.28564658040041
 30
0.0
 40
0.6715652102934981
 41
0.6715652102934981
  0
VERTEX
  5
329
  8
PROFILEEDGES
 10
-61.977889875447
 20
-65.3604459438987
 30
0.0
 40
0.6715652102934981
 41
0.6715652102934981
  0
SEQEND
  5
485
  8
PROFILEEDGES
  0
POLYLINE
  5
168
  8
PROFILEEDGES
 66
     1
 10
0.0
 20
0.0
 30
0.0
  0
VERTEX
  5
32A
  8
PROFILEEDGES
 10
-64.92250438070377
 20
-66.72742225316198
 30
0.0
 40
0.6715652102934981
 41
0.6715652102934981
  0
VERTEX
  5
32B
  8
PROFILEEDGES
 10
-64.33815173775194
 20
-66.58713159577691
 30
0.0
 40
0.6715652102934981
 41
0.6715652102934981
  0
SEQEND
  5
486
  8
PROFILEEDGES
  0
POLYLINE
  5
169
  8
PROFILEEDGES
 66
     1
 10
0.0
 20
0.0
 30
0.0
  0
VERTEX
  5
32C
  8
PROFILEEDGES
 10
-68.80571662607495
 20
66.10709481090235
 30
0.0
 40
0.6715652102934981
 41
0.6715652102934981
  0
VERTEX
  5
32D
  8
PROFILEEDGES
 10
-69.44002231488231
 20
65.95481148825603
 30
0.0
 40
0.6715652102934981
 41
0.6715652102934981
  0
SEQEND
  5
487
  8
PROFILEEDGES
  0
LINE
  5
16A
  8
0
 10
-69.44002231488231
 20
65.95481148825603
 30
0.0
 11
-70.48699092593067
 21
65.51210728545492
 31
0.0
  0
POLYLINE
  5
16B
  8
PROFILEEDGES
 66
     1
 10
0.0
 20
0.0
 30
0.0
  0
VERTEX
  5
32E
  8
PROFILEEDGES
 10
-70.48699092593067
 20
65.51210728545492
 30
0.0
 40
0.6715652102934981
 41
0.6715652102934981
  0
VERTEX
  5
32F
  8
PROFILEEDGES
 10
-70.63677860166709
 20
65.45909880341449
 30
0.0
 40
0.6715652102934981
 41
0.6715652102934981
  0
SEQEND
  5
488
  8
PROFILEEDGES
  0
POLYLINE
  5
16C
  8
PROFILEEDGES
 66
     1
 10
0.0
 20
0.0
 30
0.0
  0
VERTEX
  5
330
  8
PROFILEEDGES
 10
-70.48699092593067
 20
65.51210728545492
 30
0.0
 40
0.6715652102934981
 41
0.6715652102934981
  0
VERTEX
  5
331
  8
PROFILEEDGES
 10
-68.80571662607495
 20
66.10709481090235
 30
0.0
 40
0.6715652102934981
 41
0.6715652102934981
  0
SEQEND
  5
489
  8
PROFILEEDGES
  0
POLYLINE
  5
16D
  8
PROFILEEDGES
 66
     1
 10
0.0
 20
0.0
 30
0.0
  0
VERTEX
  5
332
  8
PROFILEEDGES
 10
-73.24886552498113
 20
63.32910636810853
 30
0.0
 40
0.6715652102934981
 41
0.6715652102934981
  0
VERTEX
  5
333
  8
PROFILEEDGES
 10
-73.56752231488231
 20
62.95600720391389
 30
0.0
 40
0.6715652102934981
 41
0.6715652102934981
  0
SEQEND
  5
48A
  8
PROFILEEDGES
  0
POLYLINE
  5
16E
  8
PROFILEEDGES
 66
     1
 10
0.0
 20
0.0
 30
0.0
  0
VERTEX
  5
334
  8
PROFILEEDGES
 10
-73.24886552498113
 20
63.32910636810853
 30
0.0
 40
0.6715652102934981
 41
0.6715652102934981
  0
VERTEX
  5
335
  8
PROFILEEDGES
 10
-74.16880877205554
 20
61.96364999272072
 30
0.0
 40
0.6715652102934981
 41
0.6715652102934981
  0
SEQEND
  5
48B
  8
PROFILEEDGES
  0
POLYLINE
  5
16F
  8
PROFILEEDGES
 66
     1
 10
0.0
 20
0.0
 30
0.0
  0
VERTEX
  5
336
  8
PROFILEEDGES
 10
-74.16880877205554
 20
61.96364999272072
 30
0.0
 40
0.6715652102934981
 41
0.6715652102934981
  0
VERTEX
  5
337
  8
PROFILEEDGES
 10
-74.24434588349214
 20
61.85153152158949
 30
0.0
 40
0.6715652102934981
 41
0.6715652102934981
  0
SEQEND
  5
48C
  8
PROFILEEDGES
  0
LINE
  5
170
  8
0
 10
-73.56752231488231
 20
62.95600720391389
 30
0.0
 11
-74.16880877205554
 21
61.96364999272072
 31
0.0
  0
POLYLINE
  5
171
  8
PROFILEEDGES
 66
     1
 10
0.0
 20
0.0
 30
0.0
  0
VERTEX
  5
338
  8
PROFILEEDGES
 10
-74.83143082058591
 20
60.27418241350561
 30
0.0
 40
0.6715652102934981
 41
0.6715652102934981
  0
VERTEX
  5
339
  8
PROFILEEDGES
 10
-75.10799480469348
 20
58.35437865262666
 30
0.0
 40
0.6715652102934981
 41
0.6715652102934981
  0
SEQEND
  5
48D
  8
PROFILEEDGES
  0
POLYLINE
  5
172
  8
PROFILEEDGES
 66
     1
 10
0.0
 20
0.0
 30
0.0
  0
VERTEX
  5
33A
  8
PROFILEEDGES
 10
-75.10799480469348
 20
58.35437865262666
 30
0.0
 40
0.6715652102934981
 41
0.6715652102934981
  0
VERTEX
  5
33B
  8
PROFILEEDGES
 10
-75.14408702631712
 20
58.10383994623955
 30
0.0
 40
0.6715652102934981
 41
0.6715652102934981
  0
SEQEND
  5
48E
  8
PROFILEEDGES
  0
LINE
  5
173
  8
0
 10
-75.04245427793005
 20
59.39520645514662
 30
0.0
 11
-75.10799480469348
 21
58.35437865262666
 31
0.0
  0
LINE
  5
174
  8
0
 10
-75.14408702631712
 20
58.10383994623955
 30
0.0
 11
-75.04478635361569
 21
56.86733780659706
 31
0.0
  0
POLYLINE
  5
175
  8
PROFILEEDGES
 66
     1
 10
0.0
 20
0.0
 30
0.0
  0
VERTEX
  5
33C
  8
PROFILEEDGES
 10
-75.04478635361569
 20
56.86733780659706
 30
0.0
 40
0.6715652102934981
 41
0.6715652102934981
  0
VERTEX
  5
33D
  8
PROFILEEDGES
 10
-75.04245427793005
 20
56.81247343733242
 30
0.0
 40
0.6715652102934981
 41
0.6715652102934981
  0
SEQEND
  5
48F
  8
PROFILEEDGES
  0
POLYLINE
  5
176
  8
PROFILEEDGES
 66
     1
 10
0.0
 20
0.0
 30
0.0
  0
VERTEX
  5
33E
  8
PROFILEEDGES
 10
-75.04478635361569
 20
56.86733780659706
 30
0.0
 40
0.6715652102934981
 41
0.6715652102934981
  0
VERTEX
  5
33F
  8
PROFILEEDGES
 10
-75.10799480469348
 20
58.35437865262666
 30
0.0
 40
0.6715652102934981
 41
0.6715652102934981
  0
SEQEND
  5
490
  8
PROFILEEDGES
  0
POLYLINE
  5
177
  8
PROFILEEDGES
 66
     1
 10
0.0
 20
0.0
 30
0.0
  0
VERTEX
  5
340
  8
PROFILEEDGES
 10
-72.10933092104506
 20
51.73977180415214
 30
0.0
 40
0.6715652102934981
 41
0.6715652102934981
  0
VERTEX
  5
341
  8
PROFILEEDGES
 10
-70.86229435686268
 20
50.90037815577269
 30
0.0
 40
0.6715652102934981
 41
0.6715652102934981
  0
SEQEND
  5
491
  8
PROFILEEDGES
  0
POLYLINE
  5
178
  8
PROFILEEDGES
 66
     1
 10
0.0
 20
0.0
 30
0.0
  0
VERTEX
  5
342
  8
PROFILEEDGES
 10
-70.86229435686268
 20
50.90037815577269
 30
0.0
 40
0.6715652102934981
 41
0.6715652102934981
  0
VERTEX
  5
343
  8
PROFILEEDGES
 10
-70.63677860166709
 20
50.74858108906456
 30
0.0
 40
0.6715652102934981
 41
0.6715652102934981
  0
SEQEND
  5
492
  8
PROFILEEDGES
  0
LINE
  5
179
  8
0
 10
-71.74125428399151
 20
51.42540465767436
 30
0.0
 11
-70.86229435686268
 21
50.90037815577269
 31
0.0
  0
POLYLINE
  5
17A
  8
PROFILEEDGES
 66
     1
 10
0.0
 20
0.0
 30
0.0
  0
VERTEX
  5
344
  8
PROFILEEDGES
 10
-69.44002231488231
 20
50.25286840422305
 30
0.0
 40
0.6715652102934981
 41
0.6715652102934981
  0
VERTEX
  5
345
  8
PROFILEEDGES
 10
-69.58051863440909
 20
50.31683136929951
 30
0.0
 40
0.6715652102934981
 41
0.6715652102934981
  0
SEQEND
  5
493
  8
PROFILEEDGES
  0
LINE
  5
17B
  8
0
 10
-70.63677860166709
 20
50.74858108906456
 30
0.0
 11
-69.58051863440909
 21
50.31683136929951
 31
0.0
  0
POLYLINE
  5
17C
  8
PROFILEEDGES
 66
     1
 10
0.0
 20
0.0
 30
0.0
  0
VERTEX
  5
346
  8
PROFILEEDGES
 10
-69.58051863440909
 20
50.31683136929951
 30
0.0
 40
0.6715652102934981
 41
0.6715652102934981
  0
VERTEX
  5
347
  8
PROFILEEDGES
 10
-70.86229435686268
 20
50.90037815577269
 30
0.0
 40
0.6715652102934981
 41
0.6715652102934981
  0
SEQEND
  5
494
  8
PROFILEEDGES
  0
POLYLINE
  5
17D
  8
PROFILEEDGES
 66
     1
 10
0.0
 20
0.0
 30
0.0
  0
VERTEX
  5
348
  8
PROFILEEDGES
 10
-60.21065173775202
 20
53.25167268856515
 30
0.0
 40
0.6715652102934981
 41
0.6715652102934981
  0
VERTEX
  5
349
  8
PROFILEEDGES
 10
-60.34246948988001
 20
53.10809620854076
 30
0.0
 40
0.6715652102934981
 41
0.6715652102934981
  0
SEQEND
  5
495
  8
PROFILEEDGES
  0
LINE
  5
17E
  8
0
 10
-61.0519205476222
 20
52.26667346754462
 30
0.0
 11
-60.34246948988001
 21
53.10809620854076
 31
0.0
  0
POLYLINE
  5
17F
  8
PROFILEEDGES
 66
     1
 10
0.0
 20
0.0
 30
0.0
  0
VERTEX
  5
34A
  8
PROFILEEDGES
 10
-60.34246948988001
 20
53.10809620854076
 30
0.0
 40
0.6715652102934981
 41
0.6715652102934981
  0
VERTEX
  5
34B
  8
PROFILEEDGES
 10
-61.3440454570886
 20
52.01717522462658
 30
0.0
 40
0.6715652102934981
 41
0.6715652102934981
  0
SEQEND
  5
496
  8
PROFILEEDGES
  0
POLYLINE
  5
180
  8
PROFILEEDGES
 66
     1
 10
0.0
 20
0.0
 30
0.0
  0
VERTEX
  5
34C
  8
PROFILEEDGES
 10
-58.73571977470428
 20
59.39520645514662
 30
0.0
 40
0.6715652102934981
 41
0.6715652102934981
  0
VERTEX
  5
34D
  8
PROFILEEDGES
 10
-58.92560831074314
 20
60.1861491306521
 30
0.0
 40
0.6715652102934981
 41
0.6715652102934981
  0
SEQEND
  5
497
  8
PROFILEEDGES
  0
POLYLINE
  5
181
  8
PROFILEEDGES
 66
     1
 10
0.0
 20
0.0
 30
0.0
  0
VERTEX
  5
34E
  8
PROFILEEDGES
 10
-60.21065173775202
 20
62.95600720391389
 30
0.0
 40
0.6715652102934981
 41
0.6715652102934981
  0
VERTEX
  5
34F
  8
PROFILEEDGES
 10
-60.50842337165749
 20
63.30465299227276
 30
0.0
 40
0.6715652102934981
 41
0.6715652102934981
  0
SEQEND
  5
498
  8
PROFILEEDGES
  0
LINE
  5
182
  8
0
 10
-61.0519205476222
 20
63.94100642493447
 30
0.0
 11
-61.97788987544696
 21
64.72812583637776
 31
0.0
  0
POLYLINE
  5
183
  8
PROFILEEDGES
 66
     1
 10
0.0
 20
0.0
 30
0.0
  0
VERTEX
  5
350
  8
PROFILEEDGES
 10
-61.97788987544696
 20
64.72812583637776
 30
0.0
 40
0.6715652102934981
 41
0.6715652102934981
  0
VERTEX
  5
351
  8
PROFILEEDGES
 10
-62.03691976864287
 20
64.78227523480471
 30
0.0
 40
0.6715652102934981
 41
0.6715652102934981
  0
SEQEND
  5
499
  8
PROFILEEDGES
  0
POLYLINE
  5
184
  8
PROFILEEDGES
 66
     1
 10
0.0
 20
0.0
 30
0.0
  0
VERTEX
  5
352
  8
PROFILEEDGES
 10
-61.97788987544696
 20
64.72812583637776
 30
0.0
 40
0.6715652102934981
 41
0.6715652102934981
  0
VERTEX
  5
353
  8
PROFILEEDGES
 10
-60.80621865697724
 20
63.65332647287976
 30
0.0
 40
0.6715652102934981
 41
0.6715652102934981
  0
SEQEND
  5
49A
  8
PROFILEEDGES
  0
POLYLINE
  5
185
  8
PROFILEEDGES
 66
     1
 10
0.0
 20
0.0
 30
0.0
  0
VERTEX
  5
354
  8
PROFILEEDGES
 10
-69.44002231488231
 20
-66.58713159577691
 30
0.0
 40
0.6715652102934981
 41
0.6715652102934981
  0
VERTEX
  5
355
  8
PROFILEEDGES
 10
-68.8057166260751
 20
-66.73941491842321
 30
0.0
 40
0.6715652102934981
 41
0.6715652102934981
  0
SEQEND
  5
49B
  8
PROFILEEDGES
  0
POLYLINE
  5
186
  8
PROFILEEDGES
 66
     1
 10
0.0
 20
0.0
 30
0.0
  0
VERTEX
  5
356
  8
PROFILEEDGES
 10
-73.56752231488231
 20
-63.58832731143479
 30
0.0
 40
0.6715652102934981
 41
0.6715652102934981
  0
VERTEX
  5
357
  8
PROFILEEDGES
 10
-73.24886552498117
 20
-63.96142647562938
 30
0.0
 40
0.6715652102934981
 41
0.6715652102934981
  0
SEQEND
  5
49C
  8
PROFILEEDGES
  0
POLYLINE
  5
187
  8
PROFILEEDGES
 66
     1
 10
0.0
 20
0.0
 30
0.0
  0
VERTEX
  5
358
  8
PROFILEEDGES
 10
-75.04245427793005
 20
-60.02752656266752
 30
0.0
 40
0.6715652102934981
 41
0.6715652102934981
  0
VERTEX
  5
359
  8
PROFILEEDGES
 10
-74.83143082058592
 20
-60.9065025210265
 30
0.0
 40
0.6715652102934981
 41
0.6715652102934981
  0
SEQEND
  5
49D
  8
PROFILEEDGES
  0
POLYLINE
  5
188
  8
PROFILEEDGES
 66
     1
 10
0.0
 20
0.0
 30
0.0
  0
VERTEX
  5
35A
  8
PROFILEEDGES
 10
-71.74125428399151
 20
-52.05772476519525
 30
0.0
 40
0.6715652102934981
 41
0.6715652102934981
  0
VERTEX
  5
35B
  8
PROFILEEDGES
 10
-72.10933092104503
 20
-52.372091911673
 30
0.0
 40
0.6715652102934981
 41
0.6715652102934981
  0
SEQEND
  5
49E
  8
PROFILEEDGES
  0
POLYLINE
  5
189
  8
PROFILEEDGES
 66
     1
 10
0.0
 20
0.0
 30
0.0
  0
VERTEX
  5
35C
  8
PROFILEEDGES
 10
-61.0519205476222
 20
-52.8989935750655
 30
0.0
 40
0.6715652102934981
 41
0.6715652102934981
  0
VERTEX
  5
35D
  8
PROFILEEDGES
 10
-61.3440454570886
 20
-52.64949533214747
 30
0.0
 40
0.6715652102934981
 41
0.6715652102934981
  0
SEQEND
  5
49F
  8
PROFILEEDGES
  0
POLYLINE
  5
18A
  8
PROFILEEDGES
 66
     1
 10
0.0
 20
0.0
 30
0.0
  0
VERTEX
  5
35E
  8
PROFILEEDGES
 10
-58.73571977470428
 20
-60.02752656266754
 30
0.0
 40
0.6715652102934981
 41
0.6715652102934981
  0
VERTEX
  5
35F
  8
PROFILEEDGES
 10
-58.69698532222841
 20
-59.53535867916534
 30
0.0
 40
0.6715652102934981
 41
0.6715652102934981
  0
SEQEND
  5
4A0
  8
PROFILEEDGES
  0
POLYLINE
  5
18B
  8
PROFILEEDGES
 66
     1
 10
0.0
 20
0.0
 30
0.0
  0
VERTEX
  5
360
  8
PROFILEEDGES
 10
-59.03322478077659
 20
-61.28868442822904
 30
0.0
 40
0.6715652102934981
 41
0.6715652102934981
  0
VERTEX
  5
361
  8
PROFILEEDGES
 10
-59.0057649168625
 20
-61.15234553121323
 30
0.0
 40
0.6715652102934981
 41
0.6715652102934981
  0
SEQEND
  5
4A1
  8
PROFILEEDGES
  0
POLYLINE
  5
18C
  8
PROFILEEDGES
 66
     1
 10
0.0
 20
0.0
 30
0.0
  0
VERTEX
  5
362
  8
PROFILEEDGES
 10
-59.0057649168625
 20
-61.15234553121323
 30
0.0
 40
0.6715652102934981
 41
0.6715652102934981
  0
VERTEX
  5
363
  8
PROFILEEDGES
 10
-58.92560831074311
 20
-60.81846923817288
 30
0.0
 40
0.6715652102934981
 41
0.6715652102934981
  0
SEQEND
  5
4A2
  8
PROFILEEDGES
  0
POLYLINE
  5
18D
  8
PROFILEEDGES
 66
     1
 10
0.0
 20
0.0
 30
0.0
  0
VERTEX
  5
364
  8
PROFILEEDGES
 10
-60.21065173775202
 20
-63.58832731143479
 30
0.0
 40
0.6715652102934981
 41
0.6715652102934981
  0
VERTEX
  5
365
  8
PROFILEEDGES
 10
-59.79644015314793
 20
-62.9123954382704
 30
0.0
 40
0.6715652102934981
 41
0.6715652102934981
  0
SEQEND
  5
4A3
  8
PROFILEEDGES
  0
POLYLINE
  5
18E
  8
PROFILEEDGES
 66
     1
 10
0.0
 20
0.0
 30
0.0
  0
VERTEX
  5
366
  8
PROFILEEDGES
 10
-61.0519205476222
 20
-64.57332653245538
 30
0.0
 40
0.6715652102934981
 41
0.6715652102934981
  0
VERTEX
  5
367
  8
PROFILEEDGES
 10
-60.806218656977
 20
-64.28564658040041
 30
0.0
 40
0.6715652102934981
 41
0.6715652102934981
  0
SEQEND
  5
4A4
  8
PROFILEEDGES
  0
POLYLINE
  5
18F
  8
PROFILEEDGES
 66
     1
 10
0.0
 20
0.0
 30
0.0
  0
VERTEX
  5
368
  8
PROFILEEDGES
 10
-60.806218656977
 20
-64.28564658040041
 30
0.0
 40
0.6715652102934981
 41
0.6715652102934981
  0
VERTEX
  5
369
  8
PROFILEEDGES
 10
-60.50842337165778
 20
-63.936973099794
 30
0.0
 40
0.6715652102934981
 41
0.6715652102934981
  0
SEQEND
  5
4A5
  8
PROFILEEDGES
  0
POLYLINE
  5
190
  8
PROFILEEDGES
 66
     1
 10
0.0
 20
0.0
 30
0.0
  0
VERTEX
  5
36A
  8
PROFILEEDGES
 10
-64.33815173775194
 20
-66.58713159577691
 30
0.0
 40
0.6715652102934981
 41
0.6715652102934981
  0
VERTEX
  5
36B
  8
PROFILEEDGES
 10
-63.71898312489451
 20
-66.33066355893563
 30
0.0
 40
0.6715652102934981
 41
0.6715652102934981
  0
SEQEND
  5
4A6
  8
PROFILEEDGES
  0
POLYLINE
  5
191
  8
PROFILEEDGES
 66
     1
 10
0.0
 20
0.0
 30
0.0
  0
VERTEX
  5
36C
  8
PROFILEEDGES
 10
-74.83143082058591
 20
60.27418241350561
 30
0.0
 40
0.6715652102934981
 41
0.6715652102934981
  0
VERTEX
  5
36D
  8
PROFILEEDGES
 10
-75.04245427793005
 20
59.39520645514662
 30
0.0
 40
0.6715652102934981
 41
0.6715652102934981
  0
SEQEND
  5
4A7
  8
PROFILEEDGES
  0
POLYLINE
  5
192
  8
PROFILEEDGES
 66
     1
 10
0.0
 20
0.0
 30
0.0
  0
VERTEX
  5
36E
  8
PROFILEEDGES
 10
-72.10933092104506
 20
51.73977180415214
 30
0.0
 40
0.6715652102934981
 41
0.6715652102934981
  0
VERTEX
  5
36F
  8
PROFILEEDGES
 10
-71.74125428399151
 20
51.42540465767436
 30
0.0
 40
0.6715652102934981
 41
0.6715652102934981
  0
SEQEND
  5
4A8
  8
PROFILEEDGES
  0
POLYLINE
  5
193
  8
PROFILEEDGES
 66
     1
 10
0.0
 20
0.0
 30
0.0
  0
VERTEX
  5
370
  8
PROFILEEDGES
 10
-61.3440454570886
 20
52.01717522462658
 30
0.0
 40
0.6715652102934981
 41
0.6715652102934981
  0
VERTEX
  5
371
  8
PROFILEEDGES
 10
-61.0519205476222
 20
52.26667346754462
 30
0.0
 40
0.6715652102934981
 41
0.6715652102934981
  0
SEQEND
  5
4A9
  8
PROFILEEDGES
  0
POLYLINE
  5
194
  8
PROFILEEDGES
 66
     1
 10
0.0
 20
0.0
 30
0.0
  0
VERTEX
  5
372
  8
PROFILEEDGES
 10
-58.69698532222841
 20
58.90303857164441
 30
0.0
 40
0.6715652102934981
 41
0.6715652102934981
  0
VERTEX
  5
373
  8
PROFILEEDGES
 10
-58.73571977470428
 20
59.39520645514662
 30
0.0
 40
0.6715652102934981
 41
0.6715652102934981
  0
SEQEND
  5
4AA
  8
PROFILEEDGES
  0
POLYLINE
  5
195
  8
PROFILEEDGES
 66
     1
 10
0.0
 20
0.0
 30
0.0
  0
VERTEX
  5
374
  8
PROFILEEDGES
 10
-59.79644015314788
 20
62.28007533074938
 30
0.0
 40
0.6715652102934981
 41
0.6715652102934981
  0
VERTEX
  5
375
  8
PROFILEEDGES
 10
-60.21065173775202
 20
62.95600720391389
 30
0.0
 40
0.6715652102934981
 41
0.6715652102934981
  0
SEQEND
  5
4AB
  8
PROFILEEDGES
  0
POLYLINE
  5
196
  8
PROFILEEDGES
 66
     1
 10
0.0
 20
0.0
 30
0.0
  0
VERTEX
  5
376
  8
PROFILEEDGES
 10
-60.50842337165749
 20
63.30465299227276
 30
0.0
 40
0.6715652102934981
 41
0.6715652102934981
  0
VERTEX
  5
377
  8
PROFILEEDGES
 10
-60.80621865697724
 20
63.65332647287976
 30
0.0
 40
0.6715652102934981
 41
0.6715652102934981
  0
SEQEND
  5
4AC
  8
PROFILEEDGES
  0
POLYLINE
  5
197
  8
PROFILEEDGES
 66
     1
 10
0.0
 20
0.0
 30
0.0
  0
VERTEX
  5
378
  8
PROFILEEDGES
 10
-60.80621865697724
 20
63.65332647287976
 30
0.0
 40
0.6715652102934981
 41
0.6715652102934981
  0
VERTEX
  5
379
  8
PROFILEEDGES
 10
-61.0519205476222
 20
63.94100642493447
 30
0.0
 40
0.6715652102934981
 41
0.6715652102934981
  0
SEQEND
  5
4AD
  8
PROFILEEDGES
  0
POLYLINE
  5
198
  8
PROFILEEDGES
 66
     1
 10
0.0
 20
0.0
 30
0.0
  0
VERTEX
  5
37A
  8
PROFILEEDGES
 10
-63.71898312489442
 20
65.69834345141469
 30
0.0
 40
0.6715652102934981
 41
0.6715652102934981
  0
VERTEX
  5
37B
  8
PROFILEEDGES
 10
-64.33815173775194
 20
65.95481148825603
 30
0.0
 40
0.6715652102934981
 41
0.6715652102934981
  0
SEQEND
  5
4AE
  8
PROFILEEDGES
  0
POLYLINE
  5
199
  8
PROFILEEDGES
 66
     1
 10
0.0
 20
0.0
 30
0.0
  0
VERTEX
  5
37C
  8
PROFILEEDGES
 10
-64.33815173775194
 20
65.95481148825603
 30
0.0
 40
0.6715652102934981
 41
0.6715652102934981
  0
VERTEX
  5
37D
  8
PROFILEEDGES
 10
-64.92250438070396
 20
66.09510214564112
 30
0.0
 40
0.6715652102934981
 41
0.6715652102934981
  0
SEQEND
  5
4AF
  8
PROFILEEDGES
  0
POLYLINE
  5
19A
  8
PROFILEEDGES
 66
     1
 10
0.0
 20
0.0
 30
0.0
  0
VERTEX
  5
37E
  8
PROFILEEDGES
 10
-68.18045353522425
 20
-66.88952730537329
 30
0.0
 40
0.6715652102934981
 41
0.6715652102934981
  0
VERTEX
  5
37F
  8
PROFILEEDGES
 10
-68.8057166260751
 20
-66.73941491842321
 30
0.0
 40
0.6715652102934981
 41
0.6715652102934981
  0
SEQEND
  5
4B0
  8
PROFILEEDGES
  0
POLYLINE
  5
19B
  8
PROFILEEDGES
 66
     1
 10
0.0
 20
0.0
 30
0.0
  0
VERTEX
  5
380
  8
PROFILEEDGES
 10
-72.72625350501212
 20
-64.57332653245538
 30
0.0
 40
0.6715652102934981
 41
0.6715652102934981
  0
VERTEX
  5
381
  8
PROFILEEDGES
 10
-71.74125428399151
 20
-65.41459534232563
 30
0.0
 40
0.6715652102934981
 41
0.6715652102934981
  0
SEQEND
  5
4B1
  8
PROFILEEDGES
  0
POLYLINE
  5
19C
  8
PROFILEEDGES
 66
     1
 10
0.0
 20
0.0
 30
0.0
  0
VERTEX
  5
382
  8
PROFILEEDGES
 10
-72.72625350501212
 20
-64.57332653245538
 30
0.0
 40
0.6715652102934981
 41
0.6715652102934981
  0
VERTEX
  5
383
  8
PROFILEEDGES
 10
-73.24886552498117
 20
-63.96142647562938
 30
0.0
 40
0.6715652102934981
 41
0.6715652102934981
  0
SEQEND
  5
4B2
  8
PROFILEEDGES
  0
POLYLINE
  5
19D
  8
PROFILEEDGES
 66
     1
 10
0.0
 20
0.0
 30
0.0
  0
VERTEX
  5
384
  8
PROFILEEDGES
 10
-74.7400585683336
 20
-61.28709534232564
 30
0.0
 40
0.6715652102934981
 41
0.6715652102934981
  0
VERTEX
  5
385
  8
PROFILEEDGES
 10
-74.83143082058592
 20
-60.9065025210265
 30
0.0
 40
0.6715652102934981
 41
0.6715652102934981
  0
SEQEND
  5
4B3
  8
PROFILEEDGES
  0
POLYLINE
  5
19E
  8
PROFILEEDGES
 66
     1
 10
0.0
 20
0.0
 30
0.0
  0
VERTEX
  5
386
  8
PROFILEEDGES
 10
-74.24434588349214
 20
-54.98846847841047
 30
0.0
 40
0.6715652102934981
 41
0.6715652102934981
  0
VERTEX
  5
387
  8
PROFILEEDGES
 10
-74.7400585683336
 20
-56.18522476519524
 30
0.0
 40
0.6715652102934981
 41
0.6715652102934981
  0
SEQEND
  5
4B4
  8
PROFILEEDGES
  0
POLYLINE
  5
19F
  8
PROFILEEDGES
 66
     1
 10
0.0
 20
0.0
 30
0.0
  0
VERTEX
  5
388
  8
PROFILEEDGES
 10
-72.72625350501212
 20
-52.8989935750655
 30
0.0
 40
0.6715652102934981
 41
0.6715652102934981
  0
VERTEX
  5
389
  8
PROFILEEDGES
 10
-72.10933092104503
 20
-52.372091911673
 30
0.0
 40
0.6715652102934981
 41
0.6715652102934981
  0
SEQEND
  5
4B5
  8
PROFILEEDGES
  0
POLYLINE
  5
1A0
  8
PROFILEEDGES
 66
     1
 10
0.0
 20
0.0
 30
0.0
  0
VERTEX
  5
38A
  8
PROFILEEDGES
 10
-73.56752231488231
 20
-53.88399279608607
 30
0.0
 40
0.6715652102934981
 41
0.6715652102934981
  0
VERTEX
  5
38B
  8
PROFILEEDGES
 10
-74.24434588349214
 20
-54.98846847841047
 30
0.0
 40
0.6715652102934981
 41
0.6715652102934981
  0
SEQEND
  5
4B6
  8
PROFILEEDGES
  0
POLYLINE
  5
1A1
  8
PROFILEEDGES
 66
     1
 10
0.0
 20
0.0
 30
0.0
  0
VERTEX
  5
38C
  8
PROFILEEDGES
 10
-73.56752231488231
 20
-53.88399279608607
 30
0.0
 40
0.6715652102934981
 41
0.6715652102934981
  0
VERTEX
  5
38D
  8
PROFILEEDGES
 10
-72.72625350501212
 20
-52.8989935750655
 30
0.0
 40
0.6715652102934981
 41
0.6715652102934981
  0
SEQEND
  5
4B7
  8
PROFILEEDGES
  0
POLYLINE
  5
1A2
  8
PROFILEEDGES
 66
     1
 10
0.0
 20
0.0
 30
0.0
  0
VERTEX
  5
38E
  8
PROFILEEDGES
 10
-68.18045353522425
 20
-50.58279280214757
 30
0.0
 40
0.6715652102934981
 41
0.6715652102934981
  0
VERTEX
  5
38F
  8
PROFILEEDGES
 10
-69.44002231488231
 20
-50.88518851174396
 30
0.0
 40
0.6715652102934981
 41
0.6715652102934981
  0
SEQEND
  5
4B8
  8
PROFILEEDGES
  0
POLYLINE
  5
1A3
  8
PROFILEEDGES
 66
     1
 10
0.0
 20
0.0
 30
0.0
  0
VERTEX
  5
390
  8
PROFILEEDGES
 10
-64.33815173775194
 20
-50.88518851174396
 30
0.0
 40
0.6715652102934981
 41
0.6715652102934981
  0
VERTEX
  5
391
  8
PROFILEEDGES
 10
-65.59772051741008
 20
-50.58279280214757
 30
0.0
 40
0.6715652102934981
 41
0.6715652102934981
  0
SEQEND
  5
4B9
  8
PROFILEEDGES
  0
POLYLINE
  5
1A4
  8
PROFILEEDGES
 66
     1
 10
0.0
 20
0.0
 30
0.0
  0
VERTEX
  5
392
  8
PROFILEEDGES
 10
-64.33815173775194
 20
-50.88518851174396
 30
0.0
 40
0.6715652102934981
 41
0.6715652102934981
  0
VERTEX
  5
393
  8
PROFILEEDGES
 10
-63.14139545096715
 20
-51.38090119658546
 30
0.0
 40
0.6715652102934981
 41
0.6715652102934981
  0
SEQEND
  5
4BA
  8
PROFILEEDGES
  0
POLYLINE
  5
1A5
  8
PROFILEEDGES
 66
     1
 10
0.0
 20
0.0
 30
0.0
  0
VERTEX
  5
394
  8
PROFILEEDGES
 10
-62.03691976864274
 20
-52.05772476519525
 30
0.0
 40
0.6715652102934981
 41
0.6715652102934981
  0
VERTEX
  5
395
  8
PROFILEEDGES
 10
-63.14139545096715
 20
-51.38090119658546
 30
0.0
 40
0.6715652102934981
 41
0.6715652102934981
  0
SEQEND
  5
4BB
  8
PROFILEEDGES
  0
POLYLINE
  5
1A6
  8
PROFILEEDGES
 66
     1
 10
0.0
 20
0.0
 30
0.0
  0
VERTEX
  5
396
  8
PROFILEEDGES
 10
-62.03691976864274
 20
-52.05772476519525
 30
0.0
 40
0.6715652102934981
 41
0.6715652102934981
  0
VERTEX
  5
397
  8
PROFILEEDGES
 10
-61.3440454570886
 20
-52.64949533214747
 30
0.0
 40
0.6715652102934981
 41
0.6715652102934981
  0
SEQEND
  5
4BC
  8
PROFILEEDGES
  0
POLYLINE
  5
1A7
  8
PROFILEEDGES
 66
     1
 10
0.0
 20
0.0
 30
0.0
  0
VERTEX
  5
398
  8
PROFILEEDGES
 10
-59.53382816914218
 20
-54.98846847841047
 30
0.0
 40
0.6715652102934981
 41
0.6715652102934981
  0
VERTEX
  5
399
  8
PROFILEEDGES
 10
-60.21065173775202
 20
-53.88399279608607
 30
0.0
 40
0.6715652102934981
 41
0.6715652102934981
  0
SEQEND
  5
4BD
  8
PROFILEEDGES
  0
POLYLINE
  5
1A8
  8
PROFILEEDGES
 66
     1
 10
0.0
 20
0.0
 30
0.0
  0
VERTEX
  5
39A
  8
PROFILEEDGES
 10
-58.6340870263172
 20
-58.73616005376043
 30
0.0
 40
0.6715652102934981
 41
0.6715652102934981
  0
VERTEX
  5
39B
  8
PROFILEEDGES
 10
-58.73571977470411
 20
-57.44479354485334
 30
0.0
 40
0.6715652102934981
 41
0.6715652102934981
  0
SEQEND
  5
4BE
  8
PROFILEEDGES
  0
POLYLINE
  5
1A9
  8
PROFILEEDGES
 66
     1
 10
0.0
 20
0.0
 30
0.0
  0
VERTEX
  5
39C
  8
PROFILEEDGES
 10
-58.6340870263172
 20
-58.73616005376043
 30
0.0
 40
0.6715652102934981
 41
0.6715652102934981
  0
VERTEX
  5
39D
  8
PROFILEEDGES
 10
-58.69698532222841
 20
-59.53535867916534
 30
0.0
 40
0.6715652102934981
 41
0.6715652102934981
  0
SEQEND
  5
4BF
  8
PROFILEEDGES
  0
POLYLINE
  5
1AA
  8
PROFILEEDGES
 66
     1
 10
0.0
 20
0.0
 30
0.0
  0
VERTEX
  5
39E
  8
PROFILEEDGES
 10
-59.53382816914218
 20
-62.48385162911313
 30
0.0
 40
0.6715652102934981
 41
0.6715652102934981
  0
VERTEX
  5
39F
  8
PROFILEEDGES
 10
-59.79644015314793
 20
-62.9123954382704
 30
0.0
 40
0.6715652102934981
 41
0.6715652102934981
  0
SEQEND
  5
4C0
  8
PROFILEEDGES
  0
POLYLINE
  5
1AB
  8
PROFILEEDGES
 66
     1
 10
0.0
 20
0.0
 30
0.0
  0
VERTEX
  5
3A0
  8
PROFILEEDGES
 10
-63.14139545096715
 20
-66.09141891093539
 30
0.0
 40
0.6715652102934981
 41
0.6715652102934981
  0
VERTEX
  5
3A1
  8
PROFILEEDGES
 10
-63.71898312489451
 20
-66.33066355893563
 30
0.0
 40
0.6715652102934981
 41
0.6715652102934981
  0
SEQEND
  5
4C1
  8
PROFILEEDGES
  0
POLYLINE
  5
1AC
  8
PROFILEEDGES
 66
     1
 10
0.0
 20
0.0
 30
0.0
  0
VERTEX
  5
3A2
  8
PROFILEEDGES
 10
-65.59772051741008
 20
-66.88952730537329
 30
0.0
 40
0.6715652102934981
 41
0.6715652102934981
  0
VERTEX
  5
3A3
  8
PROFILEEDGES
 10
-64.92250438070377
 20
-66.72742225316198
 30
0.0
 40
0.6715652102934981
 41
0.6715652102934981
  0
SEQEND
  5
4C2
  8
PROFILEEDGES
  0
POLYLINE
  5
1AD
  8
PROFILEEDGES
 66
     1
 10
0.0
 20
0.0
 30
0.0
  0
VERTEX
  5
3A4
  8
PROFILEEDGES
 10
-68.18045353522425
 20
66.2572071978524
 30
0.0
 40
0.6715652102934981
 41
0.6715652102934981
  0
VERTEX
  5
3A5
  8
PROFILEEDGES
 10
-68.80571662607495
 20
66.10709481090235
 30
0.0
 40
0.6715652102934981
 41
0.6715652102934981
  0
SEQEND
  5
4C3
  8
PROFILEEDGES
  0
POLYLINE
  5
1AE
  8
PROFILEEDGES
 66
     1
 10
0.0
 20
0.0
 30
0.0
  0
VERTEX
  5
3A6
  8
PROFILEEDGES
 10
-72.72625350501212
 20
63.94100642493447
 30
0.0
 40
0.6715652102934981
 41
0.6715652102934981
  0
VERTEX
  5
3A7
  8
PROFILEEDGES
 10
-73.24886552498113
 20
63.32910636810853
 30
0.0
 40
0.6715652102934981
 41
0.6715652102934981
  0
SEQEND
  5
4C4
  8
PROFILEEDGES
  0
POLYLINE
  5
1AF
  8
PROFILEEDGES
 66
     1
 10
0.0
 20
0.0
 30
0.0
  0
VERTEX
  5
3A8
  8
PROFILEEDGES
 10
-72.72625350501212
 20
63.94100642493447
 30
0.0
 40
0.6715652102934981
 41
0.6715652102934981
  0
VERTEX
  5
3A9
  8
PROFILEEDGES
 10
-71.74125428399151
 20
64.78227523480471
 30
0.0
 40
0.6715652102934981
 41
0.6715652102934981
  0
SEQEND
  5
4C5
  8
PROFILEEDGES
  0
POLYLINE
  5
1B0
  8
PROFILEEDGES
 66
     1
 10
0.0
 20
0.0
 30
0.0
  0
VERTEX
  5
3AA
  8
PROFILEEDGES
 10
-74.7400585683336
 20
60.65477523480473
 30
0.0
 40
0.6715652102934981
 41
0.6715652102934981
  0
VERTEX
  5
3AB
  8
PROFILEEDGES
 10
-74.83143082058591
 20
60.27418241350561
 30
0.0
 40
0.6715652102934981
 41
0.6715652102934981
  0
SEQEND
  5
4C6
  8
PROFILEEDGES
  0
POLYLINE
  5
1B1
  8
PROFILEEDGES
 66
     1
 10
0.0
 20
0.0
 30
0.0
  0
VERTEX
  5
3AC
  8
PROFILEEDGES
 10
-74.7400585683336
 20
55.55290465767436
 30
0.0
 40
0.6715652102934981
 41
0.6715652102934981
  0
VERTEX
  5
3AD
  8
PROFILEEDGES
 10
-74.24434588349214
 20
54.35614837088956
 30
0.0
 40
0.6715652102934981
 41
0.6715652102934981
  0
SEQEND
  5
4C7
  8
PROFILEEDGES
  0
POLYLINE
  5
1B2
  8
PROFILEEDGES
 66
     1
 10
0.0
 20
0.0
 30
0.0
  0
VERTEX
  5
3AE
  8
PROFILEEDGES
 10
-72.72625350501212
 20
52.26667346754462
 30
0.0
 40
0.6715652102934981
 41
0.6715652102934981
  0
VERTEX
  5
3AF
  8
PROFILEEDGES
 10
-72.10933092104506
 20
51.73977180415214
 30
0.0
 40
0.6715652102934981
 41
0.6715652102934981
  0
SEQEND
  5
4C8
  8
PROFILEEDGES
  0
POLYLINE
  5
1B3
  8
PROFILEEDGES
 66
     1
 10
0.0
 20
0.0
 30
0.0
  0
VERTEX
  5
3B0
  8
PROFILEEDGES
 10
-73.56752231488231
 20
53.25167268856515
 30
0.0
 40
0.6715652102934981
 41
0.6715652102934981
  0
VERTEX
  5
3B1
  8
PROFILEEDGES
 10
-72.72625350501212
 20
52.26667346754462
 30
0.0
 40
0.6715652102934981
 41
0.6715652102934981
  0
SEQEND
  5
4C9
  8
PROFILEEDGES
  0
POLYLINE
  5
1B4
  8
PROFILEEDGES
 66
     1
 10
0.0
 20
0.0
 30
0.0
  0
VERTEX
  5
3B2
  8
PROFILEEDGES
 10
-73.56752231488231
 20
53.25167268856515
 30
0.0
 40
0.6715652102934981
 41
0.6715652102934981
  0
VERTEX
  5
3B3
  8
PROFILEEDGES
 10
-74.24434588349214
 20
54.35614837088956
 30
0.0
 40
0.6715652102934981
 41
0.6715652102934981
  0
SEQEND
  5
4CA
  8
PROFILEEDGES
  0
POLYLINE
  5
1B5
  8
PROFILEEDGES
 66
     1
 10
0.0
 20
0.0
 30
0.0
  0
VERTEX
  5
3B4
  8
PROFILEEDGES
 10
-68.18045353522425
 20
49.95047269462668
 30
0.0
 40
0.6715652102934981
 41
0.6715652102934981
  0
VERTEX
  5
3B5
  8
PROFILEEDGES
 10
-69.44002231488231
 20
50.25286840422305
 30
0.0
 40
0.6715652102934981
 41
0.6715652102934981
  0
SEQEND
  5
4CB
  8
PROFILEEDGES
  0
POLYLINE
  5
1B6
  8
PROFILEEDGES
 66
     1
 10
0.0
 20
0.0
 30
0.0
  0
VERTEX
  5
3B6
  8
PROFILEEDGES
 10
-64.33815173775194
 20
50.25286840422305
 30
0.0
 40
0.6715652102934981
 41
0.6715652102934981
  0
VERTEX
  5
3B7
  8
PROFILEEDGES
 10
-63.14139545096715
 20
50.74858108906456
 30
0.0
 40
0.6715652102934981
 41
0.6715652102934981
  0
SEQEND
  5
4CC
  8
PROFILEEDGES
  0
POLYLINE
  5
1B7
  8
PROFILEEDGES
 66
     1
 10
0.0
 20
0.0
 30
0.0
  0
VERTEX
  5
3B8
  8
PROFILEEDGES
 10
-64.33815173775194
 20
50.25286840422305
 30
0.0
 40
0.6715652102934981
 41
0.6715652102934981
  0
VERTEX
  5
3B9
  8
PROFILEEDGES
 10
-65.59772051741008
 20
49.95047269462668
 30
0.0
 40
0.6715652102934981
 41
0.6715652102934981
  0
SEQEND
  5
4CD
  8
PROFILEEDGES
  0
POLYLINE
  5
1B8
  8
PROFILEEDGES
 66
     1
 10
0.0
 20
0.0
 30
0.0
  0
VERTEX
  5
3BA
  8
PROFILEEDGES
 10
-62.03691976864274
 20
51.42540465767436
 30
0.0
 40
0.6715652102934981
 41
0.6715652102934981
  0
VERTEX
  5
3BB
  8
PROFILEEDGES
 10
-61.3440454570886
 20
52.01717522462658
 30
0.0
 40
0.6715652102934981
 41
0.6715652102934981
  0
SEQEND
  5
4CE
  8
PROFILEEDGES
  0
POLYLINE
  5
1B9
  8
PROFILEEDGES
 66
     1
 10
0.0
 20
0.0
 30
0.0
  0
VERTEX
  5
3BC
  8
PROFILEEDGES
 10
-62.03691976864274
 20
51.42540465767436
 30
0.0
 40
0.6715652102934981
 41
0.6715652102934981
  0
VERTEX
  5
3BD
  8
PROFILEEDGES
 10
-63.14139545096715
 20
50.74858108906456
 30
0.0
 40
0.6715652102934981
 41
0.6715652102934981
  0
SEQEND
  5
4CF
  8
PROFILEEDGES
  0
POLYLINE
  5
1BA
  8
PROFILEEDGES
 66
     1
 10
0.0
 20
0.0
 30
0.0
  0
VERTEX
  5
3BE
  8
PROFILEEDGES
 10
-59.53382816914218
 20
54.35614837088956
 30
0.0
 40
0.6715652102934981
 41
0.6715652102934981
  0
VERTEX
  5
3BF
  8
PROFILEEDGES
 10
-60.21065173775202
 20
53.25167268856515
 30
0.0
 40
0.6715652102934981
 41
0.6715652102934981
  0
SEQEND
  5
4D0
  8
PROFILEEDGES
  0
POLYLINE
  5
1BB
  8
PROFILEEDGES
 66
     1
 10
0.0
 20
0.0
 30
0.0
  0
VERTEX
  5
3C0
  8
PROFILEEDGES
 10
-59.53382816914218
 20
54.35614837088956
 30
0.0
 40
0.6715652102934981
 41
0.6715652102934981
  0
VERTEX
  5
3C1
  8
PROFILEEDGES
 10
-59.03811548430065
 20
55.55290465767436
 30
0.0
 40
0.6715652102934981
 41
0.6715652102934981
  0
SEQEND
  5
4D1
  8
PROFILEEDGES
  0
POLYLINE
  5
1BC
  8
PROFILEEDGES
 66
     1
 10
0.0
 20
0.0
 30
0.0
  0
VERTEX
  5
3C2
  8
PROFILEEDGES
 10
-58.6340870263172
 20
58.10383994623955
 30
0.0
 40
0.6715652102934981
 41
0.6715652102934981
  0
VERTEX
  5
3C3
  8
PROFILEEDGES
 10
-58.69698532222841
 20
58.90303857164441
 30
0.0
 40
0.6715652102934981
 41
0.6715652102934981
  0
SEQEND
  5
4D2
  8
PROFILEEDGES
  0
POLYLINE
  5
1BD
  8
PROFILEEDGES
 66
     1
 10
0.0
 20
0.0
 30
0.0
  0
VERTEX
  5
3C4
  8
PROFILEEDGES
 10
-58.6340870263172
 20
58.10383994623955
 30
0.0
 40
0.6715652102934981
 41
0.6715652102934981
  0
VERTEX
  5
3C5
  8
PROFILEEDGES
 10
-58.73571977470428
 20
56.81247343733242
 30
0.0
 40
0.6715652102934981
 41
0.6715652102934981
  0
SEQEND
  5
4D3
  8
PROFILEEDGES
  0
POLYLINE
  5
1BE
  8
PROFILEEDGES
 66
     1
 10
0.0
 20
0.0
 30
0.0
  0
VERTEX
  5
3C6
  8
PROFILEEDGES
 10
-59.53382816914218
 20
61.85153152158949
 30
0.0
 40
0.6715652102934981
 41
0.6715652102934981
  0
VERTEX
  5
3C7
  8
PROFILEEDGES
 10
-59.79644015314788
 20
62.28007533074938
 30
0.0
 40
0.6715652102934981
 41
0.6715652102934981
  0
SEQEND
  5
4D4
  8
PROFILEEDGES
  0
POLYLINE
  5
1BF
  8
PROFILEEDGES
 66
     1
 10
0.0
 20
0.0
 30
0.0
  0
VERTEX
  5
3C8
  8
PROFILEEDGES
 10
-58.92560831074314
 20
60.1861491306521
 30
0.0
 40
0.6715652102934981
 41
0.6715652102934981
  0
VERTEX
  5
3C9
  8
PROFILEEDGES
 10
-59.03811548430065
 20
60.65477523480473
 30
0.0
 40
0.6715652102934981
 41
0.6715652102934981
  0
SEQEND
  5
4D5
  8
PROFILEEDGES
  0
POLYLINE
  5
1C0
  8
PROFILEEDGES
 66
     1
 10
0.0
 20
0.0
 30
0.0
  0
VERTEX
  5
3CA
  8
PROFILEEDGES
 10
-63.14139545096715
 20
65.45909880341449
 30
0.0
 40
0.6715652102934981
 41
0.6715652102934981
  0
VERTEX
  5
3CB
  8
PROFILEEDGES
 10
-63.71898312489442
 20
65.69834345141469
 30
0.0
 40
0.6715652102934981
 41
0.6715652102934981
  0
SEQEND
  5
4D6
  8
PROFILEEDGES
  0
POLYLINE
  5
1C1
  8
PROFILEEDGES
 66
     1
 10
0.0
 20
0.0
 30
0.0
  0
VERTEX
  5
3CC
  8
PROFILEEDGES
 10
-65.59772051741008
 20
66.2572071978524
 30
0.0
 40
0.6715652102934981
 41
0.6715652102934981
  0
VERTEX
  5
3CD
  8
PROFILEEDGES
 10
-64.92250438070396
 20
66.09510214564112
 30
0.0
 40
0.6715652102934981
 41
0.6715652102934981
  0
SEQEND
  5
4D7
  8
PROFILEEDGES
  0
POLYLINE
  5
1C2
  8
PROFILEEDGES
 66
     1
 10
0.0
 20
0.0
 30
0.0
  0
VERTEX
  5
3CE
  8
PROFILEEDGES
 10
128.2009129736889
 20
32.06883994623956
 30
0.0
 40
0.6715652102934981
 41
0.6715652102934981
  0
VERTEX
  5
3CF
  8
PROFILEEDGES
 10
128.200912973683
 20
101.2838399462395
 30
0.0
 40
0.6715652102934981
 41
0.6715652102934981
  0
SEQEND
  5
4D8
  8
PROFILEEDGES
  0
POLYLINE
  5
1C3
  8
PROFILEEDGES
 66
     1
 10
0.0
 20
0.0
 30
0.0
  0
VERTEX
  5
3D0
  8
PROFILEEDGES
 10
128.2009129736889
 20
-32.70116005376046
 30
0.0
 40
0.6715652102934981
 41
0.6715652102934981
  0
VERTEX
  5
3D1
  8
PROFILEEDGES
 10
128.2009129736889
 20
32.06883994623956
 30
0.0
 40
0.6715652102934981
 41
0.6715652102934981
  0
SEQEND
  5
4D9
  8
PROFILEEDGES
  0
POLYLINE
  5
1C4
  8
PROFILEEDGES
 66
     1
 10
0.0
 20
0.0
 30
0.0
  0
VERTEX
  5
3D2
  8
PROFILEEDGES
 10
128.2009129736889
 20
-32.70116005376046
 30
0.0
 40
0.6715652102934981
 41
0.6715652102934981
  0
VERTEX
  5
3D3
  8
PROFILEEDGES
 10
128.200912973683
 20
-101.9161600537604
 30
0.0
 40
0.6715652102934981
 41
0.6715652102934981
  0
SEQEND
  5
4DA
  8
PROFILEEDGES
  0
POLYLINE
  5
1C5
  8
PROFILEEDGES
 66
     1
 10
0.0
 20
0.0
 30
0.0
  0
VERTEX
  5
3D4
  8
PROFILEEDGES
 10
90.10091297368295
 20
93.66383994623955
 30
0.0
 40
0.6715652102934981
 41
0.6715652102934981
  0
VERTEX
  5
3D5
  8
PROFILEEDGES
 10
90.10091297368295
 20
-94.29616005376046
 30
0.0
 40
0.6715652102934981
 41
0.6715652102934981
  0
SEQEND
  5
4DB
  8
PROFILEEDGES
  0
POLYLINE
  5
1C6
  8
PROFILEEDGES
 66
     1
 10
0.0
 20
0.0
 30
0.0
  0
VERTEX
  5
3D6
  8
PROFILEEDGES
 10
148.520912973683
 20
32.06883994623956
 30
0.0
 40
0.6715652102934981
 41
0.6715652102934981
  0
VERTEX
  5
3D7
  8
PROFILEEDGES
 10
148.520912973683
 20
-32.70116005376046
 30
0.0
 40
0.6715652102934981
 41
0.6715652102934981
  0
SEQEND
  5
4DC
  8
PROFILEEDGES
  0
ENDSEC
  0
EOF
