  0
SECTION
  2
HEADER
  9
$ACADVER
  1
AC1014
  9
$ACADMAINTVER
 70
     9
  9
$DWGCODEPAGE
  3
ANSI_1252
  9
$INSBASE
 10
0.0
 20
0.0
 30
0.0
  9
$EXTMIN
 10
1.000000E+20
 20
1.000000E+20
 30
1.000000E+20
  9
$EXTMAX
 10
-1.000000E+20
 20
-1.000000E+20
 30
-1.000000E+20
  9
$LIMMIN
 10
0.0
 20
0.0
  9
$LIMMAX
 10
12.0
 20
9.0
  9
$ORTHOMODE
 70
     0
  9
$REGENMODE
 70
     1
  9
$FILLMODE
 70
     1
  9
$QTEXTMODE
 70
     0
  9
$MIRRTEXT
 70
     1
  9
$DRAGMODE
 70
     2
  9
$LTSCALE
 40
1.0
  9
$OSMODE
 70
    37
  9
$ATTMODE
 70
     1
  9
$TEXTSIZE
 40
0.2
  9
$TRACEWID
 40
0.05
  9
$TEXTSTYLE
  7
STANDARD
  9
$CLAYER
  8
0
  9
$CELTYPE
  6
BYLAYER
  9
$CECOLOR
 62
   256
  9
$CELTSCALE
 40
1.0
  9
$DELOBJ
 70
     1
  9
$DISPSILH
 70
     0
  9
$DIMSCALE
 40
1.0
  9
$DIMASZ
 40
0.18
  9
$DIMEXO
 40
0.0625
  9
$DIMDLI
 40
0.38
  9
$DIMRND
 40
0.0
  9
$DIMDLE
 40
0.0
  9
$DIMEXE
 40
0.18
  9
$DIMTP
 40
0.0
  9
$DIMTM
 40
0.0
  9
$DIMTXT
 40
0.18
  9
$DIMCEN
 40
0.09
  9
$DIMTSZ
 40
0.0
  9
$DIMTOL
 70
     0
  9
$DIMLIM
 70
     0
  9
$DIMTIH
 70
     1
  9
$DIMTOH
 70
     1
  9
$DIMSE1
 70
     0
  9
$DIMSE2
 70
     0
  9
$DIMTAD
 70
     0
  9
$DIMZIN
 70
     0
  9
$DIMBLK
  1

  9
$DIMASO
 70
     1
  9
$DIMSHO
 70
     1
  9
$DIMPOST
  1

  9
$DIMAPOST
  1

  9
$DIMALT
 70
     0
  9
$DIMALTD
 70
     2
  9
$DIMALTF
 40
25.4
  9
$DIMLFAC
 40
1.0
  9
$DIMTOFL
 70
     0
  9
$DIMTVP
 40
0.0
  9
$DIMTIX
 70
     0
  9
$DIMSOXD
 70
     0
  9
$DIMSAH
 70
     0
  9
$DIMBLK1
  1

  9
$DIMBLK2
  1

  9
$DIMSTYLE
  2
STANDARD
  9
$DIMCLRD
 70
     0
  9
$DIMCLRE
 70
     0
  9
$DIMCLRT
 70
     0
  9
$DIMTFAC
 40
1.0
  9
$DIMGAP
 40
0.09
  9
$DIMJUST
 70
     0
  9
$DIMSD1
 70
     0
  9
$DIMSD2
 70
     0
  9
$DIMTOLJ
 70
     1
  9
$DIMTZIN
 70
     0
  9
$DIMALTZ
 70
     0
  9
$DIMALTTZ
 70
     0
  9
$DIMFIT
 70
     5
  9
$DIMUPT
 70
     0
  9
$DIMUNIT
 70
     2
  9
$DIMDEC
 70
     4
  9
$DIMTDEC
 70
     4
  9
$DIMALTU
 70
     2
  9
$DIMALTTD
 70
     2
  9
$DIMTXSTY
  7
STANDARD
  9
$DIMAUNIT
 70
     0
  9
$LUNITS
 70
     2
  9
$LUPREC
 70
     4
  9
$SKETCHINC
 40
0.1
  9
$FILLETRAD
 40
0.5
  9
$AUNITS
 70
     0
  9
$AUPREC
 70
     0
  9
$MENU
  1
.
  9
$ELEVATION
 40
0.0
  9
$PELEVATION
 40
0.0
  9
$THICKNESS
 40
0.0
  9
$LIMCHECK
 70
     0
  9
$CHAMFERA
 40
0.0
  9
$CHAMFERB
 40
0.0
  9
$CHAMFERC
 40
0.0
  9
$CHAMFERD
 40
0.0
  9
$SKPOLY
 70
     0
  9
$TDCREATE
 40
2459597.412363333
  9
$TDUPDATE
 40
2459597.420888241
  9
$TDINDWG
 40
0.0000000116
  9
$TDUSRTIMER
 40
0.0000000116
  9
$USRTIMER
 70
     1
  9
$ANGBASE
 50
0.0
  9
$ANGDIR
 70
     0
  9
$PDMODE
 70
     0
  9
$PDSIZE
 40
0.0
  9
$PLINEWID
 40
0.0
  9
$COORDS
 70
     1
  9
$SPLFRAME
 70
     0
  9
$SPLINETYPE
 70
     6
  9
$SPLINESEGS
 70
     8
  9
$ATTDIA
 70
     0
  9
$ATTREQ
 70
     1
  9
$HANDLING
 70
     1
  9
$HANDSEED
  5
879
  9
$SURFTAB1
 70
     6
  9
$SURFTAB2
 70
     6
  9
$SURFTYPE
 70
     6
  9
$SURFU
 70
     6
  9
$SURFV
 70
     6
  9
$UCSNAME
  2

  9
$UCSORG
 10
0.0
 20
0.0
 30
0.0
  9
$UCSXDIR
 10
1.0
 20
0.0
 30
0.0
  9
$UCSYDIR
 10
0.0
 20
1.0
 30
0.0
  9
$PUCSNAME
  2

  9
$PUCSORG
 10
0.0
 20
0.0
 30
0.0
  9
$PUCSXDIR
 10
1.0
 20
0.0
 30
0.0
  9
$PUCSYDIR
 10
0.0
 20
1.0
 30
0.0
  9
$USERI1
 70
     0
  9
$USERI2
 70
     0
  9
$USERI3
 70
     0
  9
$USERI4
 70
     0
  9
$USERI5
 70
     0
  9
$USERR1
 40
0.0
  9
$USERR2
 40
0.0
  9
$USERR3
 40
0.0
  9
$USERR4
 40
0.0
  9
$USERR5
 40
0.0
  9
$WORLDVIEW
 70
     1
  9
$SHADEDGE
 70
     3
  9
$SHADEDIF
 70
    70
  9
$TILEMODE
 70
     1
  9
$MAXACTVP
 70
    64
  9
$PINSBASE
 10
0.0
 20
0.0
 30
0.0
  9
$PLIMCHECK
 70
     0
  9
$PEXTMIN
 10
1.000000E+20
 20
1.000000E+20
 30
1.000000E+20
  9
$PEXTMAX
 10
-1.000000E+20
 20
-1.000000E+20
 30
-1.000000E+20
  9
$PLIMMIN
 10
0.0
 20
0.0
  9
$PLIMMAX
 10
12.0
 20
9.0
  9
$UNITMODE
 70
     0
  9
$VISRETAIN
 70
     1
  9
$PLINEGEN
 70
     0
  9
$PSLTSCALE
 70
     0
  9
$TREEDEPTH
 70
  3020
  9
$PICKSTYLE
 70
     1
  9
$CMLSTYLE
  2
STANDARD
  9
$CMLJUST
 70
     0
  9
$CMLSCALE
 40
1.0
  9
$PROXYGRAPHICS
 70
     1
  9
$MEASUREMENT
 70
     1
  0
ENDSEC
  0
SECTION
  2
CLASSES
  0
CLASS
  1
ACDBDICTIONARYWDFLT
  2
AcDbDictionaryWithDefault
  3
ObjectDBX Classes
 90
        0
280
     0
281
     0
  0
CLASS
  1
VISUALSTYLE
  2
AcDbVisualStyle
  3
ObjectDBX Classes
 90
     4095
280
     0
281
     0
  0
CLASS
  1
MATERIAL
  2
AcDbMaterial
  3
ObjectDBX Classes
 90
     1153
280
     0
281
     0
  0
CLASS
  1
SCALE
  2
AcDbScale
  3
ObjectDBX Classes
 90
     1153
280
     0
281
     0
  0
CLASS
  1
TABLESTYLE
  2
AcDbTableStyle
  3
ObjectDBX Classes
 90
     4095
280
     0
281
     0
  0
CLASS
  1
MLEADERSTYLE
  2
AcDbMLeaderStyle
  3
ACDB_MLEADERSTYLE_CLASS
 90
     4095
280
     0
281
     0
  0
CLASS
  1
SUN
  2
AcDbSun
  3
SCENEOE
 90
     1153
280
     0
281
     0
  0
CLASS
  1
DICTIONARYVAR
  2
AcDbDictionaryVar
  3
ObjectDBX Classes
 90
        0
280
     0
281
     0
  0
CLASS
  1
XRECORD
  2
AcDbXrecord
  3
ObjectDBX Classes
 90
        0
280
     0
281
     0
  0
CLASS
  1
LWPOLYLINE
  2
AcDbPolyline
  3
ObjectDBX Classes
 90
        0
280
     0
281
     1
  0
CLASS
  1
HATCH
  2
AcDbHatch
  3
ObjectDBX Classes
 90
        0
280
     0
281
     1
  0
CLASS
  1
ACDBPLACEHOLDER
  2
AcDbPlaceHolder
  3
ObjectDBX Classes
 90
        0
280
     0
281
     0
  0
CLASS
  1
LAYOUT
  2
AcDbLayout
  3
ObjectDBX Classes
 90
        0
280
     0
281
     0
  0
CLASS
  1
CSACDOCUMENTOPTIONS
  2
CDocDataContainer
  3
"DERU003_CSAPP"
 90
     4095
280
     0
281
     0
  0
CLASS
  1
SORTENTSTABLE
  2
AcDbSortentsTable
  3
ObjectDBX Classes
 90
        0
280
     0
281
     0
  0
ENDSEC
  0
SECTION
  2
TABLES
  0
TABLE
  2
VPORT
  5
8
102
{ACAD_XDICTIONARY
360
871
102
}
330
0
100
AcDbSymbolTable
 70
     1
  0
VPORT
  5
29
330
8
100
AcDbSymbolTableRecord
100
AcDbViewportTableRecord
  2
*ACTIVE
 70
     0
 10
0.0
 20
0.0
 11
1.0
 21
1.0
 12
0.818828
 22
-0.123317
 13
0.0
 23
0.0
 14
0.5
 24
0.5
 15
0.5
 25
0.5
 16
0.0
 26
0.0
 36
1.0
 17
0.0
 27
0.0
 37
-1000.0
 40
3.926427
 41
2.020101
 42
50.0
 43
41.866464
 44
63.697512
 50
0.0
 51
0.0
 71
    16
 72
   100
 73
     1
 74
     3
 75
     0
 76
     0
 77
     0
 78
     0
  0
ENDTAB
  0
TABLE
  2
LTYPE
  5
5
330
0
100
AcDbSymbolTable
 70
     1
  0
LTYPE
  5
14
330
5
100
AcDbSymbolTableRecord
100
AcDbLinetypeTableRecord
  2
BYBLOCK
 70
     0
  3

 72
    65
 73
     0
 40
0.0
  0
LTYPE
  5
15
330
5
100
AcDbSymbolTableRecord
100
AcDbLinetypeTableRecord
  2
BYLAYER
 70
     0
  3

 72
    65
 73
     0
 40
0.0
  0
LTYPE
  5
16
330
5
100
AcDbSymbolTableRecord
100
AcDbLinetypeTableRecord
  2
CONTINUOUS
 70
     0
  3
Solid line
 72
    65
 73
     0
 40
0.0
  0
ENDTAB
  0
TABLE
  2
LAYER
  5
2
330
0
100
AcDbSymbolTable
 70
     3
  0
LAYER
  5
10
330
2
100
AcDbSymbolTableRecord
100
AcDbLayerTableRecord
  2
0
 70
     0
 62
     7
  6
CONTINUOUS
  0
LAYER
  5
6E
330
2
100
AcDbSymbolTableRecord
100
AcDbLayerTableRecord
  2
PROFILEEDGES
 70
     0
 62
     7
  6
CONTINUOUS
  0
LAYER
  5
6F
330
2
100
AcDbSymbolTableRecord
100
AcDbLayerTableRecord
  2
SECTIONCUTEDGES
 70
     0
 62
     7
  6
CONTINUOUS
  0
ENDTAB
  0
TABLE
  2
STYLE
  5
3
330
0
100
AcDbSymbolTable
 70
     1
  0
STYLE
  5
11
330
3
100
AcDbSymbolTableRecord
100
AcDbTextStyleTableRecord
  2
STANDARD
 70
     0
 40
0.0
 41
1.0
 50
0.0
 71
     0
 42
0.2
  3
txt
  4

  0
ENDTAB
  0
TABLE
  2
VIEW
  5
6
330
0
100
AcDbSymbolTable
 70
     0
  0
ENDTAB
  0
TABLE
  2
UCS
  5
7
330
0
100
AcDbSymbolTable
 70
     0
  0
ENDTAB
  0
TABLE
  2
APPID
  5
9
330
0
100
AcDbSymbolTable
 70
     7
  0
APPID
  5
12
330
9
100
AcDbSymbolTableRecord
100
AcDbRegAppTableRecord
  2
ACAD
 70
     0
  0
APPID
  5
838
330
9
100
AcDbSymbolTableRecord
100
AcDbRegAppTableRecord
  2
ACAD_MLEADERVER
 70
     0
  0
APPID
  5
83F
330
9
100
AcDbSymbolTableRecord
100
AcDbRegAppTableRecord
  2
MCS_DIM1
 70
     0
  0
APPID
  5
840
330
9
100
AcDbSymbolTableRecord
100
AcDbRegAppTableRecord
  2
MCSXDATA5
 70
     0
  0
APPID
  5
843
330
9
100
AcDbSymbolTableRecord
100
AcDbRegAppTableRecord
  2
MCS_DOCUMENT_ID
 70
     0
  0
APPID
  5
84A
330
9
100
AcDbSymbolTableRecord
100
AcDbRegAppTableRecord
  2
MC_VERSION_DATA
 70
     0
  0
APPID
  5
850
330
9
100
AcDbSymbolTableRecord
100
AcDbRegAppTableRecord
  2
MCS_PARAMS_DATA
 70
     0
  0
ENDTAB
  0
TABLE
  2
DIMSTYLE
  5
A
330
0
100
AcDbSymbolTable
 70
     1
  0
DIMSTYLE
105
27
330
A
100
AcDbSymbolTableRecord
100
AcDbDimStyleTableRecord
  2
STANDARD
 70
     0
  3

  4

  5

  6

  7

 40
1.0
 41
0.18
 42
0.0625
 43
0.38
 44
0.18
 45
0.0
 46
0.0
 47
0.0
 48
0.0
140
0.18
141
0.09
142
0.0
143
25.4
144
1.0
145
0.0
146
1.0
147
0.09
 71
     0
 72
     0
 73
     1
 74
     1
 75
     0
 76
     0
 77
     0
 78
     0
170
     0
171
     2
172
     0
173
     0
174
     0
175
     0
176
     0
177
     0
178
     0
270
     2
271
     4
272
     4
273
     2
274
     2
340
11
275
     0
280
     0
281
     0
282
     0
283
     1
284
     0
285
     0
286
     0
287
     3
288
     0
  0
ENDTAB
  0
TABLE
  2
BLOCK_RECORD
  5
1
330
0
100
AcDbSymbolTable
 70
     0
  0
BLOCK_RECORD
  5
1F
102
{ACAD_XDICTIONARY
360
847
102
}
330
1
100
AcDbSymbolTableRecord
100
AcDbBlockTableRecord
  2
*MODEL_SPACE
  0
BLOCK_RECORD
  5
1B
330
1
100
AcDbSymbolTableRecord
100
AcDbBlockTableRecord
  2
*PAPER_SPACE
  0
ENDTAB
  0
ENDSEC
  0
SECTION
  2
BLOCKS
  0
BLOCK
  5
20
330
1F
100
AcDbEntity
  8
0
100
AcDbBlockBegin
  2
*MODEL_SPACE
 70
     0
 10
0.0
 20
0.0
 30
0.0
  3
*MODEL_SPACE
  1

  0
ENDBLK
  5
21
330
1F
100
AcDbEntity
  8
0
100
AcDbBlockEnd
  0
BLOCK
  5
1C
330
1B
100
AcDbEntity
 67
     1
  8
0
100
AcDbBlockBegin
  2
*PAPER_SPACE
 70
     0
 10
0.0
 20
0.0
 30
0.0
  3
*PAPER_SPACE
  1

  0
ENDBLK
  5
1D
330
1B
100
AcDbEntity
 67
     1
  8
0
100
AcDbBlockEnd
  0
ENDSEC
  0
SECTION
  2
ENTITIES
  0
LINE
  5
70
330
1F
100
AcDbEntity
  8
0
100
AcDbLine
 10
1.091914
 20
-0.782131
 30
0.0
 11
1.094914
 21
-0.781501
 31
0.0
  0
LINE
  5
71
330
1F
100
AcDbEntity
  8
0
100
AcDbLine
 10
1.092319
 20
-0.716377
 30
0.0
 11
1.099159
 21
-0.712074
 31
0.0
  0
LINE
  5
72
330
1F
100
AcDbEntity
  8
0
100
AcDbLine
 10
1.091911
 20
-0.520677
 30
0.0
 11
1.094902
 21
-0.52001
 31
0.0
  0
LINE
  5
73
330
1F
100
AcDbEntity
  8
0
100
AcDbLine
 10
1.091897
 20
-0.455213
 30
0.0
 11
1.094895
 21
-0.454637
 31
0.0
  0
LINE
  5
74
330
1F
100
AcDbEntity
  8
0
100
AcDbLine
 10
1.09118
 20
-0.730386
 30
0.0
 11
1.099203
 21
-0.734689
 31
0.0
  0
LINE
  5
75
330
1F
100
AcDbEntity
  8
0
100
AcDbLine
 10
1.091414
 20
-0.697777
 30
0.0
 11
1.099151
 21
-0.70208
 31
0.0
  0
LINE
  5
76
330
1F
100
AcDbEntity
  8
0
100
AcDbLine
 10
1.385051
 20
-0.681922
 30
0.0
 11
1.387593
 21
-0.681496
 31
0.0
  0
LINE
  5
77
330
1F
100
AcDbEntity
  8
0
100
AcDbLine
 10
1.091171
 20
-0.436206
 30
0.0
 11
1.099211
 21
-0.440509
 31
0.0
  0
LINE
  5
78
330
1F
100
AcDbEntity
  8
0
100
AcDbLine
 10
1.38931
 20
-0.514408
 30
0.0
 11
1.389418
 21
-0.505459
 31
0.0
  0
LINE
  5
79
330
1F
100
AcDbEntity
  8
0
100
AcDbLine
 10
1.223258
 20
1.008662
 30
0.0
 11
1.23
 21
1.0375
 31
0.0
  0
LINE
  5
7A
330
1F
100
AcDbEntity
  8
0
100
AcDbLine
 10
-1.100953
 20
-0.9655
 30
0.0
 11
-1.173699
 21
-0.9655
 31
0.0
  0
LINE
  5
7B
330
1F
100
AcDbEntity
  8
0
100
AcDbLine
 10
-1.100953
 20
-0.9695
 30
0.0
 11
-1.100953
 21
-0.9655
 31
0.0
  0
LINE
  5
7C
330
1F
100
AcDbEntity
  8
0
100
AcDbLine
 10
-1.179878
 20
-0.96721
 30
0.0
 11
-1.17871
 21
-0.9695
 31
0.0
  0
LINE
  5
7D
330
1F
100
AcDbEntity
  8
0
100
AcDbLine
 10
-1.316538
 20
-0.931476
 30
0.0
 11
-1.316538
 21
-0.9675
 31
0.0
  0
LINE
  5
7E
330
1F
100
AcDbEntity
  8
0
100
AcDbLine
 10
-1.312538
 20
-0.9675
 30
0.0
 11
-1.312538
 21
-0.931791
 31
0.0
  0
LINE
  5
7F
330
1F
100
AcDbEntity
  8
0
100
AcDbLine
 10
-1.316538
 20
-0.9675
 30
0.0
 11
-1.312538
 21
-0.9675
 31
0.0
  0
LINE
  5
80
330
1F
100
AcDbEntity
  8
0
100
AcDbLine
 10
-1.389023
 20
-0.91687
 30
0.0
 11
-1.426876
 21
-0.916838
 31
0.0
  0
LINE
  5
81
330
1F
100
AcDbEntity
  8
0
100
AcDbLine
 10
-1.426876
 20
-0.916838
 30
0.0
 11
-1.426876
 21
-0.907527
 31
0.0
  0
LINE
  5
82
330
1F
100
AcDbEntity
  8
0
100
AcDbLine
 10
-1.426876
 20
-0.9675
 30
0.0
 11
-1.426876
 21
-0.920838
 31
0.0
  0
LINE
  5
83
330
1F
100
AcDbEntity
  8
0
100
AcDbLine
 10
-1.430876
 20
-0.9675
 30
0.0
 11
-1.426876
 21
-0.9675
 31
0.0
  0
LINE
  5
84
330
1F
100
AcDbEntity
  8
0
100
AcDbLine
 10
-1.376451
 20
-0.919888
 30
0.0
 11
-1.379014
 21
-0.920501
 31
0.0
  0
LINE
  5
85
330
1F
100
AcDbEntity
  8
0
100
AcDbLine
 10
-1.3838
 20
-0.920874
 30
0.0
 11
-1.379014
 21
-0.920501
 31
0.0
  0
LINE
  5
86
330
1F
100
AcDbEntity
  8
0
100
AcDbLine
 10
-1.238
 20
-0.9675
 30
0.0
 11
-1.238
 21
-0.937343
 31
0.0
  0
LINE
  5
87
330
1F
100
AcDbEntity
  8
0
100
AcDbLine
 10
-1.242
 20
-0.9675
 30
0.0
 11
-1.238
 21
-0.9675
 31
0.0
  0
LINE
  5
88
330
1F
100
AcDbEntity
  8
0
100
AcDbLine
 10
-1.242
 20
-0.937343
 30
0.0
 11
-1.242
 21
-0.9675
 31
0.0
  0
LINE
  5
89
330
1F
100
AcDbEntity
  8
0
100
AcDbLine
 10
-1.066467
 20
-0.9695
 30
0.0
 11
-0.999399
 21
-0.9695
 31
0.0
  0
LINE
  5
8A
330
1F
100
AcDbEntity
  8
0
100
AcDbLine
 10
-1.069295
 20
-0.966672
 30
0.0
 11
-1.066467
 21
-0.9695
 31
0.0
  0
LINE
  5
8B
330
1F
100
AcDbEntity
  8
0
100
AcDbLine
 10
-1.069295
 20
-0.911664
 30
0.0
 11
-1.069295
 21
-0.966672
 31
0.0
  0
LINE
  5
8C
330
1F
100
AcDbEntity
  8
0
100
AcDbLine
 10
-1.065295
 20
-0.9655
 30
0.0
 11
-1.065295
 21
-0.910704
 31
0.0
  0
LINE
  5
8D
330
1F
100
AcDbEntity
  8
0
100
AcDbLine
 10
-0.999399
 20
-0.9655
 30
0.0
 11
-1.065295
 21
-0.9655
 31
0.0
  0
LINE
  5
8E
330
1F
100
AcDbEntity
  8
0
100
AcDbLine
 10
-0.999399
 20
-0.9695
 30
0.0
 11
-0.999399
 21
-0.9655
 31
0.0
  0
LINE
  5
8F
330
1F
100
AcDbEntity
  8
0
100
AcDbLine
 10
-1.94
 20
-1.0375
 30
0.0
 11
-0.54
 21
-1.0375
 31
0.0
  0
LINE
  5
90
330
1F
100
AcDbEntity
  8
0
100
AcDbLine
 10
-0.54
 20
-1.0375
 30
0.0
 11
-0.54
 21
0.3625
 31
0.0
  0
LINE
  5
91
330
1F
100
AcDbEntity
  8
0
100
AcDbLine
 10
-0.54
 20
0.3625
 30
0.0
 11
-1.94
 21
0.3625
 31
0.0
  0
LINE
  5
92
330
1F
100
AcDbEntity
  8
0
100
AcDbLine
 10
-1.797915
 20
0.132991
 30
0.0
 11
-1.801819
 21
0.142414
 31
0.0
  0
LINE
  5
93
330
1F
100
AcDbEntity
  8
0
100
AcDbLine
 10
-1.801819
 20
0.142414
 30
0.0
 11
-1.8042
 21
0.152332
 31
0.0
  0
LINE
  5
94
330
1F
100
AcDbEntity
  8
0
100
AcDbLine
 10
-1.8042
 20
0.152332
 30
0.0
 11
-1.805
 21
0.1625
 31
0.0
  0
LINE
  5
95
330
1F
100
AcDbEntity
  8
0
100
AcDbLine
 10
-1.805
 20
0.1625
 30
0.0
 11
-1.8042
 21
0.172668
 31
0.0
  0
LINE
  5
96
330
1F
100
AcDbEntity
  8
0
100
AcDbLine
 10
-1.8042
 20
0.172668
 30
0.0
 11
-1.801819
 21
0.182586
 31
0.0
  0
LINE
  5
97
330
1F
100
AcDbEntity
  8
0
100
AcDbLine
 10
-1.801819
 20
0.182586
 30
0.0
 11
-1.797915
 21
0.192009
 31
0.0
  0
LINE
  5
98
330
1F
100
AcDbEntity
  8
0
100
AcDbLine
 10
-1.797915
 20
0.192009
 30
0.0
 11
-1.792586
 21
0.200706
 31
0.0
  0
LINE
  5
99
330
1F
100
AcDbEntity
  8
0
100
AcDbLine
 10
-1.792586
 20
0.200706
 30
0.0
 11
-1.785962
 21
0.208462
 31
0.0
  0
LINE
  5
9A
330
1F
100
AcDbEntity
  8
0
100
AcDbLine
 10
-1.785962
 20
0.208462
 30
0.0
 11
-1.778206
 21
0.215086
 31
0.0
  0
LINE
  5
9B
330
1F
100
AcDbEntity
  8
0
100
AcDbLine
 10
-1.778206
 20
0.215086
 30
0.0
 11
-1.769509
 21
0.220415
 31
0.0
  0
LINE
  5
9C
330
1F
100
AcDbEntity
  8
0
100
AcDbLine
 10
-1.769509
 20
0.220415
 30
0.0
 11
-1.760086
 21
0.224319
 31
0.0
  0
LINE
  5
9D
330
1F
100
AcDbEntity
  8
0
100
AcDbLine
 10
-1.760086
 20
0.224319
 30
0.0
 11
-1.750168
 21
0.2267
 31
0.0
  0
LINE
  5
9E
330
1F
100
AcDbEntity
  8
0
100
AcDbLine
 10
-1.750168
 20
0.2267
 30
0.0
 11
-1.74
 21
0.2275
 31
0.0
  0
LINE
  5
9F
330
1F
100
AcDbEntity
  8
0
100
AcDbLine
 10
-1.74
 20
0.2275
 30
0.0
 11
-1.729832
 21
0.2267
 31
0.0
  0
LINE
  5
A0
330
1F
100
AcDbEntity
  8
0
100
AcDbLine
 10
-1.729832
 20
0.2267
 30
0.0
 11
-1.719914
 21
0.224319
 31
0.0
  0
LINE
  5
A1
330
1F
100
AcDbEntity
  8
0
100
AcDbLine
 10
-1.719914
 20
0.224319
 30
0.0
 11
-1.710491
 21
0.220415
 31
0.0
  0
LINE
  5
A2
330
1F
100
AcDbEntity
  8
0
100
AcDbLine
 10
-1.710491
 20
0.220415
 30
0.0
 11
-1.701794
 21
0.215086
 31
0.0
  0
LINE
  5
A3
330
1F
100
AcDbEntity
  8
0
100
AcDbLine
 10
-1.701794
 20
0.215086
 30
0.0
 11
-1.694038
 21
0.208462
 31
0.0
  0
LINE
  5
A4
330
1F
100
AcDbEntity
  8
0
100
AcDbLine
 10
-1.694038
 20
0.208462
 30
0.0
 11
-1.687414
 21
0.200706
 31
0.0
  0
LINE
  5
A5
330
1F
100
AcDbEntity
  8
0
100
AcDbLine
 10
-1.687414
 20
0.200706
 30
0.0
 11
-1.682085
 21
0.192009
 31
0.0
  0
LINE
  5
A6
330
1F
100
AcDbEntity
  8
0
100
AcDbLine
 10
-1.682085
 20
0.192009
 30
0.0
 11
-1.678181
 21
0.182586
 31
0.0
  0
LINE
  5
A7
330
1F
100
AcDbEntity
  8
0
100
AcDbLine
 10
-1.678181
 20
0.182586
 30
0.0
 11
-1.6758
 21
0.172668
 31
0.0
  0
LINE
  5
A8
330
1F
100
AcDbEntity
  8
0
100
AcDbLine
 10
-1.6758
 20
0.172668
 30
0.0
 11
-1.675
 21
0.1625
 31
0.0
  0
LINE
  5
A9
330
1F
100
AcDbEntity
  8
0
100
AcDbLine
 10
-1.675
 20
0.1625
 30
0.0
 11
-1.6758
 21
0.152332
 31
0.0
  0
LINE
  5
AA
330
1F
100
AcDbEntity
  8
0
100
AcDbLine
 10
-1.6758
 20
0.152332
 30
0.0
 11
-1.678181
 21
0.142414
 31
0.0
  0
LINE
  5
AB
330
1F
100
AcDbEntity
  8
0
100
AcDbLine
 10
-1.678181
 20
0.142414
 30
0.0
 11
-1.682085
 21
0.132991
 31
0.0
  0
LINE
  5
AC
330
1F
100
AcDbEntity
  8
0
100
AcDbLine
 10
-1.682085
 20
0.132991
 30
0.0
 11
-1.687414
 21
0.124294
 31
0.0
  0
LINE
  5
AD
330
1F
100
AcDbEntity
  8
0
100
AcDbLine
 10
-1.687414
 20
0.124294
 30
0.0
 11
-1.694038
 21
0.116538
 31
0.0
  0
LINE
  5
AE
330
1F
100
AcDbEntity
  8
0
100
AcDbLine
 10
-1.694038
 20
0.116538
 30
0.0
 11
-1.701794
 21
0.109914
 31
0.0
  0
LINE
  5
AF
330
1F
100
AcDbEntity
  8
0
100
AcDbLine
 10
-1.701794
 20
0.109914
 30
0.0
 11
-1.710491
 21
0.104585
 31
0.0
  0
LINE
  5
B0
330
1F
100
AcDbEntity
  8
0
100
AcDbLine
 10
-1.710491
 20
0.104585
 30
0.0
 11
-1.719914
 21
0.100681
 31
0.0
  0
LINE
  5
B1
330
1F
100
AcDbEntity
  8
0
100
AcDbLine
 10
-1.719914
 20
0.100681
 30
0.0
 11
-1.729832
 21
0.0983
 31
0.0
  0
LINE
  5
B2
330
1F
100
AcDbEntity
  8
0
100
AcDbLine
 10
-1.729832
 20
0.0983
 30
0.0
 11
-1.74
 21
0.0975
 31
0.0
  0
LINE
  5
B3
330
1F
100
AcDbEntity
  8
0
100
AcDbLine
 10
-1.792586
 20
-0.799294
 30
0.0
 11
-1.785962
 21
-0.791538
 31
0.0
  0
LINE
  5
B4
330
1F
100
AcDbEntity
  8
0
100
AcDbLine
 10
-1.785962
 20
-0.791538
 30
0.0
 11
-1.778206
 21
-0.784914
 31
0.0
  0
LINE
  5
B5
330
1F
100
AcDbEntity
  8
0
100
AcDbLine
 10
-1.778206
 20
-0.784914
 30
0.0
 11
-1.769509
 21
-0.779585
 31
0.0
  0
LINE
  5
B6
330
1F
100
AcDbEntity
  8
0
100
AcDbLine
 10
-1.769509
 20
-0.779585
 30
0.0
 11
-1.760086
 21
-0.775681
 31
0.0
  0
LINE
  5
B7
330
1F
100
AcDbEntity
  8
0
100
AcDbLine
 10
-1.760086
 20
-0.775681
 30
0.0
 11
-1.750168
 21
-0.7733
 31
0.0
  0
LINE
  5
B8
330
1F
100
AcDbEntity
  8
0
100
AcDbLine
 10
-1.750168
 20
-0.7733
 30
0.0
 11
-1.74
 21
-0.7725
 31
0.0
  0
LINE
  5
B9
330
1F
100
AcDbEntity
  8
0
100
AcDbLine
 10
-1.74
 20
-0.7725
 30
0.0
 11
-1.729832
 21
-0.7733
 31
0.0
  0
LINE
  5
BA
330
1F
100
AcDbEntity
  8
0
100
AcDbLine
 10
-1.729832
 20
-0.7733
 30
0.0
 11
-1.719914
 21
-0.775681
 31
0.0
  0
LINE
  5
BB
330
1F
100
AcDbEntity
  8
0
100
AcDbLine
 10
-1.719914
 20
-0.775681
 30
0.0
 11
-1.710491
 21
-0.779585
 31
0.0
  0
LINE
  5
BC
330
1F
100
AcDbEntity
  8
0
100
AcDbLine
 10
-1.710491
 20
-0.779585
 30
0.0
 11
-1.701794
 21
-0.784914
 31
0.0
  0
LINE
  5
BD
330
1F
100
AcDbEntity
  8
0
100
AcDbLine
 10
-1.701794
 20
-0.784914
 30
0.0
 11
-1.694038
 21
-0.791538
 31
0.0
  0
LINE
  5
BE
330
1F
100
AcDbEntity
  8
0
100
AcDbLine
 10
-1.694038
 20
-0.791538
 30
0.0
 11
-1.687414
 21
-0.799294
 31
0.0
  0
LINE
  5
BF
330
1F
100
AcDbEntity
  8
0
100
AcDbLine
 10
-0.778206
 20
-0.784914
 30
0.0
 11
-0.769509
 21
-0.779585
 31
0.0
  0
LINE
  5
C0
330
1F
100
AcDbEntity
  8
0
100
AcDbLine
 10
-0.769509
 20
-0.779585
 30
0.0
 11
-0.760086
 21
-0.775681
 31
0.0
  0
LINE
  5
C1
330
1F
100
AcDbEntity
  8
0
100
AcDbLine
 10
-0.760086
 20
-0.775681
 30
0.0
 11
-0.750168
 21
-0.7733
 31
0.0
  0
LINE
  5
C2
330
1F
100
AcDbEntity
  8
0
100
AcDbLine
 10
-0.750168
 20
-0.7733
 30
0.0
 11
-0.74
 21
-0.7725
 31
0.0
  0
LINE
  5
C3
330
1F
100
AcDbEntity
  8
0
100
AcDbLine
 10
-0.74
 20
0.0975
 30
0.0
 11
-0.750168
 21
0.0983
 31
0.0
  0
LINE
  5
C4
330
1F
100
AcDbEntity
  8
0
100
AcDbLine
 10
-0.750168
 20
0.0983
 30
0.0
 11
-0.760086
 21
0.100681
 31
0.0
  0
LINE
  5
C5
330
1F
100
AcDbEntity
  8
0
100
AcDbLine
 10
-0.760086
 20
0.100681
 30
0.0
 11
-0.769509
 21
0.104585
 31
0.0
  0
LINE
  5
C6
330
1F
100
AcDbEntity
  8
0
100
AcDbLine
 10
-0.769509
 20
0.104585
 30
0.0
 11
-0.778206
 21
0.109914
 31
0.0
  0
LINE
  5
C7
330
1F
100
AcDbEntity
  8
0
100
AcDbLine
 10
-0.778206
 20
0.109914
 30
0.0
 11
-0.785962
 21
0.116538
 31
0.0
  0
LINE
  5
C8
330
1F
100
AcDbEntity
  8
0
100
AcDbLine
 10
-0.785962
 20
0.116538
 30
0.0
 11
-0.792586
 21
0.124294
 31
0.0
  0
LINE
  5
C9
330
1F
100
AcDbEntity
  8
0
100
AcDbLine
 10
-0.792586
 20
0.124294
 30
0.0
 11
-0.797915
 21
0.132991
 31
0.0
  0
LINE
  5
CA
330
1F
100
AcDbEntity
  8
0
100
AcDbLine
 10
-0.797915
 20
0.132991
 30
0.0
 11
-0.801819
 21
0.142414
 31
0.0
  0
LINE
  5
CB
330
1F
100
AcDbEntity
  8
0
100
AcDbLine
 10
-0.801819
 20
0.142414
 30
0.0
 11
-0.8042
 21
0.152332
 31
0.0
  0
LINE
  5
CC
330
1F
100
AcDbEntity
  8
0
100
AcDbLine
 10
-0.8042
 20
0.152332
 30
0.0
 11
-0.805
 21
0.1625
 31
0.0
  0
LINE
  5
CD
330
1F
100
AcDbEntity
  8
0
100
AcDbLine
 10
-0.805
 20
0.1625
 30
0.0
 11
-0.8042
 21
0.172668
 31
0.0
  0
LINE
  5
CE
330
1F
100
AcDbEntity
  8
0
100
AcDbLine
 10
-0.8042
 20
0.172668
 30
0.0
 11
-0.801819
 21
0.182586
 31
0.0
  0
LINE
  5
CF
330
1F
100
AcDbEntity
  8
0
100
AcDbLine
 10
-0.801819
 20
0.182586
 30
0.0
 11
-0.797915
 21
0.192009
 31
0.0
  0
LINE
  5
D0
330
1F
100
AcDbEntity
  8
0
100
AcDbLine
 10
-0.797915
 20
0.192009
 30
0.0
 11
-0.792586
 21
0.200706
 31
0.0
  0
LINE
  5
D1
330
1F
100
AcDbEntity
  8
0
100
AcDbLine
 10
-0.792586
 20
0.200706
 30
0.0
 11
-0.785962
 21
0.208462
 31
0.0
  0
LINE
  5
D2
330
1F
100
AcDbEntity
  8
0
100
AcDbLine
 10
-0.785962
 20
0.208462
 30
0.0
 11
-0.778206
 21
0.215086
 31
0.0
  0
LINE
  5
D3
330
1F
100
AcDbEntity
  8
0
100
AcDbLine
 10
-0.778206
 20
0.215086
 30
0.0
 11
-0.769509
 21
0.220415
 31
0.0
  0
LINE
  5
D4
330
1F
100
AcDbEntity
  8
0
100
AcDbLine
 10
-0.769509
 20
0.220415
 30
0.0
 11
-0.760086
 21
0.224319
 31
0.0
  0
LINE
  5
D5
330
1F
100
AcDbEntity
  8
0
100
AcDbLine
 10
-0.760086
 20
0.224319
 30
0.0
 11
-0.750168
 21
0.2267
 31
0.0
  0
LINE
  5
D6
330
1F
100
AcDbEntity
  8
0
100
AcDbLine
 10
-0.750168
 20
0.2267
 30
0.0
 11
-0.74
 21
0.2275
 31
0.0
  0
LINE
  5
D7
330
1F
100
AcDbEntity
  8
0
100
AcDbLine
 10
-0.74
 20
0.2275
 30
0.0
 11
-0.729832
 21
0.2267
 31
0.0
  0
LINE
  5
D8
330
1F
100
AcDbEntity
  8
0
100
AcDbLine
 10
-0.729832
 20
0.2267
 30
0.0
 11
-0.719914
 21
0.224319
 31
0.0
  0
LINE
  5
D9
330
1F
100
AcDbEntity
  8
0
100
AcDbLine
 10
-0.719914
 20
0.224319
 30
0.0
 11
-0.710491
 21
0.220415
 31
0.0
  0
LINE
  5
DA
330
1F
100
AcDbEntity
  8
0
100
AcDbLine
 10
-0.710491
 20
0.220415
 30
0.0
 11
-0.701794
 21
0.215086
 31
0.0
  0
LINE
  5
DB
330
1F
100
AcDbEntity
  8
0
100
AcDbLine
 10
-0.701794
 20
0.215086
 30
0.0
 11
-0.694038
 21
0.208462
 31
0.0
  0
LINE
  5
DC
330
1F
100
AcDbEntity
  8
0
100
AcDbLine
 10
-0.694038
 20
0.208462
 30
0.0
 11
-0.687414
 21
0.200706
 31
0.0
  0
LINE
  5
DD
330
1F
100
AcDbEntity
  8
0
100
AcDbLine
 10
-0.687414
 20
0.200706
 30
0.0
 11
-0.682085
 21
0.192009
 31
0.0
  0
LINE
  5
DE
330
1F
100
AcDbEntity
  8
0
100
AcDbLine
 10
-0.682085
 20
0.192009
 30
0.0
 11
-0.678181
 21
0.182586
 31
0.0
  0
LINE
  5
DF
330
1F
100
AcDbEntity
  8
0
100
AcDbLine
 10
-0.678181
 20
0.182586
 30
0.0
 11
-0.6758
 21
0.172668
 31
0.0
  0
LINE
  5
E0
330
1F
100
AcDbEntity
  8
0
100
AcDbLine
 10
-0.6758
 20
0.172668
 30
0.0
 11
-0.675
 21
0.1625
 31
0.0
  0
LINE
  5
E1
330
1F
100
AcDbEntity
  8
0
100
AcDbLine
 10
-0.675
 20
0.1625
 30
0.0
 11
-0.6758
 21
0.152332
 31
0.0
  0
LINE
  5
E2
330
1F
100
AcDbEntity
  8
0
100
AcDbLine
 10
-0.6758
 20
0.152332
 30
0.0
 11
-0.678181
 21
0.142414
 31
0.0
  0
LINE
  5
E3
330
1F
100
AcDbEntity
  8
0
100
AcDbLine
 10
-0.678181
 20
0.142414
 30
0.0
 11
-0.682085
 21
0.132991
 31
0.0
  0
LINE
  5
E4
330
1F
100
AcDbEntity
  8
0
100
AcDbLine
 10
-0.682085
 20
0.132991
 30
0.0
 11
-0.687414
 21
0.124294
 31
0.0
  0
LINE
  5
E5
330
1F
100
AcDbEntity
  8
0
100
AcDbLine
 10
-0.687414
 20
0.124294
 30
0.0
 11
-0.694038
 21
0.116538
 31
0.0
  0
LINE
  5
E6
330
1F
100
AcDbEntity
  8
0
100
AcDbLine
 10
-0.694038
 20
0.116538
 30
0.0
 11
-0.701794
 21
0.109914
 31
0.0
  0
LINE
  5
E7
330
1F
100
AcDbEntity
  8
0
100
AcDbLine
 10
-0.701794
 20
0.109914
 30
0.0
 11
-0.710491
 21
0.104585
 31
0.0
  0
LINE
  5
E8
330
1F
100
AcDbEntity
  8
0
100
AcDbLine
 10
-0.710491
 20
0.104585
 30
0.0
 11
-0.719914
 21
0.100681
 31
0.0
  0
LINE
  5
E9
330
1F
100
AcDbEntity
  8
0
100
AcDbLine
 10
-0.719914
 20
0.100681
 30
0.0
 11
-0.729832
 21
0.0983
 31
0.0
  0
LINE
  5
EA
330
1F
100
AcDbEntity
  8
0
100
AcDbLine
 10
-0.729832
 20
-0.7733
 30
0.0
 11
-0.719914
 21
-0.775681
 31
0.0
  0
LINE
  5
EB
330
1F
100
AcDbEntity
  8
0
100
AcDbLine
 10
-0.719914
 20
-0.775681
 30
0.0
 11
-0.710491
 21
-0.779585
 31
0.0
  0
LINE
  5
EC
330
1F
100
AcDbEntity
  8
0
100
AcDbLine
 10
-0.710491
 20
-0.779585
 30
0.0
 11
-0.701794
 21
-0.784914
 31
0.0
  0
LINE
  5
ED
330
1F
100
AcDbEntity
  8
0
100
AcDbLine
 10
-0.701794
 20
-0.784914
 30
0.0
 11
-0.694038
 21
-0.791538
 31
0.0
  0
LINE
  5
EE
330
1F
100
AcDbEntity
  8
0
100
AcDbLine
 10
-0.694038
 20
-0.791538
 30
0.0
 11
-0.687414
 21
-0.799294
 31
0.0
  0
LINE
  5
EF
330
1F
100
AcDbEntity
  8
0
100
AcDbLine
 10
-0.687414
 20
-0.799294
 30
0.0
 11
-0.682085
 21
-0.807991
 31
0.0
  0
LINE
  5
F0
330
1F
100
AcDbEntity
  8
0
100
AcDbLine
 10
-0.682085
 20
-0.807991
 30
0.0
 11
-0.678181
 21
-0.817414
 31
0.0
  0
LINE
  5
F1
330
1F
100
AcDbEntity
  8
0
100
AcDbLine
 10
-0.678181
 20
-0.817414
 30
0.0
 11
-0.6758
 21
-0.827332
 31
0.0
  0
LINE
  5
F2
330
1F
100
AcDbEntity
  8
0
100
AcDbLine
 10
-0.6758
 20
-0.827332
 30
0.0
 11
-0.675
 21
-0.8375
 31
0.0
  0
LINE
  5
F3
330
1F
100
AcDbEntity
  8
0
100
AcDbLine
 10
-0.675
 20
-0.8375
 30
0.0
 11
-0.6758
 21
-0.847668
 31
0.0
  0
LINE
  5
F4
330
1F
100
AcDbEntity
  8
0
100
AcDbLine
 10
-0.6758
 20
-0.847668
 30
0.0
 11
-0.678181
 21
-0.857586
 31
0.0
  0
LINE
  5
F5
330
1F
100
AcDbEntity
  8
0
100
AcDbLine
 10
-0.678181
 20
-0.857586
 30
0.0
 11
-0.682085
 21
-0.867009
 31
0.0
  0
LINE
  5
F6
330
1F
100
AcDbEntity
  8
0
100
AcDbLine
 10
-0.682085
 20
-0.867009
 30
0.0
 11
-0.687414
 21
-0.875706
 31
0.0
  0
LINE
  5
F7
330
1F
100
AcDbEntity
  8
0
100
AcDbLine
 10
-0.687414
 20
-0.875706
 30
0.0
 11
-0.694038
 21
-0.883462
 31
0.0
  0
LINE
  5
F8
330
1F
100
AcDbEntity
  8
0
100
AcDbLine
 10
-0.694038
 20
-0.883462
 30
0.0
 11
-0.701794
 21
-0.890086
 31
0.0
  0
LINE
  5
F9
330
1F
100
AcDbEntity
  8
0
100
AcDbLine
 10
-0.701794
 20
-0.890086
 30
0.0
 11
-0.710491
 21
-0.895415
 31
0.0
  0
LINE
  5
FA
330
1F
100
AcDbEntity
  8
0
100
AcDbLine
 10
-0.710491
 20
-0.895415
 30
0.0
 11
-0.719914
 21
-0.899319
 31
0.0
  0
LINE
  5
FB
330
1F
100
AcDbEntity
  8
0
100
AcDbLine
 10
-0.719914
 20
-0.899319
 30
0.0
 11
-0.729832
 21
-0.9017
 31
0.0
  0
LINE
  5
FC
330
1F
100
AcDbEntity
  8
0
100
AcDbLine
 10
-0.729832
 20
-0.9017
 30
0.0
 11
-0.74
 21
-0.9025
 31
0.0
  0
LINE
  5
FD
330
1F
100
AcDbEntity
  8
0
100
AcDbLine
 10
-0.74
 20
-0.9025
 30
0.0
 11
-0.750168
 21
-0.9017
 31
0.0
  0
LINE
  5
FE
330
1F
100
AcDbEntity
  8
0
100
AcDbLine
 10
-0.750168
 20
-0.9017
 30
0.0
 11
-0.760086
 21
-0.899319
 31
0.0
  0
LINE
  5
FF
330
1F
100
AcDbEntity
  8
0
100
AcDbLine
 10
-0.760086
 20
-0.899319
 30
0.0
 11
-0.769509
 21
-0.895415
 31
0.0
  0
LINE
  5
100
330
1F
100
AcDbEntity
  8
0
100
AcDbLine
 10
-0.769509
 20
-0.895415
 30
0.0
 11
-0.778206
 21
-0.890086
 31
0.0
  0
LINE
  5
101
330
1F
100
AcDbEntity
  8
0
100
AcDbLine
 10
-0.778206
 20
-0.890086
 30
0.0
 11
-0.785962
 21
-0.883462
 31
0.0
  0
LINE
  5
102
330
1F
100
AcDbEntity
  8
0
100
AcDbLine
 10
-0.785962
 20
-0.883462
 30
0.0
 11
-0.792586
 21
-0.875706
 31
0.0
  0
LINE
  5
103
330
1F
100
AcDbEntity
  8
0
100
AcDbLine
 10
-0.792586
 20
-0.875706
 30
0.0
 11
-0.797915
 21
-0.867009
 31
0.0
  0
LINE
  5
104
330
1F
100
AcDbEntity
  8
0
100
AcDbLine
 10
-0.797915
 20
-0.867009
 30
0.0
 11
-0.801819
 21
-0.857586
 31
0.0
  0
LINE
  5
105
330
1F
100
AcDbEntity
  8
0
100
AcDbLine
 10
-0.801819
 20
-0.857586
 30
0.0
 11
-0.8042
 21
-0.847668
 31
0.0
  0
LINE
  5
106
330
1F
100
AcDbEntity
  8
0
100
AcDbLine
 10
-0.805
 20
-0.8375
 30
0.0
 11
-0.8042
 21
-0.827332
 31
0.0
  0
LINE
  5
107
330
1F
100
AcDbEntity
  8
0
100
AcDbLine
 10
-0.8042
 20
-0.827332
 30
0.0
 11
-0.801819
 21
-0.817414
 31
0.0
  0
LINE
  5
108
330
1F
100
AcDbEntity
  8
0
100
AcDbLine
 10
-0.801819
 20
-0.817414
 30
0.0
 11
-0.797915
 21
-0.807991
 31
0.0
  0
LINE
  5
109
330
1F
100
AcDbEntity
  8
0
100
AcDbLine
 10
-0.797915
 20
-0.807991
 30
0.0
 11
-0.792586
 21
-0.799294
 31
0.0
  0
LINE
  5
10A
330
1F
100
AcDbEntity
  8
0
100
AcDbLine
 10
-0.792586
 20
-0.799294
 30
0.0
 11
-0.785962
 21
-0.791538
 31
0.0
  0
LINE
  5
10B
330
1F
100
AcDbEntity
  8
0
100
AcDbLine
 10
-1.6758
 20
-0.827332
 30
0.0
 11
-1.675
 21
-0.8375
 31
0.0
  0
LINE
  5
10C
330
1F
100
AcDbEntity
  8
0
100
AcDbLine
 10
-1.675
 20
-0.8375
 30
0.0
 11
-1.6758
 21
-0.847668
 31
0.0
  0
LINE
  5
10D
330
1F
100
AcDbEntity
  8
0
100
AcDbLine
 10
-1.6758
 20
-0.847668
 30
0.0
 11
-1.678181
 21
-0.857586
 31
0.0
  0
LINE
  5
10E
330
1F
100
AcDbEntity
  8
0
100
AcDbLine
 10
-1.678181
 20
-0.857586
 30
0.0
 11
-1.682085
 21
-0.867009
 31
0.0
  0
LINE
  5
10F
330
1F
100
AcDbEntity
  8
0
100
AcDbLine
 10
-1.682085
 20
-0.867009
 30
0.0
 11
-1.687414
 21
-0.875706
 31
0.0
  0
LINE
  5
110
330
1F
100
AcDbEntity
  8
0
100
AcDbLine
 10
-1.687414
 20
-0.875706
 30
0.0
 11
-1.694038
 21
-0.883462
 31
0.0
  0
LINE
  5
111
330
1F
100
AcDbEntity
  8
0
100
AcDbLine
 10
-1.694038
 20
-0.883462
 30
0.0
 11
-1.701794
 21
-0.890086
 31
0.0
  0
LINE
  5
112
330
1F
100
AcDbEntity
  8
0
100
AcDbLine
 10
-1.701794
 20
-0.890086
 30
0.0
 11
-1.710491
 21
-0.895415
 31
0.0
  0
LINE
  5
113
330
1F
100
AcDbEntity
  8
0
100
AcDbLine
 10
-1.710491
 20
-0.895415
 30
0.0
 11
-1.719914
 21
-0.899319
 31
0.0
  0
LINE
  5
114
330
1F
100
AcDbEntity
  8
0
100
AcDbLine
 10
-1.719914
 20
-0.899319
 30
0.0
 11
-1.729832
 21
-0.9017
 31
0.0
  0
LINE
  5
115
330
1F
100
AcDbEntity
  8
0
100
AcDbLine
 10
-1.729832
 20
-0.9017
 30
0.0
 11
-1.74
 21
-0.9025
 31
0.0
  0
LINE
  5
116
330
1F
100
AcDbEntity
  8
0
100
AcDbLine
 10
-1.74
 20
-0.9025
 30
0.0
 11
-1.750168
 21
-0.9017
 31
0.0
  0
LINE
  5
117
330
1F
100
AcDbEntity
  8
0
100
AcDbLine
 10
-1.750168
 20
-0.9017
 30
0.0
 11
-1.760086
 21
-0.899319
 31
0.0
  0
LINE
  5
118
330
1F
100
AcDbEntity
  8
0
100
AcDbLine
 10
-1.760086
 20
-0.899319
 30
0.0
 11
-1.769509
 21
-0.895415
 31
0.0
  0
LINE
  5
119
330
1F
100
AcDbEntity
  8
0
100
AcDbLine
 10
-1.769509
 20
-0.895415
 30
0.0
 11
-1.778206
 21
-0.890086
 31
0.0
  0
LINE
  5
11A
330
1F
100
AcDbEntity
  8
0
100
AcDbLine
 10
-1.778206
 20
-0.890086
 30
0.0
 11
-1.785962
 21
-0.883462
 31
0.0
  0
LINE
  5
11B
330
1F
100
AcDbEntity
  8
0
100
AcDbLine
 10
-1.785962
 20
-0.883462
 30
0.0
 11
-1.792586
 21
-0.875706
 31
0.0
  0
LINE
  5
11C
330
1F
100
AcDbEntity
  8
0
100
AcDbLine
 10
-1.792586
 20
-0.875706
 30
0.0
 11
-1.797915
 21
-0.867009
 31
0.0
  0
LINE
  5
11D
330
1F
100
AcDbEntity
  8
0
100
AcDbLine
 10
-1.797915
 20
-0.867009
 30
0.0
 11
-1.801819
 21
-0.857586
 31
0.0
  0
LINE
  5
11E
330
1F
100
AcDbEntity
  8
0
100
AcDbLine
 10
-1.801819
 20
-0.857586
 30
0.0
 11
-1.8042
 21
-0.847668
 31
0.0
  0
LINE
  5
11F
330
1F
100
AcDbEntity
  8
0
100
AcDbLine
 10
-1.8042
 20
-0.847668
 30
0.0
 11
-1.805
 21
-0.8375
 31
0.0
  0
LINE
  5
120
330
1F
100
AcDbEntity
  8
0
100
AcDbLine
 10
-1.805
 20
-0.8375
 30
0.0
 11
-1.8042
 21
-0.827332
 31
0.0
  0
LINE
  5
121
330
1F
100
AcDbEntity
  8
0
100
AcDbLine
 10
-1.8042
 20
-0.827332
 30
0.0
 11
-1.801819
 21
-0.817414
 31
0.0
  0
LINE
  5
122
330
1F
100
AcDbEntity
  8
0
100
AcDbLine
 10
-1.801819
 20
-0.817414
 30
0.0
 11
-1.797915
 21
-0.807991
 31
0.0
  0
LINE
  5
123
330
1F
100
AcDbEntity
  8
0
100
AcDbLine
 10
-1.797915
 20
-0.807991
 30
0.0
 11
-1.792586
 21
-0.799294
 31
0.0
  0
LINE
  5
124
330
1F
100
AcDbEntity
  8
0
100
AcDbLine
 10
-1.74
 20
0.0975
 30
0.0
 11
-1.750168
 21
0.0983
 31
0.0
  0
LINE
  5
125
330
1F
100
AcDbEntity
  8
0
100
AcDbLine
 10
-1.750168
 20
0.0983
 30
0.0
 11
-1.760086
 21
0.100681
 31
0.0
  0
LINE
  5
126
330
1F
100
AcDbEntity
  8
0
100
AcDbLine
 10
-1.760086
 20
0.100681
 30
0.0
 11
-1.769509
 21
0.104585
 31
0.0
  0
LINE
  5
127
330
1F
100
AcDbEntity
  8
0
100
AcDbLine
 10
-1.769509
 20
0.104585
 30
0.0
 11
-1.778206
 21
0.109914
 31
0.0
  0
LINE
  5
128
330
1F
100
AcDbEntity
  8
0
100
AcDbLine
 10
-1.778206
 20
0.109914
 30
0.0
 11
-1.785962
 21
0.116538
 31
0.0
  0
LINE
  5
129
330
1F
100
AcDbEntity
  8
0
100
AcDbLine
 10
-1.785962
 20
0.116538
 30
0.0
 11
-1.792586
 21
0.124294
 31
0.0
  0
LINE
  5
12A
330
1F
100
AcDbEntity
  8
0
100
AcDbLine
 10
-1.792586
 20
0.124294
 30
0.0
 11
-1.797915
 21
0.132991
 31
0.0
  0
LINE
  5
12B
330
1F
100
AcDbEntity
  8
0
100
AcDbLine
 10
-1.94
 20
0.3625
 30
0.0
 11
-1.94
 21
-1.0375
 31
0.0
  0
LINE
  5
12C
330
1F
100
AcDbEntity
  8
0
100
AcDbLine
 10
-0.785962
 20
-0.791538
 30
0.0
 11
-0.778206
 21
-0.784914
 31
0.0
  0
LINE
  5
12D
330
1F
100
AcDbEntity
  8
0
100
AcDbLine
 10
-0.74
 20
-0.7725
 30
0.0
 11
-0.729832
 21
-0.7733
 31
0.0
  0
LINE
  5
12E
330
1F
100
AcDbEntity
  8
0
100
AcDbLine
 10
-0.729832
 20
0.0983
 30
0.0
 11
-0.74
 21
0.0975
 31
0.0
  0
LINE
  5
12F
330
1F
100
AcDbEntity
  8
0
100
AcDbLine
 10
-0.8042
 20
-0.847668
 30
0.0
 11
-0.805
 21
-0.8375
 31
0.0
  0
LINE
  5
130
330
1F
100
AcDbEntity
  8
0
100
AcDbLine
 10
-1.687414
 20
-0.799294
 30
0.0
 11
-1.682085
 21
-0.807991
 31
0.0
  0
LINE
  5
131
330
1F
100
AcDbEntity
  8
0
100
AcDbLine
 10
-1.682085
 20
-0.807991
 30
0.0
 11
-1.678181
 21
-0.817414
 31
0.0
  0
LINE
  5
132
330
1F
100
AcDbEntity
  8
0
100
AcDbLine
 10
-1.678181
 20
-0.817414
 30
0.0
 11
-1.6758
 21
-0.827332
 31
0.0
  0
LINE
  5
133
330
1F
100
AcDbEntity
  8
0
100
AcDbLine
 10
-1.774604
 20
-0.065106
 30
0.0
 11
-1.810634
 21
-0.15209
 31
0.0
  0
LINE
  5
134
330
1F
100
AcDbEntity
  8
0
100
AcDbLine
 10
-1.810634
 20
-0.15209
 30
0.0
 11
-1.832613
 21
-0.243639
 31
0.0
  0
LINE
  5
135
330
1F
100
AcDbEntity
  8
0
100
AcDbLine
 10
-1.832613
 20
-0.243639
 30
0.0
 11
-1.84
 21
-0.3375
 31
0.0
  0
LINE
  5
136
330
1F
100
AcDbEntity
  8
0
100
AcDbLine
 10
-1.84
 20
-0.3375
 30
0.0
 11
-1.832613
 21
-0.431361
 31
0.0
  0
LINE
  5
137
330
1F
100
AcDbEntity
  8
0
100
AcDbLine
 10
-1.832613
 20
-0.431361
 30
0.0
 11
-1.810634
 21
-0.52291
 31
0.0
  0
LINE
  5
138
330
1F
100
AcDbEntity
  8
0
100
AcDbLine
 10
-1.810634
 20
-0.52291
 30
0.0
 11
-1.774604
 21
-0.609894
 31
0.0
  0
LINE
  5
139
330
1F
100
AcDbEntity
  8
0
100
AcDbLine
 10
-1.774604
 20
-0.609894
 30
0.0
 11
-1.72541
 21
-0.690171
 31
0.0
  0
LINE
  5
13A
330
1F
100
AcDbEntity
  8
0
100
AcDbLine
 10
-1.72541
 20
-0.690171
 30
0.0
 11
-1.664264
 21
-0.761764
 31
0.0
  0
LINE
  5
13B
330
1F
100
AcDbEntity
  8
0
100
AcDbLine
 10
-1.664264
 20
-0.761764
 30
0.0
 11
-1.592671
 21
-0.82291
 31
0.0
  0
LINE
  5
13C
330
1F
100
AcDbEntity
  8
0
100
AcDbLine
 10
-1.592671
 20
-0.82291
 30
0.0
 11
-1.512394
 21
-0.872104
 31
0.0
  0
LINE
  5
13D
330
1F
100
AcDbEntity
  8
0
100
AcDbLine
 10
-1.05459
 20
-0.908134
 30
0.0
 11
-0.967606
 21
-0.872104
 31
0.0
  0
LINE
  5
13E
330
1F
100
AcDbEntity
  8
0
100
AcDbLine
 10
-0.967606
 20
-0.872104
 30
0.0
 11
-0.887329
 21
-0.82291
 31
0.0
  0
LINE
  5
13F
330
1F
100
AcDbEntity
  8
0
100
AcDbLine
 10
-0.887329
 20
-0.82291
 30
0.0
 11
-0.815736
 21
-0.761764
 31
0.0
  0
LINE
  5
140
330
1F
100
AcDbEntity
  8
0
100
AcDbLine
 10
-0.815736
 20
-0.761764
 30
0.0
 11
-0.75459
 21
-0.690171
 31
0.0
  0
LINE
  5
141
330
1F
100
AcDbEntity
  8
0
100
AcDbLine
 10
-0.75459
 20
-0.690171
 30
0.0
 11
-0.705396
 21
-0.609894
 31
0.0
  0
LINE
  5
142
330
1F
100
AcDbEntity
  8
0
100
AcDbLine
 10
-0.705396
 20
-0.609894
 30
0.0
 11
-0.669366
 21
-0.52291
 31
0.0
  0
LINE
  5
143
330
1F
100
AcDbEntity
  8
0
100
AcDbLine
 10
-0.669366
 20
-0.52291
 30
0.0
 11
-0.647387
 21
-0.431361
 31
0.0
  0
LINE
  5
144
330
1F
100
AcDbEntity
  8
0
100
AcDbLine
 10
-0.647387
 20
-0.431361
 30
0.0
 11
-0.64
 21
-0.3375
 31
0.0
  0
LINE
  5
145
330
1F
100
AcDbEntity
  8
0
100
AcDbLine
 10
-0.64
 20
-0.3375
 30
0.0
 11
-0.647387
 21
-0.243639
 31
0.0
  0
LINE
  5
146
330
1F
100
AcDbEntity
  8
0
100
AcDbLine
 10
-0.647387
 20
-0.243639
 30
0.0
 11
-0.669366
 21
-0.15209
 31
0.0
  0
LINE
  5
147
330
1F
100
AcDbEntity
  8
0
100
AcDbLine
 10
-0.669366
 20
-0.15209
 30
0.0
 11
-0.705396
 21
-0.065106
 31
0.0
  0
LINE
  5
148
330
1F
100
AcDbEntity
  8
0
100
AcDbLine
 10
-0.705396
 20
-0.065106
 30
0.0
 11
-0.75459
 21
0.015171
 31
0.0
  0
LINE
  5
149
330
1F
100
AcDbEntity
  8
0
100
AcDbLine
 10
-0.75459
 20
0.015171
 30
0.0
 11
-0.815736
 21
0.086764
 31
0.0
  0
LINE
  5
14A
330
1F
100
AcDbEntity
  8
0
100
AcDbLine
 10
-0.815736
 20
0.086764
 30
0.0
 11
-0.887329
 21
0.14791
 31
0.0
  0
LINE
  5
14B
330
1F
100
AcDbEntity
  8
0
100
AcDbLine
 10
-0.887329
 20
0.14791
 30
0.0
 11
-0.967606
 21
0.197104
 31
0.0
  0
LINE
  5
14C
330
1F
100
AcDbEntity
  8
0
100
AcDbLine
 10
-0.967606
 20
0.197104
 30
0.0
 11
-1.05459
 21
0.233134
 31
0.0
  0
LINE
  5
14D
330
1F
100
AcDbEntity
  8
0
100
AcDbLine
 10
-1.05459
 20
0.233134
 30
0.0
 11
-1.146139
 21
0.255113
 31
0.0
  0
LINE
  5
14E
330
1F
100
AcDbEntity
  8
0
100
AcDbLine
 10
-1.146139
 20
0.255113
 30
0.0
 11
-1.24
 21
0.2625
 31
0.0
  0
LINE
  5
14F
330
1F
100
AcDbEntity
  8
0
100
AcDbLine
 10
-1.24
 20
0.2625
 30
0.0
 11
-1.333861
 21
0.255113
 31
0.0
  0
LINE
  5
150
330
1F
100
AcDbEntity
  8
0
100
AcDbLine
 10
-1.333861
 20
0.255113
 30
0.0
 11
-1.42541
 21
0.233134
 31
0.0
  0
LINE
  5
151
330
1F
100
AcDbEntity
  8
0
100
AcDbLine
 10
-1.42541
 20
0.233134
 30
0.0
 11
-1.512394
 21
0.197104
 31
0.0
  0
LINE
  5
152
330
1F
100
AcDbEntity
  8
0
100
AcDbLine
 10
-1.512394
 20
0.197104
 30
0.0
 11
-1.592671
 21
0.14791
 31
0.0
  0
LINE
  5
153
330
1F
100
AcDbEntity
  8
0
100
AcDbLine
 10
-1.592671
 20
0.14791
 30
0.0
 11
-1.664264
 21
0.086764
 31
0.0
  0
LINE
  5
154
330
1F
100
AcDbEntity
  8
0
100
AcDbLine
 10
-1.258541
 20
0.055437
 30
0.0
 11
-1.267239
 21
0.05904
 31
0.0
  0
LINE
  5
155
330
1F
100
AcDbEntity
  8
0
100
AcDbLine
 10
-1.267239
 20
0.05904
 30
0.0
 11
-1.275267
 21
0.063959
 31
0.0
  0
LINE
  5
156
330
1F
100
AcDbEntity
  8
0
100
AcDbLine
 10
-1.275267
 20
0.063959
 30
0.0
 11
-1.282426
 21
0.070074
 31
0.0
  0
LINE
  5
157
330
1F
100
AcDbEntity
  8
0
100
AcDbLine
 10
-1.282426
 20
0.070074
 30
0.0
 11
-1.288541
 21
0.077233
 31
0.0
  0
LINE
  5
158
330
1F
100
AcDbEntity
  8
0
100
AcDbLine
 10
-1.288541
 20
0.077233
 30
0.0
 11
-1.29346
 21
0.085261
 31
0.0
  0
LINE
  5
159
330
1F
100
AcDbEntity
  8
0
100
AcDbLine
 10
-1.29346
 20
0.085261
 30
0.0
 11
-1.297063
 21
0.093959
 31
0.0
  0
LINE
  5
15A
330
1F
100
AcDbEntity
  8
0
100
AcDbLine
 10
-1.297063
 20
0.093959
 30
0.0
 11
-1.299261
 21
0.103114
 31
0.0
  0
LINE
  5
15B
330
1F
100
AcDbEntity
  8
0
100
AcDbLine
 10
-1.299261
 20
0.103114
 30
0.0
 11
-1.3
 21
0.1125
 31
0.0
  0
LINE
  5
15C
330
1F
100
AcDbEntity
  8
0
100
AcDbLine
 10
-1.3
 20
0.1125
 30
0.0
 11
-1.299261
 21
0.121886
 31
0.0
  0
LINE
  5
15D
330
1F
100
AcDbEntity
  8
0
100
AcDbLine
 10
-1.299261
 20
0.121886
 30
0.0
 11
-1.297063
 21
0.131041
 31
0.0
  0
LINE
  5
15E
330
1F
100
AcDbEntity
  8
0
100
AcDbLine
 10
-1.297063
 20
0.131041
 30
0.0
 11
-1.29346
 21
0.139739
 31
0.0
  0
LINE
  5
15F
330
1F
100
AcDbEntity
  8
0
100
AcDbLine
 10
-1.29346
 20
0.139739
 30
0.0
 11
-1.288541
 21
0.147767
 31
0.0
  0
LINE
  5
160
330
1F
100
AcDbEntity
  8
0
100
AcDbLine
 10
-1.288541
 20
0.147767
 30
0.0
 11
-1.282426
 21
0.154926
 31
0.0
  0
LINE
  5
161
330
1F
100
AcDbEntity
  8
0
100
AcDbLine
 10
-1.282426
 20
0.154926
 30
0.0
 11
-1.275267
 21
0.161041
 31
0.0
  0
LINE
  5
162
330
1F
100
AcDbEntity
  8
0
100
AcDbLine
 10
-1.275267
 20
0.161041
 30
0.0
 11
-1.267239
 21
0.16596
 31
0.0
  0
LINE
  5
163
330
1F
100
AcDbEntity
  8
0
100
AcDbLine
 10
-1.267239
 20
0.16596
 30
0.0
 11
-1.258541
 21
0.169563
 31
0.0
  0
LINE
  5
164
330
1F
100
AcDbEntity
  8
0
100
AcDbLine
 10
-1.258541
 20
0.169563
 30
0.0
 11
-1.249386
 21
0.171761
 31
0.0
  0
LINE
  5
165
330
1F
100
AcDbEntity
  8
0
100
AcDbLine
 10
-1.249386
 20
0.171761
 30
0.0
 11
-1.24
 21
0.1725
 31
0.0
  0
LINE
  5
166
330
1F
100
AcDbEntity
  8
0
100
AcDbLine
 10
-1.24
 20
0.1725
 30
0.0
 11
-1.230614
 21
0.171761
 31
0.0
  0
LINE
  5
167
330
1F
100
AcDbEntity
  8
0
100
AcDbLine
 10
-1.230614
 20
0.171761
 30
0.0
 11
-1.221459
 21
0.169563
 31
0.0
  0
LINE
  5
168
330
1F
100
AcDbEntity
  8
0
100
AcDbLine
 10
-1.221459
 20
0.169563
 30
0.0
 11
-1.212761
 21
0.16596
 31
0.0
  0
LINE
  5
169
330
1F
100
AcDbEntity
  8
0
100
AcDbLine
 10
-1.212761
 20
0.16596
 30
0.0
 11
-1.204733
 21
0.161041
 31
0.0
  0
LINE
  5
16A
330
1F
100
AcDbEntity
  8
0
100
AcDbLine
 10
-1.204733
 20
0.161041
 30
0.0
 11
-1.197574
 21
0.154926
 31
0.0
  0
LINE
  5
16B
330
1F
100
AcDbEntity
  8
0
100
AcDbLine
 10
-1.197574
 20
0.154926
 30
0.0
 11
-1.191459
 21
0.147767
 31
0.0
  0
LINE
  5
16C
330
1F
100
AcDbEntity
  8
0
100
AcDbLine
 10
-1.191459
 20
0.147767
 30
0.0
 11
-1.18654
 21
0.139739
 31
0.0
  0
LINE
  5
16D
330
1F
100
AcDbEntity
  8
0
100
AcDbLine
 10
-1.18654
 20
0.139739
 30
0.0
 11
-1.182937
 21
0.131041
 31
0.0
  0
LINE
  5
16E
330
1F
100
AcDbEntity
  8
0
100
AcDbLine
 10
-1.182937
 20
0.131041
 30
0.0
 11
-1.180739
 21
0.121886
 31
0.0
  0
LINE
  5
16F
330
1F
100
AcDbEntity
  8
0
100
AcDbLine
 10
-1.180739
 20
0.121886
 30
0.0
 11
-1.18
 21
0.1125
 31
0.0
  0
LINE
  5
170
330
1F
100
AcDbEntity
  8
0
100
AcDbLine
 10
-1.18
 20
0.1125
 30
0.0
 11
-1.180739
 21
0.103114
 31
0.0
  0
LINE
  5
171
330
1F
100
AcDbEntity
  8
0
100
AcDbLine
 10
-1.180739
 20
0.103114
 30
0.0
 11
-1.182937
 21
0.093959
 31
0.0
  0
LINE
  5
172
330
1F
100
AcDbEntity
  8
0
100
AcDbLine
 10
-1.182937
 20
0.093959
 30
0.0
 11
-1.18654
 21
0.085261
 31
0.0
  0
LINE
  5
173
330
1F
100
AcDbEntity
  8
0
100
AcDbLine
 10
-1.18654
 20
0.085261
 30
0.0
 11
-1.191459
 21
0.077233
 31
0.0
  0
LINE
  5
174
330
1F
100
AcDbEntity
  8
0
100
AcDbLine
 10
-1.191459
 20
0.077233
 30
0.0
 11
-1.197574
 21
0.070074
 31
0.0
  0
LINE
  5
175
330
1F
100
AcDbEntity
  8
0
100
AcDbLine
 10
-1.197574
 20
0.070074
 30
0.0
 11
-1.204733
 21
0.063959
 31
0.0
  0
LINE
  5
176
330
1F
100
AcDbEntity
  8
0
100
AcDbLine
 10
-1.204733
 20
0.063959
 30
0.0
 11
-1.212761
 21
0.05904
 31
0.0
  0
LINE
  5
177
330
1F
100
AcDbEntity
  8
0
100
AcDbLine
 10
-1.212761
 20
0.05904
 30
0.0
 11
-1.221459
 21
0.055437
 31
0.0
  0
LINE
  5
178
330
1F
100
AcDbEntity
  8
0
100
AcDbLine
 10
-1.221459
 20
0.055437
 30
0.0
 11
-1.230614
 21
0.053239
 31
0.0
  0
LINE
  5
179
330
1F
100
AcDbEntity
  8
0
100
AcDbLine
 10
-1.230614
 20
0.053239
 30
0.0
 11
-1.24
 21
0.0525
 31
0.0
  0
LINE
  5
17A
330
1F
100
AcDbEntity
  8
0
100
AcDbLine
 10
-1.24
 20
0.0525
 30
0.0
 11
-1.249386
 21
0.053239
 31
0.0
  0
LINE
  5
17B
330
1F
100
AcDbEntity
  8
0
100
AcDbLine
 10
-0.838541
 20
-0.302233
 30
0.0
 11
-0.832426
 21
-0.295074
 31
0.0
  0
LINE
  5
17C
330
1F
100
AcDbEntity
  8
0
100
AcDbLine
 10
-0.832426
 20
-0.295074
 30
0.0
 11
-0.825267
 21
-0.288959
 31
0.0
  0
LINE
  5
17D
330
1F
100
AcDbEntity
  8
0
100
AcDbLine
 10
-0.825267
 20
-0.288959
 30
0.0
 11
-0.817239
 21
-0.28404
 31
0.0
  0
LINE
  5
17E
330
1F
100
AcDbEntity
  8
0
100
AcDbLine
 10
-0.817239
 20
-0.28404
 30
0.0
 11
-0.808541
 21
-0.280437
 31
0.0
  0
LINE
  5
17F
330
1F
100
AcDbEntity
  8
0
100
AcDbLine
 10
-0.808541
 20
-0.280437
 30
0.0
 11
-0.799386
 21
-0.278239
 31
0.0
  0
LINE
  5
180
330
1F
100
AcDbEntity
  8
0
100
AcDbLine
 10
-0.799386
 20
-0.278239
 30
0.0
 11
-0.79
 21
-0.2775
 31
0.0
  0
LINE
  5
181
330
1F
100
AcDbEntity
  8
0
100
AcDbLine
 10
-0.79
 20
-0.2775
 30
0.0
 11
-0.780614
 21
-0.278239
 31
0.0
  0
LINE
  5
182
330
1F
100
AcDbEntity
  8
0
100
AcDbLine
 10
-0.780614
 20
-0.278239
 30
0.0
 11
-0.771459
 21
-0.280437
 31
0.0
  0
LINE
  5
183
330
1F
100
AcDbEntity
  8
0
100
AcDbLine
 10
-0.771459
 20
-0.280437
 30
0.0
 11
-0.762761
 21
-0.28404
 31
0.0
  0
LINE
  5
184
330
1F
100
AcDbEntity
  8
0
100
AcDbLine
 10
-0.762761
 20
-0.28404
 30
0.0
 11
-0.754733
 21
-0.288959
 31
0.0
  0
LINE
  5
185
330
1F
100
AcDbEntity
  8
0
100
AcDbLine
 10
-0.754733
 20
-0.288959
 30
0.0
 11
-0.747574
 21
-0.295074
 31
0.0
  0
LINE
  5
186
330
1F
100
AcDbEntity
  8
0
100
AcDbLine
 10
-0.747574
 20
-0.295074
 30
0.0
 11
-0.741459
 21
-0.302233
 31
0.0
  0
LINE
  5
187
330
1F
100
AcDbEntity
  8
0
100
AcDbLine
 10
-0.741459
 20
-0.302233
 30
0.0
 11
-0.73654
 21
-0.310261
 31
0.0
  0
LINE
  5
188
330
1F
100
AcDbEntity
  8
0
100
AcDbLine
 10
-0.73654
 20
-0.310261
 30
0.0
 11
-0.732937
 21
-0.318959
 31
0.0
  0
LINE
  5
189
330
1F
100
AcDbEntity
  8
0
100
AcDbLine
 10
-0.732937
 20
-0.318959
 30
0.0
 11
-0.730739
 21
-0.328114
 31
0.0
  0
LINE
  5
18A
330
1F
100
AcDbEntity
  8
0
100
AcDbLine
 10
-0.730739
 20
-0.328114
 30
0.0
 11
-0.73
 21
-0.3375
 31
0.0
  0
LINE
  5
18B
330
1F
100
AcDbEntity
  8
0
100
AcDbLine
 10
-0.73
 20
-0.3375
 30
0.0
 11
-0.730739
 21
-0.346886
 31
0.0
  0
LINE
  5
18C
330
1F
100
AcDbEntity
  8
0
100
AcDbLine
 10
-0.730739
 20
-0.346886
 30
0.0
 11
-0.732937
 21
-0.356041
 31
0.0
  0
LINE
  5
18D
330
1F
100
AcDbEntity
  8
0
100
AcDbLine
 10
-0.732937
 20
-0.356041
 30
0.0
 11
-0.73654
 21
-0.364739
 31
0.0
  0
LINE
  5
18E
330
1F
100
AcDbEntity
  8
0
100
AcDbLine
 10
-0.73654
 20
-0.364739
 30
0.0
 11
-0.741459
 21
-0.372767
 31
0.0
  0
LINE
  5
18F
330
1F
100
AcDbEntity
  8
0
100
AcDbLine
 10
-0.741459
 20
-0.372767
 30
0.0
 11
-0.747574
 21
-0.379926
 31
0.0
  0
LINE
  5
190
330
1F
100
AcDbEntity
  8
0
100
AcDbLine
 10
-0.747574
 20
-0.379926
 30
0.0
 11
-0.754733
 21
-0.386041
 31
0.0
  0
LINE
  5
191
330
1F
100
AcDbEntity
  8
0
100
AcDbLine
 10
-0.754733
 20
-0.386041
 30
0.0
 11
-0.762761
 21
-0.39096
 31
0.0
  0
LINE
  5
192
330
1F
100
AcDbEntity
  8
0
100
AcDbLine
 10
-0.762761
 20
-0.39096
 30
0.0
 11
-0.771459
 21
-0.394563
 31
0.0
  0
LINE
  5
193
330
1F
100
AcDbEntity
  8
0
100
AcDbLine
 10
-0.771459
 20
-0.394563
 30
0.0
 11
-0.780614
 21
-0.396761
 31
0.0
  0
LINE
  5
194
330
1F
100
AcDbEntity
  8
0
100
AcDbLine
 10
-0.780614
 20
-0.396761
 30
0.0
 11
-0.79
 21
-0.3975
 31
0.0
  0
LINE
  5
195
330
1F
100
AcDbEntity
  8
0
100
AcDbLine
 10
-0.79
 20
-0.3975
 30
0.0
 11
-0.799386
 21
-0.396761
 31
0.0
  0
LINE
  5
196
330
1F
100
AcDbEntity
  8
0
100
AcDbLine
 10
-0.799386
 20
-0.396761
 30
0.0
 11
-0.808541
 21
-0.394563
 31
0.0
  0
LINE
  5
197
330
1F
100
AcDbEntity
  8
0
100
AcDbLine
 10
-0.808541
 20
-0.394563
 30
0.0
 11
-0.817239
 21
-0.39096
 31
0.0
  0
LINE
  5
198
330
1F
100
AcDbEntity
  8
0
100
AcDbLine
 10
-0.817239
 20
-0.39096
 30
0.0
 11
-0.825267
 21
-0.386041
 31
0.0
  0
LINE
  5
199
330
1F
100
AcDbEntity
  8
0
100
AcDbLine
 10
-0.825267
 20
-0.386041
 30
0.0
 11
-0.832426
 21
-0.379926
 31
0.0
  0
LINE
  5
19A
330
1F
100
AcDbEntity
  8
0
100
AcDbLine
 10
-0.832426
 20
-0.379926
 30
0.0
 11
-0.838541
 21
-0.372767
 31
0.0
  0
LINE
  5
19B
330
1F
100
AcDbEntity
  8
0
100
AcDbLine
 10
-0.838541
 20
-0.372767
 30
0.0
 11
-0.84346
 21
-0.364739
 31
0.0
  0
LINE
  5
19C
330
1F
100
AcDbEntity
  8
0
100
AcDbLine
 10
-0.84346
 20
-0.364739
 30
0.0
 11
-0.847063
 21
-0.356041
 31
0.0
  0
LINE
  5
19D
330
1F
100
AcDbEntity
  8
0
100
AcDbLine
 10
-0.847063
 20
-0.356041
 30
0.0
 11
-0.849261
 21
-0.346886
 31
0.0
  0
LINE
  5
19E
330
1F
100
AcDbEntity
  8
0
100
AcDbLine
 10
-0.849261
 20
-0.346886
 30
0.0
 11
-0.85
 21
-0.3375
 31
0.0
  0
LINE
  5
19F
330
1F
100
AcDbEntity
  8
0
100
AcDbLine
 10
-1.16
 20
-0.3375
 30
0.0
 11
-1.175279
 21
-0.384523
 31
0.0
  0
LINE
  5
1A0
330
1F
100
AcDbEntity
  8
0
100
AcDbLine
 10
-1.175279
 20
-0.384523
 30
0.0
 11
-1.215279
 21
-0.413585
 31
0.0
  0
LINE
  5
1A1
330
1F
100
AcDbEntity
  8
0
100
AcDbLine
 10
-1.215279
 20
-0.413585
 30
0.0
 11
-1.24
 21
-0.4175
 31
0.0
  0
LINE
  5
1A2
330
1F
100
AcDbEntity
  8
0
100
AcDbLine
 10
-1.24
 20
-0.4175
 30
0.0
 11
-1.264721
 21
-0.413585
 31
0.0
  0
LINE
  5
1A3
330
1F
100
AcDbEntity
  8
0
100
AcDbLine
 10
-1.264721
 20
-0.413585
 30
0.0
 11
-1.304721
 21
-0.384523
 31
0.0
  0
LINE
  5
1A4
330
1F
100
AcDbEntity
  8
0
100
AcDbLine
 10
-1.304721
 20
-0.384523
 30
0.0
 11
-1.32
 21
-0.3375
 31
0.0
  0
LINE
  5
1A5
330
1F
100
AcDbEntity
  8
0
100
AcDbLine
 10
-1.630739
 20
-0.328114
 30
0.0
 11
-1.63
 21
-0.3375
 31
0.0
  0
LINE
  5
1A6
330
1F
100
AcDbEntity
  8
0
100
AcDbLine
 10
-1.63
 20
-0.3375
 30
0.0
 11
-1.630739
 21
-0.346886
 31
0.0
  0
LINE
  5
1A7
330
1F
100
AcDbEntity
  8
0
100
AcDbLine
 10
-1.630739
 20
-0.346886
 30
0.0
 11
-1.632937
 21
-0.356041
 31
0.0
  0
LINE
  5
1A8
330
1F
100
AcDbEntity
  8
0
100
AcDbLine
 10
-1.632937
 20
-0.356041
 30
0.0
 11
-1.63654
 21
-0.364739
 31
0.0
  0
LINE
  5
1A9
330
1F
100
AcDbEntity
  8
0
100
AcDbLine
 10
-1.63654
 20
-0.364739
 30
0.0
 11
-1.641459
 21
-0.372767
 31
0.0
  0
LINE
  5
1AA
330
1F
100
AcDbEntity
  8
0
100
AcDbLine
 10
-1.641459
 20
-0.372767
 30
0.0
 11
-1.647574
 21
-0.379926
 31
0.0
  0
LINE
  5
1AB
330
1F
100
AcDbEntity
  8
0
100
AcDbLine
 10
-1.647574
 20
-0.379926
 30
0.0
 11
-1.654733
 21
-0.386041
 31
0.0
  0
LINE
  5
1AC
330
1F
100
AcDbEntity
  8
0
100
AcDbLine
 10
-1.654733
 20
-0.386041
 30
0.0
 11
-1.662761
 21
-0.39096
 31
0.0
  0
LINE
  5
1AD
330
1F
100
AcDbEntity
  8
0
100
AcDbLine
 10
-1.662761
 20
-0.39096
 30
0.0
 11
-1.671459
 21
-0.394563
 31
0.0
  0
LINE
  5
1AE
330
1F
100
AcDbEntity
  8
0
100
AcDbLine
 10
-1.671459
 20
-0.394563
 30
0.0
 11
-1.680614
 21
-0.396761
 31
0.0
  0
LINE
  5
1AF
330
1F
100
AcDbEntity
  8
0
100
AcDbLine
 10
-1.680614
 20
-0.396761
 30
0.0
 11
-1.69
 21
-0.3975
 31
0.0
  0
LINE
  5
1B0
330
1F
100
AcDbEntity
  8
0
100
AcDbLine
 10
-1.69
 20
-0.3975
 30
0.0
 11
-1.699386
 21
-0.396761
 31
0.0
  0
LINE
  5
1B1
330
1F
100
AcDbEntity
  8
0
100
AcDbLine
 10
-1.288541
 20
-0.752233
 30
0.0
 11
-1.282426
 21
-0.745074
 31
0.0
  0
LINE
  5
1B2
330
1F
100
AcDbEntity
  8
0
100
AcDbLine
 10
-1.282426
 20
-0.745074
 30
0.0
 11
-1.275267
 21
-0.738959
 31
0.0
  0
LINE
  5
1B3
330
1F
100
AcDbEntity
  8
0
100
AcDbLine
 10
-1.275267
 20
-0.738959
 30
0.0
 11
-1.267239
 21
-0.73404
 31
0.0
  0
LINE
  5
1B4
330
1F
100
AcDbEntity
  8
0
100
AcDbLine
 10
-1.267239
 20
-0.73404
 30
0.0
 11
-1.258541
 21
-0.730437
 31
0.0
  0
LINE
  5
1B5
330
1F
100
AcDbEntity
  8
0
100
AcDbLine
 10
-1.258541
 20
-0.730437
 30
0.0
 11
-1.249386
 21
-0.728239
 31
0.0
  0
LINE
  5
1B6
330
1F
100
AcDbEntity
  8
0
100
AcDbLine
 10
-1.249386
 20
-0.728239
 30
0.0
 11
-1.24
 21
-0.7275
 31
0.0
  0
LINE
  5
1B7
330
1F
100
AcDbEntity
  8
0
100
AcDbLine
 10
-1.24
 20
-0.7275
 30
0.0
 11
-1.230614
 21
-0.728239
 31
0.0
  0
LINE
  5
1B8
330
1F
100
AcDbEntity
  8
0
100
AcDbLine
 10
-1.230614
 20
-0.728239
 30
0.0
 11
-1.221459
 21
-0.730437
 31
0.0
  0
LINE
  5
1B9
330
1F
100
AcDbEntity
  8
0
100
AcDbLine
 10
-1.221459
 20
-0.730437
 30
0.0
 11
-1.212761
 21
-0.73404
 31
0.0
  0
LINE
  5
1BA
330
1F
100
AcDbEntity
  8
0
100
AcDbLine
 10
-1.212761
 20
-0.73404
 30
0.0
 11
-1.204733
 21
-0.738959
 31
0.0
  0
LINE
  5
1BB
330
1F
100
AcDbEntity
  8
0
100
AcDbLine
 10
-1.204733
 20
-0.738959
 30
0.0
 11
-1.197574
 21
-0.745074
 31
0.0
  0
LINE
  5
1BC
330
1F
100
AcDbEntity
  8
0
100
AcDbLine
 10
-1.197574
 20
-0.745074
 30
0.0
 11
-1.191459
 21
-0.752233
 31
0.0
  0
LINE
  5
1BD
330
1F
100
AcDbEntity
  8
0
100
AcDbLine
 10
-1.191459
 20
-0.752233
 30
0.0
 11
-1.18654
 21
-0.760261
 31
0.0
  0
LINE
  5
1BE
330
1F
100
AcDbEntity
  8
0
100
AcDbLine
 10
-1.18654
 20
-0.760261
 30
0.0
 11
-1.182937
 21
-0.768959
 31
0.0
  0
LINE
  5
1BF
330
1F
100
AcDbEntity
  8
0
100
AcDbLine
 10
-1.182937
 20
-0.768959
 30
0.0
 11
-1.180739
 21
-0.778114
 31
0.0
  0
LINE
  5
1C0
330
1F
100
AcDbEntity
  8
0
100
AcDbLine
 10
-1.180739
 20
-0.778114
 30
0.0
 11
-1.18
 21
-0.7875
 31
0.0
  0
LINE
  5
1C1
330
1F
100
AcDbEntity
  8
0
100
AcDbLine
 10
-1.18
 20
-0.7875
 30
0.0
 11
-1.180739
 21
-0.796886
 31
0.0
  0
LINE
  5
1C2
330
1F
100
AcDbEntity
  8
0
100
AcDbLine
 10
-1.180739
 20
-0.796886
 30
0.0
 11
-1.182937
 21
-0.806041
 31
0.0
  0
LINE
  5
1C3
330
1F
100
AcDbEntity
  8
0
100
AcDbLine
 10
-1.182937
 20
-0.806041
 30
0.0
 11
-1.18654
 21
-0.814739
 31
0.0
  0
LINE
  5
1C4
330
1F
100
AcDbEntity
  8
0
100
AcDbLine
 10
-1.18654
 20
-0.814739
 30
0.0
 11
-1.191459
 21
-0.822767
 31
0.0
  0
LINE
  5
1C5
330
1F
100
AcDbEntity
  8
0
100
AcDbLine
 10
-1.191459
 20
-0.822767
 30
0.0
 11
-1.197574
 21
-0.829926
 31
0.0
  0
LINE
  5
1C6
330
1F
100
AcDbEntity
  8
0
100
AcDbLine
 10
-1.197574
 20
-0.829926
 30
0.0
 11
-1.204733
 21
-0.836041
 31
0.0
  0
LINE
  5
1C7
330
1F
100
AcDbEntity
  8
0
100
AcDbLine
 10
-1.204733
 20
-0.836041
 30
0.0
 11
-1.212761
 21
-0.84096
 31
0.0
  0
LINE
  5
1C8
330
1F
100
AcDbEntity
  8
0
100
AcDbLine
 10
-1.212761
 20
-0.84096
 30
0.0
 11
-1.221459
 21
-0.844563
 31
0.0
  0
LINE
  5
1C9
330
1F
100
AcDbEntity
  8
0
100
AcDbLine
 10
-1.221459
 20
-0.844563
 30
0.0
 11
-1.230614
 21
-0.846761
 31
0.0
  0
LINE
  5
1CA
330
1F
100
AcDbEntity
  8
0
100
AcDbLine
 10
-1.230614
 20
-0.846761
 30
0.0
 11
-1.24
 21
-0.8475
 31
0.0
  0
LINE
  5
1CB
330
1F
100
AcDbEntity
  8
0
100
AcDbLine
 10
-1.24
 20
-0.8475
 30
0.0
 11
-1.249386
 21
-0.846761
 31
0.0
  0
LINE
  5
1CC
330
1F
100
AcDbEntity
  8
0
100
AcDbLine
 10
-1.249386
 20
-0.846761
 30
0.0
 11
-1.258541
 21
-0.844563
 31
0.0
  0
LINE
  5
1CD
330
1F
100
AcDbEntity
  8
0
100
AcDbLine
 10
-1.258541
 20
-0.844563
 30
0.0
 11
-1.267239
 21
-0.84096
 31
0.0
  0
LINE
  5
1CE
330
1F
100
AcDbEntity
  8
0
100
AcDbLine
 10
-1.267239
 20
-0.84096
 30
0.0
 11
-1.275267
 21
-0.836041
 31
0.0
  0
LINE
  5
1CF
330
1F
100
AcDbEntity
  8
0
100
AcDbLine
 10
-1.275267
 20
-0.836041
 30
0.0
 11
-1.282426
 21
-0.829926
 31
0.0
  0
LINE
  5
1D0
330
1F
100
AcDbEntity
  8
0
100
AcDbLine
 10
-1.282426
 20
-0.829926
 30
0.0
 11
-1.288541
 21
-0.822767
 31
0.0
  0
LINE
  5
1D1
330
1F
100
AcDbEntity
  8
0
100
AcDbLine
 10
-1.288541
 20
-0.822767
 30
0.0
 11
-1.29346
 21
-0.814739
 31
0.0
  0
LINE
  5
1D2
330
1F
100
AcDbEntity
  8
0
100
AcDbLine
 10
-1.29346
 20
-0.814739
 30
0.0
 11
-1.297063
 21
-0.806041
 31
0.0
  0
LINE
  5
1D3
330
1F
100
AcDbEntity
  8
0
100
AcDbLine
 10
-1.297063
 20
-0.806041
 30
0.0
 11
-1.299261
 21
-0.796886
 31
0.0
  0
LINE
  5
1D4
330
1F
100
AcDbEntity
  8
0
100
AcDbLine
 10
-1.299261
 20
-0.796886
 30
0.0
 11
-1.3
 21
-0.7875
 31
0.0
  0
LINE
  5
1D5
330
1F
100
AcDbEntity
  8
0
100
AcDbLine
 10
-1.3
 20
-0.7875
 30
0.0
 11
-1.299261
 21
-0.778114
 31
0.0
  0
LINE
  5
1D6
330
1F
100
AcDbEntity
  8
0
100
AcDbLine
 10
-1.299261
 20
-0.778114
 30
0.0
 11
-1.297063
 21
-0.768959
 31
0.0
  0
LINE
  5
1D7
330
1F
100
AcDbEntity
  8
0
100
AcDbLine
 10
-1.297063
 20
-0.768959
 30
0.0
 11
-1.29346
 21
-0.760261
 31
0.0
  0
LINE
  5
1D8
330
1F
100
AcDbEntity
  8
0
100
AcDbLine
 10
-1.708541
 20
-0.394563
 30
0.0
 11
-1.717239
 21
-0.39096
 31
0.0
  0
LINE
  5
1D9
330
1F
100
AcDbEntity
  8
0
100
AcDbLine
 10
-1.717239
 20
-0.39096
 30
0.0
 11
-1.725267
 21
-0.386041
 31
0.0
  0
LINE
  5
1DA
330
1F
100
AcDbEntity
  8
0
100
AcDbLine
 10
-1.725267
 20
-0.386041
 30
0.0
 11
-1.732426
 21
-0.379926
 31
0.0
  0
LINE
  5
1DB
330
1F
100
AcDbEntity
  8
0
100
AcDbLine
 10
-1.732426
 20
-0.379926
 30
0.0
 11
-1.738541
 21
-0.372767
 31
0.0
  0
LINE
  5
1DC
330
1F
100
AcDbEntity
  8
0
100
AcDbLine
 10
-1.738541
 20
-0.372767
 30
0.0
 11
-1.74346
 21
-0.364739
 31
0.0
  0
LINE
  5
1DD
330
1F
100
AcDbEntity
  8
0
100
AcDbLine
 10
-1.74346
 20
-0.364739
 30
0.0
 11
-1.747063
 21
-0.356041
 31
0.0
  0
LINE
  5
1DE
330
1F
100
AcDbEntity
  8
0
100
AcDbLine
 10
-1.747063
 20
-0.356041
 30
0.0
 11
-1.749261
 21
-0.346886
 31
0.0
  0
LINE
  5
1DF
330
1F
100
AcDbEntity
  8
0
100
AcDbLine
 10
-1.749261
 20
-0.346886
 30
0.0
 11
-1.75
 21
-0.3375
 31
0.0
  0
LINE
  5
1E0
330
1F
100
AcDbEntity
  8
0
100
AcDbLine
 10
-1.75
 20
-0.3375
 30
0.0
 11
-1.749261
 21
-0.328114
 31
0.0
  0
LINE
  5
1E1
330
1F
100
AcDbEntity
  8
0
100
AcDbLine
 10
-1.749261
 20
-0.328114
 30
0.0
 11
-1.747063
 21
-0.318959
 31
0.0
  0
LINE
  5
1E2
330
1F
100
AcDbEntity
  8
0
100
AcDbLine
 10
-1.747063
 20
-0.318959
 30
0.0
 11
-1.74346
 21
-0.310261
 31
0.0
  0
LINE
  5
1E3
330
1F
100
AcDbEntity
  8
0
100
AcDbLine
 10
-1.74346
 20
-0.310261
 30
0.0
 11
-1.738541
 21
-0.302233
 31
0.0
  0
LINE
  5
1E4
330
1F
100
AcDbEntity
  8
0
100
AcDbLine
 10
-1.738541
 20
-0.302233
 30
0.0
 11
-1.732426
 21
-0.295074
 31
0.0
  0
LINE
  5
1E5
330
1F
100
AcDbEntity
  8
0
100
AcDbLine
 10
-1.732426
 20
-0.295074
 30
0.0
 11
-1.725267
 21
-0.288959
 31
0.0
  0
LINE
  5
1E6
330
1F
100
AcDbEntity
  8
0
100
AcDbLine
 10
-1.725267
 20
-0.288959
 30
0.0
 11
-1.717239
 21
-0.28404
 31
0.0
  0
LINE
  5
1E7
330
1F
100
AcDbEntity
  8
0
100
AcDbLine
 10
-1.717239
 20
-0.28404
 30
0.0
 11
-1.708541
 21
-0.280437
 31
0.0
  0
LINE
  5
1E8
330
1F
100
AcDbEntity
  8
0
100
AcDbLine
 10
-1.708541
 20
-0.280437
 30
0.0
 11
-1.699386
 21
-0.278239
 31
0.0
  0
LINE
  5
1E9
330
1F
100
AcDbEntity
  8
0
100
AcDbLine
 10
-1.699386
 20
-0.278239
 30
0.0
 11
-1.69
 21
-0.2775
 31
0.0
  0
LINE
  5
1EA
330
1F
100
AcDbEntity
  8
0
100
AcDbLine
 10
-1.69
 20
-0.2775
 30
0.0
 11
-1.680614
 21
-0.278239
 31
0.0
  0
LINE
  5
1EB
330
1F
100
AcDbEntity
  8
0
100
AcDbLine
 10
-1.680614
 20
-0.278239
 30
0.0
 11
-1.671459
 21
-0.280437
 31
0.0
  0
LINE
  5
1EC
330
1F
100
AcDbEntity
  8
0
100
AcDbLine
 10
-1.671459
 20
-0.280437
 30
0.0
 11
-1.662761
 21
-0.28404
 31
0.0
  0
LINE
  5
1ED
330
1F
100
AcDbEntity
  8
0
100
AcDbLine
 10
-1.662761
 20
-0.28404
 30
0.0
 11
-1.654733
 21
-0.288959
 31
0.0
  0
LINE
  5
1EE
330
1F
100
AcDbEntity
  8
0
100
AcDbLine
 10
-1.654733
 20
-0.288959
 30
0.0
 11
-1.647574
 21
-0.295074
 31
0.0
  0
LINE
  5
1EF
330
1F
100
AcDbEntity
  8
0
100
AcDbLine
 10
-1.647574
 20
-0.295074
 30
0.0
 11
-1.641459
 21
-0.302233
 31
0.0
  0
LINE
  5
1F0
330
1F
100
AcDbEntity
  8
0
100
AcDbLine
 10
-1.641459
 20
-0.302233
 30
0.0
 11
-1.63654
 21
-0.310261
 31
0.0
  0
LINE
  5
1F1
330
1F
100
AcDbEntity
  8
0
100
AcDbLine
 10
-1.63654
 20
-0.310261
 30
0.0
 11
-1.632937
 21
-0.318959
 31
0.0
  0
LINE
  5
1F2
330
1F
100
AcDbEntity
  8
0
100
AcDbLine
 10
-1.304721
 20
-0.290477
 30
0.0
 11
-1.264721
 21
-0.261415
 31
0.0
  0
LINE
  5
1F3
330
1F
100
AcDbEntity
  8
0
100
AcDbLine
 10
-1.264721
 20
-0.261415
 30
0.0
 11
-1.24
 21
-0.2575
 31
0.0
  0
LINE
  5
1F4
330
1F
100
AcDbEntity
  8
0
100
AcDbLine
 10
-1.24
 20
-0.2575
 30
0.0
 11
-1.215279
 21
-0.261415
 31
0.0
  0
LINE
  5
1F5
330
1F
100
AcDbEntity
  8
0
100
AcDbLine
 10
-1.215279
 20
-0.261415
 30
0.0
 11
-1.175279
 21
-0.290477
 31
0.0
  0
LINE
  5
1F6
330
1F
100
AcDbEntity
  8
0
100
AcDbLine
 10
-0.849261
 20
-0.328114
 30
0.0
 11
-0.847063
 21
-0.318959
 31
0.0
  0
LINE
  5
1F7
330
1F
100
AcDbEntity
  8
0
100
AcDbLine
 10
-1.72541
 20
0.015171
 30
0.0
 11
-1.774604
 21
-0.065106
 31
0.0
  0
LINE
  5
1F8
330
1F
100
AcDbEntity
  8
0
100
AcDbLine
 10
-1.664264
 20
0.086764
 30
0.0
 11
-1.72541
 21
0.015171
 31
0.0
  0
LINE
  5
1F9
330
1F
100
AcDbEntity
  8
0
100
AcDbLine
 10
-0.847063
 20
-0.318959
 30
0.0
 11
-0.84346
 21
-0.310261
 31
0.0
  0
LINE
  5
1FA
330
1F
100
AcDbEntity
  8
0
100
AcDbLine
 10
-1.249386
 20
0.053239
 30
0.0
 11
-1.258541
 21
0.055437
 31
0.0
  0
LINE
  5
1FB
330
1F
100
AcDbEntity
  8
0
100
AcDbLine
 10
-0.84346
 20
-0.310261
 30
0.0
 11
-0.838541
 21
-0.302233
 31
0.0
  0
LINE
  5
1FC
330
1F
100
AcDbEntity
  8
0
100
AcDbLine
 10
-1.699386
 20
-0.396761
 30
0.0
 11
-1.708541
 21
-0.394563
 31
0.0
  0
LINE
  5
1FD
330
1F
100
AcDbEntity
  8
0
100
AcDbLine
 10
-1.29346
 20
-0.760261
 30
0.0
 11
-1.288541
 21
-0.752233
 31
0.0
  0
LINE
  5
1FE
330
1F
100
AcDbEntity
  8
0
100
AcDbLine
 10
-1.32
 20
-0.3375
 30
0.0
 11
-1.304721
 21
-0.290477
 31
0.0
  0
LINE
  5
1FF
330
1F
100
AcDbEntity
  8
0
100
AcDbLine
 10
-1.632937
 20
-0.318959
 30
0.0
 11
-1.630739
 21
-0.328114
 31
0.0
  0
LINE
  5
200
330
1F
100
AcDbEntity
  8
0
100
AcDbLine
 10
-0.85
 20
-0.3375
 30
0.0
 11
-0.849261
 21
-0.328114
 31
0.0
  0
LINE
  5
201
330
1F
100
AcDbEntity
  8
0
100
AcDbLine
 10
-1.175279
 20
-0.290477
 30
0.0
 11
-1.16
 21
-0.3375
 31
0.0
  0
LINE
  5
202
330
1F
100
AcDbEntity
  8
0
100
AcDbLine
 10
-1.249298
 20
-0.333819
 30
0.0
 11
-1.25
 21
-0.3375
 31
0.0
  0
LINE
  5
203
330
1F
100
AcDbEntity
  8
0
100
AcDbLine
 10
-1.25
 20
-0.3375
 30
0.0
 11
-1.249298
 21
-0.341181
 31
0.0
  0
LINE
  5
204
330
1F
100
AcDbEntity
  8
0
100
AcDbLine
 10
-1.249298
 20
-0.341181
 30
0.0
 11
-1.247071
 21
-0.344571
 31
0.0
  0
LINE
  5
205
330
1F
100
AcDbEntity
  8
0
100
AcDbLine
 10
-1.247071
 20
-0.344571
 30
0.0
 11
-1.243681
 21
-0.346798
 31
0.0
  0
LINE
  5
206
330
1F
100
AcDbEntity
  8
0
100
AcDbLine
 10
-1.243681
 20
-0.346798
 30
0.0
 11
-1.24
 21
-0.3475
 31
0.0
  0
LINE
  5
207
330
1F
100
AcDbEntity
  8
0
100
AcDbLine
 10
-1.24
 20
-0.3475
 30
0.0
 11
-1.236319
 21
-0.346798
 31
0.0
  0
LINE
  5
208
330
1F
100
AcDbEntity
  8
0
100
AcDbLine
 10
-1.236319
 20
-0.346798
 30
0.0
 11
-1.232929
 21
-0.344571
 31
0.0
  0
LINE
  5
209
330
1F
100
AcDbEntity
  8
0
100
AcDbLine
 10
-1.232929
 20
-0.344571
 30
0.0
 11
-1.230702
 21
-0.341181
 31
0.0
  0
LINE
  5
20A
330
1F
100
AcDbEntity
  8
0
100
AcDbLine
 10
-1.230702
 20
-0.341181
 30
0.0
 11
-1.23
 21
-0.3375
 31
0.0
  0
LINE
  5
20B
330
1F
100
AcDbEntity
  8
0
100
AcDbLine
 10
-1.23
 20
-0.3375
 30
0.0
 11
-1.230702
 21
-0.333819
 31
0.0
  0
LINE
  5
20C
330
1F
100
AcDbEntity
  8
0
100
AcDbLine
 10
-1.230702
 20
-0.333819
 30
0.0
 11
-1.232929
 21
-0.330429
 31
0.0
  0
LINE
  5
20D
330
1F
100
AcDbEntity
  8
0
100
AcDbLine
 10
-1.232929
 20
-0.330429
 30
0.0
 11
-1.236319
 21
-0.328202
 31
0.0
  0
LINE
  5
20E
330
1F
100
AcDbEntity
  8
0
100
AcDbLine
 10
-1.236319
 20
-0.328202
 30
0.0
 11
-1.24
 21
-0.3275
 31
0.0
  0
LINE
  5
20F
330
1F
100
AcDbEntity
  8
0
100
AcDbLine
 10
-1.243681
 20
-0.328202
 30
0.0
 11
-1.247071
 21
-0.330429
 31
0.0
  0
LINE
  5
210
330
1F
100
AcDbEntity
  8
0
100
AcDbLine
 10
-1.247071
 20
-0.330429
 30
0.0
 11
-1.249298
 21
-0.333819
 31
0.0
  0
LINE
  5
211
330
1F
100
AcDbEntity
  8
0
100
AcDbLine
 10
-1.24
 20
-0.3275
 30
0.0
 11
-1.243681
 21
-0.328202
 31
0.0
  0
LINE
  5
212
330
1F
100
AcDbEntity
  8
0
100
AcDbLine
 10
-1.278543
 20
-0.322241
 30
0.0
 11
-1.281453
 21
-0.3375
 31
0.0
  0
LINE
  5
213
330
1F
100
AcDbEntity
  8
0
100
AcDbLine
 10
-1.281453
 20
-0.3375
 30
0.0
 11
-1.270969
 21
-0.3375
 31
0.0
  0
LINE
  5
214
330
1F
100
AcDbEntity
  8
0
100
AcDbLine
 10
-1.260484
 20
-0.3375
 30
0.0
 11
-1.25
 21
-0.3375
 31
0.0
  0
LINE
  5
215
330
1F
100
AcDbEntity
  8
0
100
AcDbLine
 10
-1.222132
 20
-0.327482
 30
0.0
 11
-1.212987
 21
-0.322355
 31
0.0
  0
LINE
  5
216
330
1F
100
AcDbEntity
  8
0
100
AcDbLine
 10
-1.230702
 20
-0.333819
 30
0.0
 11
-1.222132
 21
-0.327482
 31
0.0
  0
LINE
  5
217
330
1F
100
AcDbEntity
  8
0
100
AcDbLine
 10
-1.201457
 20
-0.352759
 30
0.0
 11
-1.198547
 21
-0.3375
 31
0.0
  0
LINE
  5
218
330
1F
100
AcDbEntity
  8
0
100
AcDbLine
 10
-1.281453
 20
-0.3375
 30
0.0
 11
-1.278543
 21
-0.352759
 31
0.0
  0
LINE
  5
219
330
1F
100
AcDbEntity
  8
0
100
AcDbLine
 10
-1.269312
 20
-0.308188
 30
0.0
 11
-1.278543
 21
-0.322241
 31
0.0
  0
LINE
  5
21A
330
1F
100
AcDbEntity
  8
0
100
AcDbLine
 10
-1.255259
 20
-0.298957
 30
0.0
 11
-1.269312
 21
-0.308188
 31
0.0
  0
LINE
  5
21B
330
1F
100
AcDbEntity
  8
0
100
AcDbLine
 10
-1.224741
 20
-0.298957
 30
0.0
 11
-1.24
 21
-0.296047
 31
0.0
  0
LINE
  5
21C
330
1F
100
AcDbEntity
  8
0
100
AcDbLine
 10
-1.24
 20
-0.296047
 30
0.0
 11
-1.255259
 21
-0.298957
 31
0.0
  0
LINE
  5
21D
330
1F
100
AcDbEntity
  8
0
100
AcDbLine
 10
-1.210688
 20
-0.308188
 30
0.0
 11
-1.224741
 21
-0.298957
 31
0.0
  0
LINE
  5
21E
330
1F
100
AcDbEntity
  8
0
100
AcDbLine
 10
-1.212987
 20
-0.322355
 30
0.0
 11
-1.201457
 21
-0.322241
 31
0.0
  0
LINE
  5
21F
330
1F
100
AcDbEntity
  8
0
100
AcDbLine
 10
-1.201457
 20
-0.322241
 30
0.0
 11
-1.210688
 21
-0.308188
 31
0.0
  0
LINE
  5
220
330
1F
100
AcDbEntity
  8
0
100
AcDbLine
 10
-1.210688
 20
-0.366812
 30
0.0
 11
-1.201457
 21
-0.352759
 31
0.0
  0
LINE
  5
221
330
1F
100
AcDbEntity
  8
0
100
AcDbLine
 10
-1.224741
 20
-0.376043
 30
0.0
 11
-1.210688
 21
-0.366812
 31
0.0
  0
LINE
  5
222
330
1F
100
AcDbEntity
  8
0
100
AcDbLine
 10
-1.255259
 20
-0.376043
 30
0.0
 11
-1.24
 21
-0.378953
 31
0.0
  0
LINE
  5
223
330
1F
100
AcDbEntity
  8
0
100
AcDbLine
 10
-1.24
 20
-0.378953
 30
0.0
 11
-1.224741
 21
-0.376043
 31
0.0
  0
LINE
  5
224
330
1F
100
AcDbEntity
  8
0
100
AcDbLine
 10
-1.269312
 20
-0.366812
 30
0.0
 11
-1.255259
 21
-0.376043
 31
0.0
  0
LINE
  5
225
330
1F
100
AcDbEntity
  8
0
100
AcDbLine
 10
-1.278543
 20
-0.352759
 30
0.0
 11
-1.269312
 21
-0.366812
 31
0.0
  0
LINE
  5
226
330
1F
100
AcDbEntity
  8
0
100
AcDbLine
 10
-1.201457
 20
-0.322241
 30
0.0
 11
-1.198547
 21
-0.3375
 31
0.0
  0
LINE
  5
227
330
1F
100
AcDbEntity
  8
0
100
AcDbLine
 10
1.94
 20
-0.9125
 30
0.0
 11
1.94
 21
-1.0325
 31
0.0
  0
LINE
  5
228
330
1F
100
AcDbEntity
  8
0
100
AcDbLine
 10
0.54
 20
-0.9125
 30
0.0
 11
0.54
 21
-1.0325
 31
0.0
  0
LINE
  5
229
330
1F
100
AcDbEntity
  8
0
100
AcDbLine
 10
1.128879
 20
-0.877065
 30
0.0
 11
1.120851
 21
-0.8775
 31
0.0
  0
LINE
  5
22A
330
1F
100
AcDbEntity
  8
0
100
AcDbLine
 10
1.15737
 20
-0.87576
 30
0.0
 11
1.147186
 21
-0.876196
 31
0.0
  0
LINE
  5
22B
330
1F
100
AcDbEntity
  8
0
100
AcDbLine
 10
1.29713
 20
-0.870692
 30
0.0
 11
1.283386
 21
-0.871198
 31
0.0
  0
LINE
  5
22C
330
1F
100
AcDbEntity
  8
0
100
AcDbLine
 10
1.371777
 20
-0.867144
 30
0.0
 11
1.364173
 21
-0.867652
 31
0.0
  0
LINE
  5
22D
330
1F
100
AcDbEntity
  8
0
100
AcDbLine
 10
1.355389
 20
-0.868159
 30
0.0
 11
1.345533
 21
-0.868665
 31
0.0
  0
LINE
  5
22E
330
1F
100
AcDbEntity
  8
0
100
AcDbLine
 10
1.364173
 20
-0.867652
 30
0.0
 11
1.355389
 21
-0.868159
 31
0.0
  0
LINE
  5
22F
330
1F
100
AcDbEntity
  8
0
100
AcDbLine
 10
1.383146
 20
-0.866132
 30
0.0
 11
1.378115
 21
-0.866638
 31
0.0
  0
LINE
  5
230
330
1F
100
AcDbEntity
  8
0
100
AcDbLine
 10
1.386831
 20
-0.865625
 30
0.0
 11
1.383146
 21
-0.866132
 31
0.0
  0
LINE
  5
231
330
1F
100
AcDbEntity
  8
0
100
AcDbLine
 10
1.378115
 20
-0.866638
 30
0.0
 11
1.371777
 21
-0.867144
 31
0.0
  0
LINE
  5
232
330
1F
100
AcDbEntity
  8
0
100
AcDbLine
 10
1.388237
 20
-0.8775
 30
0.0
 11
1.39
 21
-0.864553
 31
0.0
  0
LINE
  5
233
330
1F
100
AcDbEntity
  8
0
100
AcDbLine
 10
1.39
 20
-0.864553
 30
0.0
 11
1.380849
 21
-0.859164
 31
0.0
  0
LINE
  5
234
330
1F
100
AcDbEntity
  8
0
100
AcDbLine
 10
1.39
 20
-0.864553
 30
0.0
 11
1.386831
 21
-0.865625
 31
0.0
  0
LINE
  5
235
330
1F
100
AcDbEntity
  8
0
100
AcDbLine
 10
1.342492
 20
-0.860301
 30
0.0
 11
1.337239
 21
-0.860051
 31
0.0
  0
LINE
  5
236
330
1F
100
AcDbEntity
  8
0
100
AcDbLine
 10
1.296124
 20
-0.858379
 30
0.0
 11
1.286565
 21
-0.858024
 31
0.0
  0
LINE
  5
237
330
1F
100
AcDbEntity
  8
0
100
AcDbLine
 10
1.184793
 20
-0.85442
 30
0.0
 11
1.181198
 21
-0.854283
 31
0.0
  0
LINE
  5
238
330
1F
100
AcDbEntity
  8
0
100
AcDbLine
 10
1.090979
 20
-0.847509
 30
0.0
 11
1.094922
 21
-0.846874
 31
0.0
  0
LINE
  5
239
330
1F
100
AcDbEntity
  8
0
100
AcDbLine
 10
1.094922
 20
-0.846874
 30
0.0
 11
1.09931
 21
-0.846367
 31
0.0
  0
LINE
  5
23A
330
1F
100
AcDbEntity
  8
0
100
AcDbLine
 10
1.09931
 20
-0.846367
 30
0.0
 11
1.105029
 21
-0.845861
 31
0.0
  0
LINE
  5
23B
330
1F
100
AcDbEntity
  8
0
100
AcDbLine
 10
1.112043
 20
-0.845354
 30
0.0
 11
1.120273
 21
-0.844846
 31
0.0
  0
LINE
  5
23C
330
1F
100
AcDbEntity
  8
0
100
AcDbLine
 10
1.105029
 20
-0.845861
 30
0.0
 11
1.112043
 21
-0.845354
 31
0.0
  0
LINE
  5
23D
330
1F
100
AcDbEntity
  8
0
100
AcDbLine
 10
1.120273
 20
-0.844846
 30
0.0
 11
1.129618
 21
-0.84434
 31
0.0
  0
LINE
  5
23E
330
1F
100
AcDbEntity
  8
0
100
AcDbLine
 10
1.129618
 20
-0.84434
 30
0.0
 11
1.140006
 21
-0.843834
 31
0.0
  0
LINE
  5
23F
330
1F
100
AcDbEntity
  8
0
100
AcDbLine
 10
1.140006
 20
-0.843834
 30
0.0
 11
1.151369
 21
-0.843327
 31
0.0
  0
LINE
  5
240
330
1F
100
AcDbEntity
  8
0
100
AcDbLine
 10
1.163573
 20
-0.842819
 30
0.0
 11
1.176473
 21
-0.842313
 31
0.0
  0
LINE
  5
241
330
1F
100
AcDbEntity
  8
0
100
AcDbLine
 10
1.303794
 20
-0.837753
 30
0.0
 11
1.31671
 21
-0.837246
 31
0.0
  0
LINE
  5
242
330
1F
100
AcDbEntity
  8
0
100
AcDbLine
 10
1.31671
 20
-0.837246
 30
0.0
 11
1.328897
 21
-0.836738
 31
0.0
  0
LINE
  5
243
330
1F
100
AcDbEntity
  8
0
100
AcDbLine
 10
1.340213
 20
-0.836232
 30
0.0
 11
1.350582
 21
-0.835726
 31
0.0
  0
LINE
  5
244
330
1F
100
AcDbEntity
  8
0
100
AcDbLine
 10
1.328897
 20
-0.836738
 30
0.0
 11
1.340213
 21
-0.836232
 31
0.0
  0
LINE
  5
245
330
1F
100
AcDbEntity
  8
0
100
AcDbLine
 10
1.350582
 20
-0.835726
 30
0.0
 11
1.359925
 21
-0.835219
 31
0.0
  0
LINE
  5
246
330
1F
100
AcDbEntity
  8
0
100
AcDbLine
 10
1.359925
 20
-0.835219
 30
0.0
 11
1.368129
 21
-0.834711
 31
0.0
  0
LINE
  5
247
330
1F
100
AcDbEntity
  8
0
100
AcDbLine
 10
1.375099
 20
-0.834205
 30
0.0
 11
1.380792
 21
-0.833699
 31
0.0
  0
LINE
  5
248
330
1F
100
AcDbEntity
  8
0
100
AcDbLine
 10
1.368129
 20
-0.834711
 30
0.0
 11
1.375099
 21
-0.834205
 31
0.0
  0
LINE
  5
249
330
1F
100
AcDbEntity
  8
0
100
AcDbLine
 10
1.380792
 20
-0.833699
 30
0.0
 11
1.385162
 21
-0.833191
 31
0.0
  0
LINE
  5
24A
330
1F
100
AcDbEntity
  8
0
100
AcDbLine
 10
1.361738
 20
-0.828621
 30
0.0
 11
1.3587
 21
-0.828452
 31
0.0
  0
LINE
  5
24B
330
1F
100
AcDbEntity
  8
0
100
AcDbLine
 10
1.30181
 20
-0.825907
 30
0.0
 11
1.296687
 21
-0.825713
 31
0.0
  0
LINE
  5
24C
330
1F
100
AcDbEntity
  8
0
100
AcDbLine
 10
1.184823
 20
-0.821733
 30
0.0
 11
1.181195
 21
-0.821598
 31
0.0
  0
LINE
  5
24D
330
1F
100
AcDbEntity
  8
0
100
AcDbLine
 10
1.090818
 20
-0.8149
 30
0.0
 11
1.096942
 21
-0.813934
 31
0.0
  0
LINE
  5
24E
330
1F
100
AcDbEntity
  8
0
100
AcDbLine
 10
1.102001
 20
-0.813428
 30
0.0
 11
1.108381
 21
-0.812921
 31
0.0
  0
LINE
  5
24F
330
1F
100
AcDbEntity
  8
0
100
AcDbLine
 10
1.096942
 20
-0.813934
 30
0.0
 11
1.102001
 21
-0.813428
 31
0.0
  0
LINE
  5
250
330
1F
100
AcDbEntity
  8
0
100
AcDbLine
 10
1.108381
 20
-0.812921
 30
0.0
 11
1.116012
 21
-0.812413
 31
0.0
  0
LINE
  5
251
330
1F
100
AcDbEntity
  8
0
100
AcDbLine
 10
1.116012
 20
-0.812413
 30
0.0
 11
1.1248
 21
-0.811907
 31
0.0
  0
LINE
  5
252
330
1F
100
AcDbEntity
  8
0
100
AcDbLine
 10
1.134677
 20
-0.811401
 30
0.0
 11
1.145577
 21
-0.810894
 31
0.0
  0
LINE
  5
253
330
1F
100
AcDbEntity
  8
0
100
AcDbLine
 10
1.1248
 20
-0.811907
 30
0.0
 11
1.134677
 21
-0.811401
 31
0.0
  0
LINE
  5
254
330
1F
100
AcDbEntity
  8
0
100
AcDbLine
 10
1.145577
 20
-0.810894
 30
0.0
 11
1.157375
 21
-0.810386
 31
0.0
  0
LINE
  5
255
330
1F
100
AcDbEntity
  8
0
100
AcDbLine
 10
1.169928
 20
-0.80988
 30
0.0
 11
1.183143
 21
-0.809374
 31
0.0
  0
LINE
  5
256
330
1F
100
AcDbEntity
  8
0
100
AcDbLine
 10
1.157375
 20
-0.810386
 30
0.0
 11
1.169928
 21
-0.80988
 31
0.0
  0
LINE
  5
257
330
1F
100
AcDbEntity
  8
0
100
AcDbLine
 10
1.283358
 20
-0.805826
 30
0.0
 11
1.297103
 21
-0.80532
 31
0.0
  0
LINE
  5
258
330
1F
100
AcDbEntity
  8
0
100
AcDbLine
 10
1.297103
 20
-0.80532
 30
0.0
 11
1.310338
 21
-0.804813
 31
0.0
  0
LINE
  5
259
330
1F
100
AcDbEntity
  8
0
100
AcDbLine
 10
1.310338
 20
-0.804813
 30
0.0
 11
1.322904
 21
-0.804305
 31
0.0
  0
LINE
  5
25A
330
1F
100
AcDbEntity
  8
0
100
AcDbLine
 10
1.334656
 20
-0.803799
 30
0.0
 11
1.345512
 21
-0.803293
 31
0.0
  0
LINE
  5
25B
330
1F
100
AcDbEntity
  8
0
100
AcDbLine
 10
1.322904
 20
-0.804305
 30
0.0
 11
1.334656
 21
-0.803799
 31
0.0
  0
LINE
  5
25C
330
1F
100
AcDbEntity
  8
0
100
AcDbLine
 10
1.345512
 20
-0.803293
 30
0.0
 11
1.355393
 21
-0.802785
 31
0.0
  0
LINE
  5
25D
330
1F
100
AcDbEntity
  8
0
100
AcDbLine
 10
1.364176
 20
-0.802278
 30
0.0
 11
1.371763
 21
-0.801772
 31
0.0
  0
LINE
  5
25E
330
1F
100
AcDbEntity
  8
0
100
AcDbLine
 10
1.355393
 20
-0.802785
 30
0.0
 11
1.364176
 21
-0.802278
 31
0.0
  0
LINE
  5
25F
330
1F
100
AcDbEntity
  8
0
100
AcDbLine
 10
1.371763
 20
-0.801772
 30
0.0
 11
1.378103
 21
-0.801266
 31
0.0
  0
LINE
  5
260
330
1F
100
AcDbEntity
  8
0
100
AcDbLine
 10
1.378103
 20
-0.801266
 30
0.0
 11
1.383148
 21
-0.800758
 31
0.0
  0
LINE
  5
261
330
1F
100
AcDbEntity
  8
0
100
AcDbLine
 10
1.383148
 20
-0.800758
 30
0.0
 11
1.386138
 21
-0.800363
 31
0.0
  0
LINE
  5
262
330
1F
100
AcDbEntity
  8
0
100
AcDbLine
 10
1.38954
 20
-0.798942
 30
0.0
 11
1.380879
 21
-0.793945
 31
0.0
  0
LINE
  5
263
330
1F
100
AcDbEntity
  8
0
100
AcDbLine
 10
1.350877
 20
-0.795342
 30
0.0
 11
1.347895
 21
-0.795185
 31
0.0
  0
LINE
  5
264
330
1F
100
AcDbEntity
  8
0
100
AcDbLine
 10
1.328481
 20
-0.794294
 30
0.0
 11
1.325652
 21
-0.79417
 31
0.0
  0
LINE
  5
265
330
1F
100
AcDbEntity
  8
0
100
AcDbLine
 10
1.286263
 20
-0.792639
 30
0.0
 11
1.282642
 21
-0.792509
 31
0.0
  0
LINE
  5
266
330
1F
100
AcDbEntity
  8
0
100
AcDbLine
 10
1.300223
 20
-0.793157
 30
0.0
 11
1.297091
 21
-0.793041
 31
0.0
  0
LINE
  5
267
330
1F
100
AcDbEntity
  8
0
100
AcDbLine
 10
1.272063
 20
-0.792129
 30
0.0
 11
1.268142
 21
-0.791991
 31
0.0
  0
LINE
  5
268
330
1F
100
AcDbEntity
  8
0
100
AcDbLine
 10
1.184813
 20
-0.789047
 30
0.0
 11
1.181198
 21
-0.78891
 31
0.0
  0
LINE
  5
269
330
1F
100
AcDbEntity
  8
0
100
AcDbLine
 10
1.094914
 20
-0.781501
 30
0.0
 11
1.0993
 21
-0.780995
 31
0.0
  0
LINE
  5
26A
330
1F
100
AcDbEntity
  8
0
100
AcDbLine
 10
1.0993
 20
-0.780995
 30
0.0
 11
1.105031
 21
-0.780488
 31
0.0
  0
LINE
  5
26B
330
1F
100
AcDbEntity
  8
0
100
AcDbLine
 10
1.105031
 20
-0.780488
 30
0.0
 11
1.112046
 21
-0.77998
 31
0.0
  0
LINE
  5
26C
330
1F
100
AcDbEntity
  8
0
100
AcDbLine
 10
1.120256
 20
-0.779474
 30
0.0
 11
1.129598
 21
-0.778968
 31
0.0
  0
LINE
  5
26D
330
1F
100
AcDbEntity
  8
0
100
AcDbLine
 10
1.112046
 20
-0.77998
 30
0.0
 11
1.120256
 21
-0.779474
 31
0.0
  0
LINE
  5
26E
330
1F
100
AcDbEntity
  8
0
100
AcDbLine
 10
1.129598
 20
-0.778968
 30
0.0
 11
1.14001
 21
-0.778461
 31
0.0
  0
LINE
  5
26F
330
1F
100
AcDbEntity
  8
0
100
AcDbLine
 10
1.151373
 20
-0.777953
 30
0.0
 11
1.163548
 21
-0.777447
 31
0.0
  0
LINE
  5
270
330
1F
100
AcDbEntity
  8
0
100
AcDbLine
 10
1.14001
 20
-0.778461
 30
0.0
 11
1.151373
 21
-0.777953
 31
0.0
  0
LINE
  5
271
330
1F
100
AcDbEntity
  8
0
100
AcDbLine
 10
1.163548
 20
-0.777447
 30
0.0
 11
1.176447
 21
-0.776941
 31
0.0
  0
LINE
  5
272
330
1F
100
AcDbEntity
  8
0
100
AcDbLine
 10
1.316715
 20
-0.771872
 30
0.0
 11
1.328874
 21
-0.771366
 31
0.0
  0
LINE
  5
273
330
1F
100
AcDbEntity
  8
0
100
AcDbLine
 10
1.303799
 20
-0.772379
 30
0.0
 11
1.316715
 21
-0.771872
 31
0.0
  0
LINE
  5
274
330
1F
100
AcDbEntity
  8
0
100
AcDbLine
 10
1.328874
 20
-0.771366
 30
0.0
 11
1.340192
 21
-0.77086
 31
0.0
  0
LINE
  5
275
330
1F
100
AcDbEntity
  8
0
100
AcDbLine
 10
1.350586
 20
-0.770352
 30
0.0
 11
1.359928
 21
-0.769845
 31
0.0
  0
LINE
  5
276
330
1F
100
AcDbEntity
  8
0
100
AcDbLine
 10
1.340192
 20
-0.77086
 30
0.0
 11
1.350586
 21
-0.770352
 31
0.0
  0
LINE
  5
277
330
1F
100
AcDbEntity
  8
0
100
AcDbLine
 10
1.359928
 20
-0.769845
 30
0.0
 11
1.368114
 21
-0.769339
 31
0.0
  0
LINE
  5
278
330
1F
100
AcDbEntity
  8
0
100
AcDbLine
 10
1.368114
 20
-0.769339
 30
0.0
 11
1.375087
 21
-0.768833
 31
0.0
  0
LINE
  5
279
330
1F
100
AcDbEntity
  8
0
100
AcDbLine
 10
1.380794
 20
-0.768325
 30
0.0
 11
1.384803
 21
-0.767867
 31
0.0
  0
LINE
  5
27A
330
1F
100
AcDbEntity
  8
0
100
AcDbLine
 10
1.375087
 20
-0.768833
 30
0.0
 11
1.380794
 21
-0.768325
 31
0.0
  0
LINE
  5
27B
330
1F
100
AcDbEntity
  8
0
100
AcDbLine
 10
1.384803
 20
-0.767867
 30
0.0
 11
1.387682
 21
-0.767409
 31
0.0
  0
LINE
  5
27C
330
1F
100
AcDbEntity
  8
0
100
AcDbLine
 10
1.387682
 20
-0.767409
 30
0.0
 11
1.379988
 21
-0.760641
 31
0.0
  0
LINE
  5
27D
330
1F
100
AcDbEntity
  8
0
100
AcDbLine
 10
1.348378
 20
-0.762528
 30
0.0
 11
1.342685
 21
-0.762244
 31
0.0
  0
LINE
  5
27E
330
1F
100
AcDbEntity
  8
0
100
AcDbLine
 10
1.33528
 20
-0.761907
 30
0.0
 11
1.33155
 21
-0.761737
 31
0.0
  0
LINE
  5
27F
330
1F
100
AcDbEntity
  8
0
100
AcDbLine
 10
1.286119
 20
-0.759949
 30
0.0
 11
1.282349
 21
-0.759812
 31
0.0
  0
LINE
  5
280
330
1F
100
AcDbEntity
  8
0
100
AcDbLine
 10
1.270958
 20
-0.759404
 30
0.0
 11
1.267115
 21
-0.759268
 31
0.0
  0
LINE
  5
281
330
1F
100
AcDbEntity
  8
0
100
AcDbLine
 10
1.18483
 20
-0.75636
 30
0.0
 11
1.181195
 21
-0.756225
 31
0.0
  0
LINE
  5
282
330
1F
100
AcDbEntity
  8
0
100
AcDbLine
 10
1.093231
 20
-0.749068
 30
0.0
 11
1.096934
 21
-0.748562
 31
0.0
  0
LINE
  5
283
330
1F
100
AcDbEntity
  8
0
100
AcDbLine
 10
1.096934
 20
-0.748562
 30
0.0
 11
1.102003
 21
-0.748055
 31
0.0
  0
LINE
  5
284
330
1F
100
AcDbEntity
  8
0
100
AcDbLine
 10
1.108383
 20
-0.747547
 30
0.0
 11
1.115996
 21
-0.747041
 31
0.0
  0
LINE
  5
285
330
1F
100
AcDbEntity
  8
0
100
AcDbLine
 10
1.102003
 20
-0.748055
 30
0.0
 11
1.108383
 21
-0.747547
 31
0.0
  0
LINE
  5
286
330
1F
100
AcDbEntity
  8
0
100
AcDbLine
 10
1.115996
 20
-0.747041
 30
0.0
 11
1.124781
 21
-0.746535
 31
0.0
  0
LINE
  5
287
330
1F
100
AcDbEntity
  8
0
100
AcDbLine
 10
1.124781
 20
-0.746535
 30
0.0
 11
1.134681
 21
-0.746028
 31
0.0
  0
LINE
  5
288
330
1F
100
AcDbEntity
  8
0
100
AcDbLine
 10
1.145581
 20
-0.74552
 30
0.0
 11
1.157351
 21
-0.745014
 31
0.0
  0
LINE
  5
289
330
1F
100
AcDbEntity
  8
0
100
AcDbLine
 10
1.134681
 20
-0.746028
 30
0.0
 11
1.145581
 21
-0.74552
 31
0.0
  0
LINE
  5
28A
330
1F
100
AcDbEntity
  8
0
100
AcDbLine
 10
1.169902
 20
-0.744508
 30
0.0
 11
1.183148
 21
-0.744001
 31
0.0
  0
LINE
  5
28B
330
1F
100
AcDbEntity
  8
0
100
AcDbLine
 10
1.297108
 20
-0.739946
 30
0.0
 11
1.310343
 21
-0.739439
 31
0.0
  0
LINE
  5
28C
330
1F
100
AcDbEntity
  8
0
100
AcDbLine
 10
1.283331
 20
-0.740454
 30
0.0
 11
1.297108
 21
-0.739946
 31
0.0
  0
LINE
  5
28D
330
1F
100
AcDbEntity
  8
0
100
AcDbLine
 10
1.310343
 20
-0.739439
 30
0.0
 11
1.32288
 21
-0.738933
 31
0.0
  0
LINE
  5
28E
330
1F
100
AcDbEntity
  8
0
100
AcDbLine
 10
1.334634
 20
-0.738427
 30
0.0
 11
1.345516
 21
-0.737919
 31
0.0
  0
LINE
  5
28F
330
1F
100
AcDbEntity
  8
0
100
AcDbLine
 10
1.32288
 20
-0.738933
 30
0.0
 11
1.334634
 21
-0.738427
 31
0.0
  0
LINE
  5
290
330
1F
100
AcDbEntity
  8
0
100
AcDbLine
 10
1.345516
 20
-0.737919
 30
0.0
 11
1.355396
 21
-0.737412
 31
0.0
  0
LINE
  5
291
330
1F
100
AcDbEntity
  8
0
100
AcDbLine
 10
1.355396
 20
-0.737412
 30
0.0
 11
1.36416
 21
-0.736906
 31
0.0
  0
LINE
  5
292
330
1F
100
AcDbEntity
  8
0
100
AcDbLine
 10
1.371749
 20
-0.7364
 30
0.0
 11
1.378106
 21
-0.735892
 31
0.0
  0
LINE
  5
293
330
1F
100
AcDbEntity
  8
0
100
AcDbLine
 10
1.36416
 20
-0.736906
 30
0.0
 11
1.371749
 21
-0.7364
 31
0.0
  0
LINE
  5
294
330
1F
100
AcDbEntity
  8
0
100
AcDbLine
 10
1.378106
 20
-0.735892
 30
0.0
 11
1.383149
 21
-0.735385
 31
0.0
  0
LINE
  5
295
330
1F
100
AcDbEntity
  8
0
100
AcDbLine
 10
1.383149
 20
-0.735385
 30
0.0
 11
1.386826
 21
-0.734879
 31
0.0
  0
LINE
  5
296
330
1F
100
AcDbEntity
  8
0
100
AcDbLine
 10
1.388818
 20
-0.733029
 30
0.0
 11
1.380215
 21
-0.728032
 31
0.0
  0
LINE
  5
297
330
1F
100
AcDbEntity
  8
0
100
AcDbLine
 10
1.347891
 20
-0.729811
 30
0.0
 11
1.345284
 21
-0.729687
 31
0.0
  0
LINE
  5
298
330
1F
100
AcDbEntity
  8
0
100
AcDbLine
 10
1.341215
 20
-0.729493
 30
0.0
 11
1.337231
 21
-0.729304
 31
0.0
  0
LINE
  5
299
330
1F
100
AcDbEntity
  8
0
100
AcDbLine
 10
1.313309
 20
-0.728291
 30
0.0
 11
1.307093
 21
-0.72805
 31
0.0
  0
LINE
  5
29A
330
1F
100
AcDbEntity
  8
0
100
AcDbLine
 10
1.298001
 20
-0.727702
 30
0.0
 11
1.293146
 21
-0.727521
 31
0.0
  0
LINE
  5
29B
330
1F
100
AcDbEntity
  8
0
100
AcDbLine
 10
1.282014
 20
-0.727113
 30
0.0
 11
1.278943
 21
-0.727003
 31
0.0
  0
LINE
  5
29C
330
1F
100
AcDbEntity
  8
0
100
AcDbLine
 10
1.184809
 20
-0.723674
 30
0.0
 11
1.181198
 21
-0.723537
 31
0.0
  0
LINE
  5
29D
330
1F
100
AcDbEntity
  8
0
100
AcDbLine
 10
1.092319
 20
-0.716377
 30
0.0
 11
1.094907
 21
-0.716129
 31
0.0
  0
LINE
  5
29E
330
1F
100
AcDbEntity
  8
0
100
AcDbLine
 10
1.099302
 20
-0.715622
 30
0.0
 11
1.105034
 21
-0.715114
 31
0.0
  0
LINE
  5
29F
330
1F
100
AcDbEntity
  8
0
100
AcDbLine
 10
1.094907
 20
-0.716129
 30
0.0
 11
1.099302
 21
-0.715622
 31
0.0
  0
LINE
  5
2A0
330
1F
100
AcDbEntity
  8
0
100
AcDbLine
 10
1.105034
 20
-0.715114
 30
0.0
 11
1.112031
 21
-0.714608
 31
0.0
  0
LINE
  5
2A1
330
1F
100
AcDbEntity
  8
0
100
AcDbLine
 10
1.112031
 20
-0.714608
 30
0.0
 11
1.120238
 21
-0.714102
 31
0.0
  0
LINE
  5
2A2
330
1F
100
AcDbEntity
  8
0
100
AcDbLine
 10
1.129602
 20
-0.713594
 30
0.0
 11
1.140014
 21
-0.713087
 31
0.0
  0
LINE
  5
2A3
330
1F
100
AcDbEntity
  8
0
100
AcDbLine
 10
1.120238
 20
-0.714102
 30
0.0
 11
1.129602
 21
-0.713594
 31
0.0
  0
LINE
  5
2A4
330
1F
100
AcDbEntity
  8
0
100
AcDbLine
 10
1.140014
 20
-0.713087
 30
0.0
 11
1.15135
 21
-0.712581
 31
0.0
  0
LINE
  5
2A5
330
1F
100
AcDbEntity
  8
0
100
AcDbLine
 10
1.163524
 20
-0.712075
 30
0.0
 11
1.176452
 21
-0.711567
 31
0.0
  0
LINE
  5
2A6
330
1F
100
AcDbEntity
  8
0
100
AcDbLine
 10
1.31669
 20
-0.7065
 30
0.0
 11
1.32885
 21
-0.705994
 31
0.0
  0
LINE
  5
2A7
330
1F
100
AcDbEntity
  8
0
100
AcDbLine
 10
1.303804
 20
-0.707006
 30
0.0
 11
1.31669
 21
-0.7065
 31
0.0
  0
LINE
  5
2A8
330
1F
100
AcDbEntity
  8
0
100
AcDbLine
 10
1.32885
 20
-0.705994
 30
0.0
 11
1.340196
 21
-0.705486
 31
0.0
  0
LINE
  5
2A9
330
1F
100
AcDbEntity
  8
0
100
AcDbLine
 10
1.340196
 20
-0.705486
 30
0.0
 11
1.350589
 21
-0.704979
 31
0.0
  0
LINE
  5
2AA
330
1F
100
AcDbEntity
  8
0
100
AcDbLine
 10
1.359911
 20
-0.704473
 30
0.0
 11
1.368099
 21
-0.703967
 31
0.0
  0
LINE
  5
2AB
330
1F
100
AcDbEntity
  8
0
100
AcDbLine
 10
1.350589
 20
-0.704979
 30
0.0
 11
1.359911
 21
-0.704473
 31
0.0
  0
LINE
  5
2AC
330
1F
100
AcDbEntity
  8
0
100
AcDbLine
 10
1.368099
 20
-0.703967
 30
0.0
 11
1.375089
 21
-0.703459
 31
0.0
  0
LINE
  5
2AD
330
1F
100
AcDbEntity
  8
0
100
AcDbLine
 10
1.375089
 20
-0.703459
 30
0.0
 11
1.380796
 21
-0.702952
 31
0.0
  0
LINE
  5
2AE
330
1F
100
AcDbEntity
  8
0
100
AcDbLine
 10
1.385156
 20
-0.702446
 30
0.0
 11
1.388142
 21
-0.701939
 31
0.0
  0
LINE
  5
2AF
330
1F
100
AcDbEntity
  8
0
100
AcDbLine
 10
1.380796
 20
-0.702952
 30
0.0
 11
1.385156
 21
-0.702446
 31
0.0
  0
LINE
  5
2B0
330
1F
100
AcDbEntity
  8
0
100
AcDbLine
 10
1.388142
 20
-0.701939
 30
0.0
 11
1.380395
 21
-0.695422
 31
0.0
  0
LINE
  5
2B1
330
1F
100
AcDbEntity
  8
0
100
AcDbLine
 10
1.335965
 20
-0.696565
 30
0.0
 11
1.331573
 21
-0.696364
 31
0.0
  0
LINE
  5
2B2
330
1F
100
AcDbEntity
  8
0
100
AcDbLine
 10
1.285758
 20
-0.694563
 30
0.0
 11
1.279579
 21
-0.694337
 31
0.0
  0
LINE
  5
2B3
330
1F
100
AcDbEntity
  8
0
100
AcDbLine
 10
1.184814
 20
-0.690986
 30
0.0
 11
1.181195
 21
-0.690852
 31
0.0
  0
LINE
  5
2B4
330
1F
100
AcDbEntity
  8
0
100
AcDbLine
 10
1.090914
 20
-0.684202
 30
0.0
 11
1.096935
 21
-0.683188
 31
0.0
  0
LINE
  5
2B5
330
1F
100
AcDbEntity
  8
0
100
AcDbLine
 10
1.096935
 20
-0.683188
 30
0.0
 11
1.102005
 21
-0.682681
 31
0.0
  0
LINE
  5
2B6
330
1F
100
AcDbEntity
  8
0
100
AcDbLine
 10
1.102005
 20
-0.682681
 30
0.0
 11
1.10837
 21
-0.682175
 31
0.0
  0
LINE
  5
2B7
330
1F
100
AcDbEntity
  8
0
100
AcDbLine
 10
1.11598
 20
-0.681669
 30
0.0
 11
1.124785
 21
-0.681161
 31
0.0
  0
LINE
  5
2B8
330
1F
100
AcDbEntity
  8
0
100
AcDbLine
 10
1.10837
 20
-0.682175
 30
0.0
 11
1.11598
 21
-0.681669
 31
0.0
  0
LINE
  5
2B9
330
1F
100
AcDbEntity
  8
0
100
AcDbLine
 10
1.124785
 20
-0.681161
 30
0.0
 11
1.134685
 21
-0.680654
 31
0.0
  0
LINE
  5
2BA
330
1F
100
AcDbEntity
  8
0
100
AcDbLine
 10
1.145559
 20
-0.680148
 30
0.0
 11
1.157327
 21
-0.679642
 31
0.0
  0
LINE
  5
2BB
330
1F
100
AcDbEntity
  8
0
100
AcDbLine
 10
1.134685
 20
-0.680654
 30
0.0
 11
1.145559
 21
-0.680148
 31
0.0
  0
LINE
  5
2BC
330
1F
100
AcDbEntity
  8
0
100
AcDbLine
 10
1.169907
 20
-0.679134
 30
0.0
 11
1.183153
 21
-0.678627
 31
0.0
  0
LINE
  5
2BD
330
1F
100
AcDbEntity
  8
0
100
AcDbLine
 10
1.297113
 20
-0.674573
 30
0.0
 11
1.310317
 21
-0.674067
 31
0.0
  0
LINE
  5
2BE
330
1F
100
AcDbEntity
  8
0
100
AcDbLine
 10
1.283336
 20
-0.67508
 30
0.0
 11
1.297113
 21
-0.674573
 31
0.0
  0
LINE
  5
2BF
330
1F
100
AcDbEntity
  8
0
100
AcDbLine
 10
1.310317
 20
-0.674067
 30
0.0
 11
1.322856
 21
-0.673561
 31
0.0
  0
LINE
  5
2C0
330
1F
100
AcDbEntity
  8
0
100
AcDbLine
 10
1.322856
 20
-0.673561
 30
0.0
 11
1.334638
 21
-0.673053
 31
0.0
  0
LINE
  5
2C1
330
1F
100
AcDbEntity
  8
0
100
AcDbLine
 10
1.34552
 20
-0.672546
 30
0.0
 11
1.355378
 21
-0.67204
 31
0.0
  0
LINE
  5
2C2
330
1F
100
AcDbEntity
  8
0
100
AcDbLine
 10
1.334638
 20
-0.673053
 30
0.0
 11
1.34552
 21
-0.672546
 31
0.0
  0
LINE
  5
2C3
330
1F
100
AcDbEntity
  8
0
100
AcDbLine
 10
1.355378
 20
-0.67204
 30
0.0
 11
1.364144
 21
-0.671533
 31
0.0
  0
LINE
  5
2C4
330
1F
100
AcDbEntity
  8
0
100
AcDbLine
 10
1.364144
 20
-0.671533
 30
0.0
 11
1.371752
 21
-0.671026
 31
0.0
  0
LINE
  5
2C5
330
1F
100
AcDbEntity
  8
0
100
AcDbLine
 10
1.378108
 20
-0.670519
 30
0.0
 11
1.383141
 21
-0.670013
 31
0.0
  0
LINE
  5
2C6
330
1F
100
AcDbEntity
  8
0
100
AcDbLine
 10
1.371752
 20
-0.671026
 30
0.0
 11
1.378108
 21
-0.670519
 31
0.0
  0
LINE
  5
2C7
330
1F
100
AcDbEntity
  8
0
100
AcDbLine
 10
1.383141
 20
-0.670013
 30
0.0
 11
1.38682
 21
-0.669506
 31
0.0
  0
LINE
  5
2C8
330
1F
100
AcDbEntity
  8
0
100
AcDbLine
 10
1.389182
 20
-0.667809
 30
0.0
 11
1.380553
 21
-0.662812
 31
0.0
  0
LINE
  5
2C9
330
1F
100
AcDbEntity
  8
0
100
AcDbLine
 10
1.352717
 20
-0.664692
 30
0.0
 11
1.349423
 21
-0.664518
 31
0.0
  0
LINE
  5
2CA
330
1F
100
AcDbEntity
  8
0
100
AcDbLine
 10
1.341509
 20
-0.664134
 30
0.0
 11
1.337253
 21
-0.663931
 31
0.0
  0
LINE
  5
2CB
330
1F
100
AcDbEntity
  8
0
100
AcDbLine
 10
1.331758
 20
-0.663691
 30
0.0
 11
1.325699
 21
-0.663425
 31
0.0
  0
LINE
  5
2CC
330
1F
100
AcDbEntity
  8
0
100
AcDbLine
 10
1.293635
 20
-0.662166
 30
0.0
 11
1.289335
 21
-0.662007
 31
0.0
  0
LINE
  5
2CD
330
1F
100
AcDbEntity
  8
0
100
AcDbLine
 10
1.281214
 20
-0.661711
 30
0.0
 11
1.277945
 21
-0.661594
 31
0.0
  0
LINE
  5
2CE
330
1F
100
AcDbEntity
  8
0
100
AcDbLine
 10
1.184777
 20
-0.658299
 30
0.0
 11
1.181198
 21
-0.658163
 31
0.0
  0
LINE
  5
2CF
330
1F
100
AcDbEntity
  8
0
100
AcDbLine
 10
1.090968
 20
-0.651554
 30
0.0
 11
1.094908
 21
-0.650755
 31
0.0
  0
LINE
  5
2D0
330
1F
100
AcDbEntity
  8
0
100
AcDbLine
 10
1.094908
 20
-0.650755
 30
0.0
 11
1.099304
 21
-0.650248
 31
0.0
  0
LINE
  5
2D1
330
1F
100
AcDbEntity
  8
0
100
AcDbLine
 10
1.105021
 20
-0.649742
 30
0.0
 11
1.112016
 21
-0.649236
 31
0.0
  0
LINE
  5
2D2
330
1F
100
AcDbEntity
  8
0
100
AcDbLine
 10
1.099304
 20
-0.650248
 30
0.0
 11
1.105021
 21
-0.649742
 31
0.0
  0
LINE
  5
2D3
330
1F
100
AcDbEntity
  8
0
100
AcDbLine
 10
1.112016
 20
-0.649236
 30
0.0
 11
1.120241
 21
-0.648728
 31
0.0
  0
LINE
  5
2D4
330
1F
100
AcDbEntity
  8
0
100
AcDbLine
 10
1.129605
 20
-0.648221
 30
0.0
 11
1.139993
 21
-0.647715
 31
0.0
  0
LINE
  5
2D5
330
1F
100
AcDbEntity
  8
0
100
AcDbLine
 10
1.120241
 20
-0.648728
 30
0.0
 11
1.129605
 21
-0.648221
 31
0.0
  0
LINE
  5
2D6
330
1F
100
AcDbEntity
  8
0
100
AcDbLine
 10
1.139993
 20
-0.647715
 30
0.0
 11
1.151326
 21
-0.647209
 31
0.0
  0
LINE
  5
2D7
330
1F
100
AcDbEntity
  8
0
100
AcDbLine
 10
1.151326
 20
-0.647209
 30
0.0
 11
1.163528
 21
-0.646701
 31
0.0
  0
LINE
  5
2D8
330
1F
100
AcDbEntity
  8
0
100
AcDbLine
 10
1.163528
 20
-0.646701
 30
0.0
 11
1.176457
 21
-0.646194
 31
0.0
  0
LINE
  5
2D9
330
1F
100
AcDbEntity
  8
0
100
AcDbLine
 10
1.303777
 20
-0.641634
 30
0.0
 11
1.316665
 21
-0.641127
 31
0.0
  0
LINE
  5
2DA
330
1F
100
AcDbEntity
  8
0
100
AcDbLine
 10
1.328855
 20
-0.64062
 30
0.0
 11
1.3402
 21
-0.640113
 31
0.0
  0
LINE
  5
2DB
330
1F
100
AcDbEntity
  8
0
100
AcDbLine
 10
1.316665
 20
-0.641127
 30
0.0
 11
1.328855
 21
-0.64062
 31
0.0
  0
LINE
  5
2DC
330
1F
100
AcDbEntity
  8
0
100
AcDbLine
 10
1.3402
 20
-0.640113
 30
0.0
 11
1.35057
 21
-0.639607
 31
0.0
  0
LINE
  5
2DD
330
1F
100
AcDbEntity
  8
0
100
AcDbLine
 10
1.35057
 20
-0.639607
 30
0.0
 11
1.359894
 21
-0.6391
 31
0.0
  0
LINE
  5
2DE
330
1F
100
AcDbEntity
  8
0
100
AcDbLine
 10
1.368101
 20
-0.638593
 30
0.0
 11
1.375091
 21
-0.638086
 31
0.0
  0
LINE
  5
2DF
330
1F
100
AcDbEntity
  8
0
100
AcDbLine
 10
1.359894
 20
-0.6391
 30
0.0
 11
1.368101
 21
-0.638593
 31
0.0
  0
LINE
  5
2E0
330
1F
100
AcDbEntity
  8
0
100
AcDbLine
 10
1.375091
 20
-0.638086
 30
0.0
 11
1.380786
 21
-0.637579
 31
0.0
  0
LINE
  5
2E1
330
1F
100
AcDbEntity
  8
0
100
AcDbLine
 10
1.380786
 20
-0.637579
 30
0.0
 11
1.385148
 21
-0.637073
 31
0.0
  0
LINE
  5
2E2
330
1F
100
AcDbEntity
  8
0
100
AcDbLine
 10
1.385148
 20
-0.637073
 30
0.0
 11
1.388143
 21
-0.636566
 31
0.0
  0
LINE
  5
2E3
330
1F
100
AcDbEntity
  8
0
100
AcDbLine
 10
1.388143
 20
-0.636566
 30
0.0
 11
1.380688
 21
-0.630203
 31
0.0
  0
LINE
  5
2E4
330
1F
100
AcDbEntity
  8
0
100
AcDbLine
 10
1.336909
 20
-0.631234
 30
0.0
 11
1.331596
 21
-0.630992
 31
0.0
  0
LINE
  5
2E5
330
1F
100
AcDbEntity
  8
0
100
AcDbLine
 10
1.306836
 20
-0.629977
 30
0.0
 11
1.30383
 21
-0.629864
 31
0.0
  0
LINE
  5
2E6
330
1F
100
AcDbEntity
  8
0
100
AcDbLine
 10
1.277358
 20
-0.628885
 30
0.0
 11
1.274751
 21
-0.628792
 31
0.0
  0
LINE
  5
2E7
330
1F
100
AcDbEntity
  8
0
100
AcDbLine
 10
1.184771
 20
-0.625611
 30
0.0
 11
1.181195
 21
-0.625478
 31
0.0
  0
LINE
  5
2E8
330
1F
100
AcDbEntity
  8
0
100
AcDbLine
 10
1.096937
 20
-0.617815
 30
0.0
 11
1.101994
 21
-0.617309
 31
0.0
  0
LINE
  5
2E9
330
1F
100
AcDbEntity
  8
0
100
AcDbLine
 10
1.091418
 20
-0.618548
 30
0.0
 11
1.096937
 21
-0.617815
 31
0.0
  0
LINE
  5
2EA
330
1F
100
AcDbEntity
  8
0
100
AcDbLine
 10
1.101994
 20
-0.617309
 30
0.0
 11
1.108356
 21
-0.616803
 31
0.0
  0
LINE
  5
2EB
330
1F
100
AcDbEntity
  8
0
100
AcDbLine
 10
1.115983
 20
-0.616295
 30
0.0
 11
1.124788
 21
-0.615788
 31
0.0
  0
LINE
  5
2EC
330
1F
100
AcDbEntity
  8
0
100
AcDbLine
 10
1.108356
 20
-0.616803
 30
0.0
 11
1.115983
 21
-0.616295
 31
0.0
  0
LINE
  5
2ED
330
1F
100
AcDbEntity
  8
0
100
AcDbLine
 10
1.124788
 20
-0.615788
 30
0.0
 11
1.134664
 21
-0.615282
 31
0.0
  0
LINE
  5
2EE
330
1F
100
AcDbEntity
  8
0
100
AcDbLine
 10
1.134664
 20
-0.615282
 30
0.0
 11
1.145537
 21
-0.614776
 31
0.0
  0
LINE
  5
2EF
330
1F
100
AcDbEntity
  8
0
100
AcDbLine
 10
1.157331
 20
-0.614268
 30
0.0
 11
1.169912
 21
-0.613761
 31
0.0
  0
LINE
  5
2F0
330
1F
100
AcDbEntity
  8
0
100
AcDbLine
 10
1.145537
 20
-0.614776
 30
0.0
 11
1.157331
 21
-0.614268
 31
0.0
  0
LINE
  5
2F1
330
1F
100
AcDbEntity
  8
0
100
AcDbLine
 10
1.169912
 20
-0.613761
 30
0.0
 11
1.183126
 21
-0.613255
 31
0.0
  0
LINE
  5
2F2
330
1F
100
AcDbEntity
  8
0
100
AcDbLine
 10
1.283341
 20
-0.609707
 30
0.0
 11
1.297086
 21
-0.609201
 31
0.0
  0
LINE
  5
2F3
330
1F
100
AcDbEntity
  8
0
100
AcDbLine
 10
1.310292
 20
-0.608694
 30
0.0
 11
1.322861
 21
-0.608187
 31
0.0
  0
LINE
  5
2F4
330
1F
100
AcDbEntity
  8
0
100
AcDbLine
 10
1.297086
 20
-0.609201
 30
0.0
 11
1.310292
 21
-0.608694
 31
0.0
  0
LINE
  5
2F5
330
1F
100
AcDbEntity
  8
0
100
AcDbLine
 10
1.322861
 20
-0.608187
 30
0.0
 11
1.334642
 21
-0.60768
 31
0.0
  0
LINE
  5
2F6
330
1F
100
AcDbEntity
  8
0
100
AcDbLine
 10
1.334642
 20
-0.60768
 30
0.0
 11
1.345499
 21
-0.607173
 31
0.0
  0
LINE
  5
2F7
330
1F
100
AcDbEntity
  8
0
100
AcDbLine
 10
1.355359
 20
-0.606667
 30
0.0
 11
1.364147
 21
-0.60616
 31
0.0
  0
LINE
  5
2F8
330
1F
100
AcDbEntity
  8
0
100
AcDbLine
 10
1.345499
 20
-0.607173
 30
0.0
 11
1.355359
 21
-0.606667
 31
0.0
  0
LINE
  5
2F9
330
1F
100
AcDbEntity
  8
0
100
AcDbLine
 10
1.364147
 20
-0.60616
 30
0.0
 11
1.371754
 21
-0.605653
 31
0.0
  0
LINE
  5
2FA
330
1F
100
AcDbEntity
  8
0
100
AcDbLine
 10
1.371754
 20
-0.605653
 30
0.0
 11
1.378096
 21
-0.605146
 31
0.0
  0
LINE
  5
2FB
330
1F
100
AcDbEntity
  8
0
100
AcDbLine
 10
1.383132
 20
-0.60464
 30
0.0
 11
1.386821
 21
-0.604133
 31
0.0
  0
LINE
  5
2FC
330
1F
100
AcDbEntity
  8
0
100
AcDbLine
 10
1.378096
 20
-0.605146
 30
0.0
 11
1.383132
 21
-0.60464
 31
0.0
  0
LINE
  5
2FD
330
1F
100
AcDbEntity
  8
0
100
AcDbLine
 10
1.389424
 20
-0.60259
 30
0.0
 11
1.380776
 21
-0.597593
 31
0.0
  0
LINE
  5
2FE
330
1F
100
AcDbEntity
  8
0
100
AcDbLine
 10
1.341641
 20
-0.598767
 30
0.0
 11
1.337324
 21
-0.598561
 31
0.0
  0
LINE
  5
2FF
330
1F
100
AcDbEntity
  8
0
100
AcDbLine
 10
1.276696
 20
-0.596175
 30
0.0
 11
1.274048
 21
-0.59608
 31
0.0
  0
LINE
  5
300
330
1F
100
AcDbEntity
  8
0
100
AcDbLine
 10
1.184778
 20
-0.592926
 30
0.0
 11
1.181198
 21
-0.59279
 31
0.0
  0
LINE
  5
301
330
1F
100
AcDbEntity
  8
0
100
AcDbLine
 10
1.091191
 20
-0.585938
 30
0.0
 11
1.09491
 21
-0.585382
 31
0.0
  0
LINE
  5
302
330
1F
100
AcDbEntity
  8
0
100
AcDbLine
 10
1.09491
 20
-0.585382
 30
0.0
 11
1.099294
 21
-0.584876
 31
0.0
  0
LINE
  5
303
330
1F
100
AcDbEntity
  8
0
100
AcDbLine
 10
1.099294
 20
-0.584876
 30
0.0
 11
1.105009
 21
-0.58437
 31
0.0
  0
LINE
  5
304
330
1F
100
AcDbEntity
  8
0
100
AcDbLine
 10
1.112018
 20
-0.583862
 30
0.0
 11
1.120245
 21
-0.583355
 31
0.0
  0
LINE
  5
305
330
1F
100
AcDbEntity
  8
0
100
AcDbLine
 10
1.105009
 20
-0.58437
 30
0.0
 11
1.112018
 21
-0.583862
 31
0.0
  0
LINE
  5
306
330
1F
100
AcDbEntity
  8
0
100
AcDbLine
 10
1.120245
 20
-0.583355
 30
0.0
 11
1.129586
 21
-0.582849
 31
0.0
  0
LINE
  5
307
330
1F
100
AcDbEntity
  8
0
100
AcDbLine
 10
1.139971
 20
-0.582343
 30
0.0
 11
1.151331
 21
-0.581835
 31
0.0
  0
LINE
  5
308
330
1F
100
AcDbEntity
  8
0
100
AcDbLine
 10
1.129586
 20
-0.582849
 30
0.0
 11
1.139971
 21
-0.582343
 31
0.0
  0
LINE
  5
309
330
1F
100
AcDbEntity
  8
0
100
AcDbLine
 10
1.163533
 20
-0.581328
 30
0.0
 11
1.176431
 21
-0.580822
 31
0.0
  0
LINE
  5
30A
330
1F
100
AcDbEntity
  8
0
100
AcDbLine
 10
1.303751
 20
-0.576261
 30
0.0
 11
1.31667
 21
-0.575754
 31
0.0
  0
LINE
  5
30B
330
1F
100
AcDbEntity
  8
0
100
AcDbLine
 10
1.31667
 20
-0.575754
 30
0.0
 11
1.328859
 21
-0.575247
 31
0.0
  0
LINE
  5
30C
330
1F
100
AcDbEntity
  8
0
100
AcDbLine
 10
1.340178
 20
-0.57474
 30
0.0
 11
1.35055
 21
-0.574234
 31
0.0
  0
LINE
  5
30D
330
1F
100
AcDbEntity
  8
0
100
AcDbLine
 10
1.328859
 20
-0.575247
 30
0.0
 11
1.340178
 21
-0.57474
 31
0.0
  0
LINE
  5
30E
330
1F
100
AcDbEntity
  8
0
100
AcDbLine
 10
1.35055
 20
-0.574234
 30
0.0
 11
1.359897
 21
-0.573727
 31
0.0
  0
LINE
  5
30F
330
1F
100
AcDbEntity
  8
0
100
AcDbLine
 10
1.359897
 20
-0.573727
 30
0.0
 11
1.368104
 21
-0.57322
 31
0.0
  0
LINE
  5
310
330
1F
100
AcDbEntity
  8
0
100
AcDbLine
 10
1.375079
 20
-0.572713
 30
0.0
 11
1.380776
 21
-0.572207
 31
0.0
  0
LINE
  5
311
330
1F
100
AcDbEntity
  8
0
100
AcDbLine
 10
1.368104
 20
-0.57322
 30
0.0
 11
1.375079
 21
-0.572713
 31
0.0
  0
LINE
  5
312
330
1F
100
AcDbEntity
  8
0
100
AcDbLine
 10
1.380776
 20
-0.572207
 30
0.0
 11
1.38515
 21
-0.5717
 31
0.0
  0
LINE
  5
313
330
1F
100
AcDbEntity
  8
0
100
AcDbLine
 10
1.328328
 20
-0.565481
 30
0.0
 11
1.319589
 21
-0.565111
 31
0.0
  0
LINE
  5
314
330
1F
100
AcDbEntity
  8
0
100
AcDbLine
 10
1.275956
 20
-0.563462
 30
0.0
 11
1.271182
 21
-0.563292
 31
0.0
  0
LINE
  5
315
330
1F
100
AcDbEntity
  8
0
100
AcDbLine
 10
1.289475
 20
-0.563952
 30
0.0
 11
1.285528
 21
-0.563808
 31
0.0
  0
LINE
  5
316
330
1F
100
AcDbEntity
  8
0
100
AcDbLine
 10
1.25751
 20
-0.562811
 30
0.0
 11
1.254913
 21
-0.56272
 31
0.0
  0
LINE
  5
317
330
1F
100
AcDbEntity
  8
0
100
AcDbLine
 10
1.184811
 20
-0.560239
 30
0.0
 11
1.181195
 21
-0.560105
 31
0.0
  0
LINE
  5
318
330
1F
100
AcDbEntity
  8
0
100
AcDbLine
 10
1.090988
 20
-0.553329
 30
0.0
 11
1.096928
 21
-0.552443
 31
0.0
  0
LINE
  5
319
330
1F
100
AcDbEntity
  8
0
100
AcDbLine
 10
1.101982
 20
-0.551937
 30
0.0
 11
1.108358
 21
-0.551429
 31
0.0
  0
LINE
  5
31A
330
1F
100
AcDbEntity
  8
0
100
AcDbLine
 10
1.096928
 20
-0.552443
 30
0.0
 11
1.101982
 21
-0.551937
 31
0.0
  0
LINE
  5
31B
330
1F
100
AcDbEntity
  8
0
100
AcDbLine
 10
1.108358
 20
-0.551429
 30
0.0
 11
1.115986
 21
-0.550922
 31
0.0
  0
LINE
  5
31C
330
1F
100
AcDbEntity
  8
0
100
AcDbLine
 10
1.12477
 20
-0.550416
 30
0.0
 11
1.134643
 21
-0.549909
 31
0.0
  0
LINE
  5
31D
330
1F
100
AcDbEntity
  8
0
100
AcDbLine
 10
1.115986
 20
-0.550922
 30
0.0
 11
1.12477
 21
-0.550416
 31
0.0
  0
LINE
  5
31E
330
1F
100
AcDbEntity
  8
0
100
AcDbLine
 10
1.134643
 20
-0.549909
 30
0.0
 11
1.145541
 21
-0.549402
 31
0.0
  0
LINE
  5
31F
330
1F
100
AcDbEntity
  8
0
100
AcDbLine
 10
1.145541
 20
-0.549402
 30
0.0
 11
1.157336
 21
-0.548895
 31
0.0
  0
LINE
  5
320
330
1F
100
AcDbEntity
  8
0
100
AcDbLine
 10
1.169886
 20
-0.548389
 30
0.0
 11
1.1831
 21
-0.547882
 31
0.0
  0
LINE
  5
321
330
1F
100
AcDbEntity
  8
0
100
AcDbLine
 10
1.283313
 20
-0.544334
 30
0.0
 11
1.29706
 21
-0.543828
 31
0.0
  0
LINE
  5
322
330
1F
100
AcDbEntity
  8
0
100
AcDbLine
 10
1.29706
 20
-0.543828
 30
0.0
 11
1.310296
 21
-0.543321
 31
0.0
  0
LINE
  5
323
330
1F
100
AcDbEntity
  8
0
100
AcDbLine
 10
1.322865
 20
-0.542814
 30
0.0
 11
1.334619
 21
-0.542307
 31
0.0
  0
LINE
  5
324
330
1F
100
AcDbEntity
  8
0
100
AcDbLine
 10
1.310296
 20
-0.543321
 30
0.0
 11
1.322865
 21
-0.542814
 31
0.0
  0
LINE
  5
325
330
1F
100
AcDbEntity
  8
0
100
AcDbLine
 10
1.334619
 20
-0.542307
 30
0.0
 11
1.345479
 21
-0.541801
 31
0.0
  0
LINE
  5
326
330
1F
100
AcDbEntity
  8
0
100
AcDbLine
 10
1.345479
 20
-0.541801
 30
0.0
 11
1.355363
 21
-0.541294
 31
0.0
  0
LINE
  5
327
330
1F
100
AcDbEntity
  8
0
100
AcDbLine
 10
1.36415
 20
-0.540786
 30
0.0
 11
1.37174
 21
-0.54028
 31
0.0
  0
LINE
  5
328
330
1F
100
AcDbEntity
  8
0
100
AcDbLine
 10
1.355363
 20
-0.541294
 30
0.0
 11
1.36415
 21
-0.540786
 31
0.0
  0
LINE
  5
329
330
1F
100
AcDbEntity
  8
0
100
AcDbLine
 10
1.37174
 20
-0.54028
 30
0.0
 11
1.378085
 21
-0.539774
 31
0.0
  0
LINE
  5
32A
330
1F
100
AcDbEntity
  8
0
100
AcDbLine
 10
1.383134
 20
-0.539267
 30
0.0
 11
1.38613
 21
-0.538871
 31
0.0
  0
LINE
  5
32B
330
1F
100
AcDbEntity
  8
0
100
AcDbLine
 10
1.378085
 20
-0.539774
 30
0.0
 11
1.383134
 21
-0.539267
 31
0.0
  0
LINE
  5
32C
330
1F
100
AcDbEntity
  8
0
100
AcDbLine
 10
1.389542
 20
-0.537371
 30
0.0
 11
1.380883
 21
-0.532374
 31
0.0
  0
LINE
  5
32D
330
1F
100
AcDbEntity
  8
0
100
AcDbLine
 10
1.350808
 20
-0.533845
 30
0.0
 11
1.347927
 21
-0.533693
 31
0.0
  0
LINE
  5
32E
330
1F
100
AcDbEntity
  8
0
100
AcDbLine
 10
1.329054
 20
-0.532826
 30
0.0
 11
1.32569
 21
-0.532678
 31
0.0
  0
LINE
  5
32F
330
1F
100
AcDbEntity
  8
0
100
AcDbLine
 10
1.347927
 20
-0.533693
 30
0.0
 11
1.344426
 21
-0.533526
 31
0.0
  0
LINE
  5
330
330
1F
100
AcDbEntity
  8
0
100
AcDbLine
 10
1.32569
 20
-0.532678
 30
0.0
 11
1.32282
 21
-0.532561
 31
0.0
  0
LINE
  5
331
330
1F
100
AcDbEntity
  8
0
100
AcDbLine
 10
1.289519
 20
-0.531267
 30
0.0
 11
1.286604
 21
-0.531158
 31
0.0
  0
LINE
  5
332
330
1F
100
AcDbEntity
  8
0
100
AcDbLine
 10
1.184806
 20
-0.527554
 30
0.0
 11
1.181198
 21
-0.527417
 31
0.0
  0
LINE
  5
333
330
1F
100
AcDbEntity
  8
0
100
AcDbLine
 10
1.094902
 20
-0.52001
 30
0.0
 11
1.099284
 21
-0.519503
 31
0.0
  0
LINE
  5
334
330
1F
100
AcDbEntity
  8
0
100
AcDbLine
 10
1.099284
 20
-0.519503
 30
0.0
 11
1.105011
 21
-0.518996
 31
0.0
  0
LINE
  5
335
330
1F
100
AcDbEntity
  8
0
100
AcDbLine
 10
1.112021
 20
-0.518489
 30
0.0
 11
1.120227
 21
-0.517983
 31
0.0
  0
LINE
  5
336
330
1F
100
AcDbEntity
  8
0
100
AcDbLine
 10
1.105011
 20
-0.518996
 30
0.0
 11
1.112021
 21
-0.518489
 31
0.0
  0
LINE
  5
337
330
1F
100
AcDbEntity
  8
0
100
AcDbLine
 10
1.120227
 20
-0.517983
 30
0.0
 11
1.129566
 21
-0.517476
 31
0.0
  0
LINE
  5
338
330
1F
100
AcDbEntity
  8
0
100
AcDbLine
 10
1.129566
 20
-0.517476
 30
0.0
 11
1.139975
 21
-0.516969
 31
0.0
  0
LINE
  5
339
330
1F
100
AcDbEntity
  8
0
100
AcDbLine
 10
1.139975
 20
-0.516969
 30
0.0
 11
1.151335
 21
-0.516462
 31
0.0
  0
LINE
  5
33A
330
1F
100
AcDbEntity
  8
0
100
AcDbLine
 10
1.163508
 20
-0.515955
 30
0.0
 11
1.176404
 21
-0.515449
 31
0.0
  0
LINE
  5
33B
330
1F
100
AcDbEntity
  8
0
100
AcDbLine
 10
1.303756
 20
-0.510888
 30
0.0
 11
1.316674
 21
-0.51038
 31
0.0
  0
LINE
  5
33C
330
1F
100
AcDbEntity
  8
0
100
AcDbLine
 10
1.316674
 20
-0.51038
 30
0.0
 11
1.328836
 21
-0.509874
 31
0.0
  0
LINE
  5
33D
330
1F
100
AcDbEntity
  8
0
100
AcDbLine
 10
1.328836
 20
-0.509874
 30
0.0
 11
1.340157
 21
-0.509368
 31
0.0
  0
LINE
  5
33E
330
1F
100
AcDbEntity
  8
0
100
AcDbLine
 10
1.350554
 20
-0.508861
 30
0.0
 11
1.3599
 21
-0.508353
 31
0.0
  0
LINE
  5
33F
330
1F
100
AcDbEntity
  8
0
100
AcDbLine
 10
1.340157
 20
-0.509368
 30
0.0
 11
1.350554
 21
-0.508861
 31
0.0
  0
LINE
  5
340
330
1F
100
AcDbEntity
  8
0
100
AcDbLine
 10
1.3599
 20
-0.508353
 30
0.0
 11
1.368089
 21
-0.507847
 31
0.0
  0
LINE
  5
341
330
1F
100
AcDbEntity
  8
0
100
AcDbLine
 10
1.368089
 20
-0.507847
 30
0.0
 11
1.375066
 21
-0.507341
 31
0.0
  0
LINE
  5
342
330
1F
100
AcDbEntity
  8
0
100
AcDbLine
 10
1.380778
 20
-0.506834
 30
0.0
 11
1.384794
 21
-0.506375
 31
0.0
  0
LINE
  5
343
330
1F
100
AcDbEntity
  8
0
100
AcDbLine
 10
1.375066
 20
-0.507341
 30
0.0
 11
1.380778
 21
-0.506834
 31
0.0
  0
LINE
  5
344
330
1F
100
AcDbEntity
  8
0
100
AcDbLine
 10
1.384794
 20
-0.506375
 30
0.0
 11
1.389418
 21
-0.505459
 31
0.0
  0
LINE
  5
345
330
1F
100
AcDbEntity
  8
0
100
AcDbLine
 10
1.342719
 20
-0.500752
 30
0.0
 11
1.339018
 21
-0.500584
 31
0.0
  0
LINE
  5
346
330
1F
100
AcDbEntity
  8
0
100
AcDbLine
 10
1.30095
 20
-0.499008
 30
0.0
 11
1.29584
 21
-0.498814
 31
0.0
  0
LINE
  5
347
330
1F
100
AcDbEntity
  8
0
100
AcDbLine
 10
1.18483
 20
-0.494867
 30
0.0
 11
1.181195
 21
-0.494732
 31
0.0
  0
LINE
  5
348
330
1F
100
AcDbEntity
  8
0
100
AcDbLine
 10
1.093221
 20
-0.487577
 30
0.0
 11
1.096919
 21
-0.48707
 31
0.0
  0
LINE
  5
349
330
1F
100
AcDbEntity
  8
0
100
AcDbLine
 10
1.101984
 20
-0.486563
 30
0.0
 11
1.108361
 21
-0.486056
 31
0.0
  0
LINE
  5
34A
330
1F
100
AcDbEntity
  8
0
100
AcDbLine
 10
1.096919
 20
-0.48707
 30
0.0
 11
1.101984
 21
-0.486563
 31
0.0
  0
LINE
  5
34B
330
1F
100
AcDbEntity
  8
0
100
AcDbLine
 10
1.108361
 20
-0.486056
 30
0.0
 11
1.115969
 21
-0.485549
 31
0.0
  0
LINE
  5
34C
330
1F
100
AcDbEntity
  8
0
100
AcDbLine
 10
1.115969
 20
-0.485549
 30
0.0
 11
1.124751
 21
-0.485043
 31
0.0
  0
LINE
  5
34D
330
1F
100
AcDbEntity
  8
0
100
AcDbLine
 10
1.134647
 20
-0.484536
 30
0.0
 11
1.145545
 21
-0.484029
 31
0.0
  0
LINE
  5
34E
330
1F
100
AcDbEntity
  8
0
100
AcDbLine
 10
1.124751
 20
-0.485043
 30
0.0
 11
1.134647
 21
-0.484536
 31
0.0
  0
LINE
  5
34F
330
1F
100
AcDbEntity
  8
0
100
AcDbLine
 10
1.145545
 20
-0.484029
 30
0.0
 11
1.157312
 21
-0.483522
 31
0.0
  0
LINE
  5
350
330
1F
100
AcDbEntity
  8
0
100
AcDbLine
 10
1.283286
 20
-0.478962
 30
0.0
 11
1.297065
 21
-0.478455
 31
0.0
  0
LINE
  5
351
330
1F
100
AcDbEntity
  8
0
100
AcDbLine
 10
1.297065
 20
-0.478455
 30
0.0
 11
1.310301
 21
-0.477947
 31
0.0
  0
LINE
  5
352
330
1F
100
AcDbEntity
  8
0
100
AcDbLine
 10
1.310301
 20
-0.477947
 30
0.0
 11
1.322841
 21
-0.477441
 31
0.0
  0
LINE
  5
353
330
1F
100
AcDbEntity
  8
0
100
AcDbLine
 10
1.334597
 20
-0.476935
 30
0.0
 11
1.345483
 21
-0.476428
 31
0.0
  0
LINE
  5
354
330
1F
100
AcDbEntity
  8
0
100
AcDbLine
 10
1.322841
 20
-0.477441
 30
0.0
 11
1.334597
 21
-0.476935
 31
0.0
  0
LINE
  5
355
330
1F
100
AcDbEntity
  8
0
100
AcDbLine
 10
1.345483
 20
-0.476428
 30
0.0
 11
1.355366
 21
-0.47592
 31
0.0
  0
LINE
  5
356
330
1F
100
AcDbEntity
  8
0
100
AcDbLine
 10
1.355366
 20
-0.47592
 30
0.0
 11
1.364133
 21
-0.475414
 31
0.0
  0
LINE
  5
357
330
1F
100
AcDbEntity
  8
0
100
AcDbLine
 10
1.371727
 20
-0.474908
 30
0.0
 11
1.378087
 21
-0.474401
 31
0.0
  0
LINE
  5
358
330
1F
100
AcDbEntity
  8
0
100
AcDbLine
 10
1.364133
 20
-0.475414
 30
0.0
 11
1.371727
 21
-0.474908
 31
0.0
  0
LINE
  5
359
330
1F
100
AcDbEntity
  8
0
100
AcDbLine
 10
1.378087
 20
-0.474401
 30
0.0
 11
1.383135
 21
-0.473893
 31
0.0
  0
LINE
  5
35A
330
1F
100
AcDbEntity
  8
0
100
AcDbLine
 10
1.383135
 20
-0.473893
 30
0.0
 11
1.386816
 21
-0.473387
 31
0.0
  0
LINE
  5
35B
330
1F
100
AcDbEntity
  8
0
100
AcDbLine
 10
1.388573
 20
-0.471458
 30
0.0
 11
1.379987
 21
-0.466461
 31
0.0
  0
LINE
  5
35C
330
1F
100
AcDbEntity
  8
0
100
AcDbLine
 10
1.369835
 20
-0.469595
 30
0.0
 11
1.366753
 21
-0.469382
 31
0.0
  0
LINE
  5
35D
330
1F
100
AcDbEntity
  8
0
100
AcDbLine
 10
1.337267
 20
-0.467812
 30
0.0
 11
1.333939
 21
-0.467666
 31
0.0
  0
LINE
  5
35E
330
1F
100
AcDbEntity
  8
0
100
AcDbLine
 10
1.347696
 20
-0.468309
 30
0.0
 11
1.344403
 21
-0.468152
 31
0.0
  0
LINE
  5
35F
330
1F
100
AcDbEntity
  8
0
100
AcDbLine
 10
1.286599
 20
-0.465785
 30
0.0
 11
1.281491
 21
-0.465601
 31
0.0
  0
LINE
  5
360
330
1F
100
AcDbEntity
  8
0
100
AcDbLine
 10
1.300261
 20
-0.466292
 30
0.0
 11
1.296205
 21
-0.466142
 31
0.0
  0
LINE
  5
361
330
1F
100
AcDbEntity
  8
0
100
AcDbLine
 10
1.289596
 20
-0.465896
 30
0.0
 11
1.286599
 21
-0.465785
 31
0.0
  0
LINE
  5
362
330
1F
100
AcDbEntity
  8
0
100
AcDbLine
 10
1.184815
 20
-0.462181
 30
0.0
 11
1.181198
 21
-0.462044
 31
0.0
  0
LINE
  5
363
330
1F
100
AcDbEntity
  8
0
100
AcDbLine
 10
1.094895
 20
-0.454637
 30
0.0
 11
1.099286
 21
-0.45413
 31
0.0
  0
LINE
  5
364
330
1F
100
AcDbEntity
  8
0
100
AcDbLine
 10
1.099286
 20
-0.45413
 30
0.0
 11
1.105013
 21
-0.453623
 31
0.0
  0
LINE
  5
365
330
1F
100
AcDbEntity
  8
0
100
AcDbLine
 10
1.105013
 20
-0.453623
 30
0.0
 11
1.112006
 21
-0.453116
 31
0.0
  0
LINE
  5
366
330
1F
100
AcDbEntity
  8
0
100
AcDbLine
 10
1.12021
 20
-0.45261
 30
0.0
 11
1.12957
 21
-0.452103
 31
0.0
  0
LINE
  5
367
330
1F
100
AcDbEntity
  8
0
100
AcDbLine
 10
1.112006
 20
-0.453116
 30
0.0
 11
1.12021
 21
-0.45261
 31
0.0
  0
LINE
  5
368
330
1F
100
AcDbEntity
  8
0
100
AcDbLine
 10
1.12957
 20
-0.452103
 30
0.0
 11
1.139979
 21
-0.451595
 31
0.0
  0
LINE
  5
369
330
1F
100
AcDbEntity
  8
0
100
AcDbLine
 10
1.139979
 20
-0.451595
 30
0.0
 11
1.151312
 21
-0.451089
 31
0.0
  0
LINE
  5
36A
330
1F
100
AcDbEntity
  8
0
100
AcDbLine
 10
1.163483
 20
-0.450583
 30
0.0
 11
1.176409
 21
-0.450076
 31
0.0
  0
LINE
  5
36B
330
1F
100
AcDbEntity
  8
0
100
AcDbLine
 10
1.151312
 20
-0.451089
 30
0.0
 11
1.163483
 21
-0.450583
 31
0.0
  0
LINE
  5
36C
330
1F
100
AcDbEntity
  8
0
100
AcDbLine
 10
1.316649
 20
-0.445008
 30
0.0
 11
1.328812
 21
-0.444502
 31
0.0
  0
LINE
  5
36D
330
1F
100
AcDbEntity
  8
0
100
AcDbLine
 10
1.303761
 20
-0.445514
 30
0.0
 11
1.316649
 21
-0.445008
 31
0.0
  0
LINE
  5
36E
330
1F
100
AcDbEntity
  8
0
100
AcDbLine
 10
1.328812
 20
-0.444502
 30
0.0
 11
1.340161
 21
-0.443995
 31
0.0
  0
LINE
  5
36F
330
1F
100
AcDbEntity
  8
0
100
AcDbLine
 10
1.340161
 20
-0.443995
 30
0.0
 11
1.350558
 21
-0.443487
 31
0.0
  0
LINE
  5
370
330
1F
100
AcDbEntity
  8
0
100
AcDbLine
 10
1.359883
 20
-0.442981
 30
0.0
 11
1.368074
 21
-0.442475
 31
0.0
  0
LINE
  5
371
330
1F
100
AcDbEntity
  8
0
100
AcDbLine
 10
1.350558
 20
-0.443487
 30
0.0
 11
1.359883
 21
-0.442981
 31
0.0
  0
LINE
  5
372
330
1F
100
AcDbEntity
  8
0
100
AcDbLine
 10
1.368074
 20
-0.442475
 30
0.0
 11
1.375069
 21
-0.441968
 31
0.0
  0
LINE
  5
373
330
1F
100
AcDbEntity
  8
0
100
AcDbLine
 10
1.38078
 20
-0.44146
 30
0.0
 11
1.385144
 21
-0.440954
 31
0.0
  0
LINE
  5
374
330
1F
100
AcDbEntity
  8
0
100
AcDbLine
 10
1.375069
 20
-0.441968
 30
0.0
 11
1.38078
 21
-0.44146
 31
0.0
  0
LINE
  5
375
330
1F
100
AcDbEntity
  8
0
100
AcDbLine
 10
1.385144
 20
-0.440954
 30
0.0
 11
1.388135
 21
-0.440448
 31
0.0
  0
LINE
  5
376
330
1F
100
AcDbEntity
  8
0
100
AcDbLine
 10
1.388135
 20
-0.440448
 30
0.0
 11
1.380206
 21
-0.433851
 31
0.0
  0
LINE
  5
377
330
1F
100
AcDbEntity
  8
0
100
AcDbLine
 10
1.35567
 20
-0.436043
 30
0.0
 11
1.353042
 21
-0.435896
 31
0.0
  0
LINE
  5
378
330
1F
100
AcDbEntity
  8
0
100
AcDbLine
 10
1.342715
 20
-0.435379
 30
0.0
 11
1.339819
 21
-0.435247
 31
0.0
  0
LINE
  5
379
330
1F
100
AcDbEntity
  8
0
100
AcDbLine
 10
1.334425
 20
-0.435001
 30
0.0
 11
1.33161
 21
-0.434873
 31
0.0
  0
LINE
  5
37A
330
1F
100
AcDbEntity
  8
0
100
AcDbLine
 10
1.33161
 20
-0.434873
 30
0.0
 11
1.328602
 21
-0.434746
 31
0.0
  0
LINE
  5
37B
330
1F
100
AcDbEntity
  8
0
100
AcDbLine
 10
1.2966
 20
-0.43347
 30
0.0
 11
1.293491
 21
-0.433352
 31
0.0
  0
LINE
  5
37C
330
1F
100
AcDbEntity
  8
0
100
AcDbLine
 10
1.284805
 20
-0.433035
 30
0.0
 11
1.281132
 21
-0.432901
 31
0.0
  0
LINE
  5
37D
330
1F
100
AcDbEntity
  8
0
100
AcDbLine
 10
1.269074
 20
-0.432471
 30
0.0
 11
1.265628
 21
-0.432348
 31
0.0
  0
LINE
  5
37E
330
1F
100
AcDbEntity
  8
0
100
AcDbLine
 10
1.184825
 20
-0.429493
 30
0.0
 11
1.181195
 21
-0.429358
 31
0.0
  0
LINE
  5
37F
330
1F
100
AcDbEntity
  8
0
100
AcDbLine
 10
1.092328
 20
-0.422197
 30
0.0
 11
1.096921
 21
-0.421697
 31
0.0
  0
LINE
  5
380
330
1F
100
AcDbEntity
  8
0
100
AcDbLine
 10
1.096921
 20
-0.421697
 30
0.0
 11
1.101986
 21
-0.421189
 31
0.0
  0
LINE
  5
381
330
1F
100
AcDbEntity
  8
0
100
AcDbLine
 10
1.108347
 20
-0.420683
 30
0.0
 11
1.115953
 21
-0.420177
 31
0.0
  0
LINE
  5
382
330
1F
100
AcDbEntity
  8
0
100
AcDbLine
 10
1.101986
 20
-0.421189
 30
0.0
 11
1.108347
 21
-0.420683
 31
0.0
  0
LINE
  5
383
330
1F
100
AcDbEntity
  8
0
100
AcDbLine
 10
1.115953
 20
-0.420177
 30
0.0
 11
1.124754
 21
-0.41967
 31
0.0
  0
LINE
  5
384
330
1F
100
AcDbEntity
  8
0
100
AcDbLine
 10
1.124754
 20
-0.41967
 30
0.0
 11
1.134651
 21
-0.419162
 31
0.0
  0
LINE
  5
385
330
1F
100
AcDbEntity
  8
0
100
AcDbLine
 10
1.145522
 20
-0.418656
 30
0.0
 11
1.157287
 21
-0.41815
 31
0.0
  0
LINE
  5
386
330
1F
100
AcDbEntity
  8
0
100
AcDbLine
 10
1.134651
 20
-0.419162
 30
0.0
 11
1.145522
 21
-0.418656
 31
0.0
  0
LINE
  5
387
330
1F
100
AcDbEntity
  8
0
100
AcDbLine
 10
1.169865
 20
-0.417643
 30
0.0
 11
1.18311
 21
-0.417135
 31
0.0
  0
LINE
  5
388
330
1F
100
AcDbEntity
  8
0
100
AcDbLine
 10
1.202493
 20
-0.877277
 30
0.0
 11
1.207888
 21
-0.8775
 31
0.0
  0
LINE
  5
389
330
1F
100
AcDbEntity
  8
0
100
AcDbLine
 10
1.18317
 20
-0.874746
 30
0.0
 11
1.192815
 21
-0.876867
 31
0.0
  0
LINE
  5
38A
330
1F
100
AcDbEntity
  8
0
100
AcDbLine
 10
1.16058
 20
-0.875379
 30
0.0
 11
1.165767
 21
-0.875639
 31
0.0
  0
LINE
  5
38B
330
1F
100
AcDbEntity
  8
0
100
AcDbLine
 10
1.099792
 20
-0.875122
 30
0.0
 11
1.110181
 21
-0.870314
 31
0.0
  0
LINE
  5
38C
330
1F
100
AcDbEntity
  8
0
100
AcDbLine
 10
1.096754
 20
-0.8775
 30
0.0
 11
1.099792
 21
-0.875122
 31
0.0
  0
LINE
  5
38D
330
1F
100
AcDbEntity
  8
0
100
AcDbLine
 10
1.115616
 20
-0.869086
 30
0.0
 11
1.113013
 21
-0.869495
 31
0.0
  0
LINE
  5
38E
330
1F
100
AcDbEntity
  8
0
100
AcDbLine
 10
1.118987
 20
-0.868676
 30
0.0
 11
1.115616
 21
-0.869086
 31
0.0
  0
LINE
  5
38F
330
1F
100
AcDbEntity
  8
0
100
AcDbLine
 10
1.099883
 20
-0.879239
 30
0.0
 11
1.103953
 21
-0.87883
 31
0.0
  0
LINE
  5
390
330
1F
100
AcDbEntity
  8
0
100
AcDbLine
 10
1.123107
 20
-0.868266
 30
0.0
 11
1.118987
 21
-0.868676
 31
0.0
  0
LINE
  5
391
330
1F
100
AcDbEntity
  8
0
100
AcDbLine
 10
1.127955
 20
-0.867857
 30
0.0
 11
1.123107
 21
-0.868266
 31
0.0
  0
LINE
  5
392
330
1F
100
AcDbEntity
  8
0
100
AcDbLine
 10
1.103953
 20
-0.87883
 30
0.0
 11
1.108865
 21
-0.87842
 31
0.0
  0
LINE
  5
393
330
1F
100
AcDbEntity
  8
0
100
AcDbLine
 10
1.133497
 20
-0.867447
 30
0.0
 11
1.127955
 21
-0.867857
 31
0.0
  0
LINE
  5
394
330
1F
100
AcDbEntity
  8
0
100
AcDbLine
 10
1.114587
 20
-0.878011
 30
0.0
 11
1.120851
 21
-0.8775
 31
0.0
  0
LINE
  5
395
330
1F
100
AcDbEntity
  8
0
100
AcDbLine
 10
1.108865
 20
-0.87842
 30
0.0
 11
1.114587
 21
-0.878011
 31
0.0
  0
LINE
  5
396
330
1F
100
AcDbEntity
  8
0
100
AcDbLine
 10
1.139696
 20
-0.867038
 30
0.0
 11
1.133497
 21
-0.867447
 31
0.0
  0
LINE
  5
397
330
1F
100
AcDbEntity
  8
0
100
AcDbLine
 10
1.146515
 20
-0.866628
 30
0.0
 11
1.139696
 21
-0.867038
 31
0.0
  0
LINE
  5
398
330
1F
100
AcDbEntity
  8
0
100
AcDbLine
 10
1.153917
 20
-0.866219
 30
0.0
 11
1.146515
 21
-0.866628
 31
0.0
  0
LINE
  5
399
330
1F
100
AcDbEntity
  8
0
100
AcDbLine
 10
1.161852
 20
-0.865809
 30
0.0
 11
1.153917
 21
-0.866219
 31
0.0
  0
LINE
  5
39A
330
1F
100
AcDbEntity
  8
0
100
AcDbLine
 10
1.179119
 20
-0.86499
 30
0.0
 11
1.17027
 21
-0.8654
 31
0.0
  0
LINE
  5
39B
330
1F
100
AcDbEntity
  8
0
100
AcDbLine
 10
1.188346
 20
-0.86458
 30
0.0
 11
1.179119
 21
-0.86499
 31
0.0
  0
LINE
  5
39C
330
1F
100
AcDbEntity
  8
0
100
AcDbLine
 10
1.288103
 20
-0.860485
 30
0.0
 11
1.27845
 21
-0.860894
 31
0.0
  0
LINE
  5
39D
330
1F
100
AcDbEntity
  8
0
100
AcDbLine
 10
1.296124
 20
-0.858379
 30
0.0
 11
1.288103
 21
-0.860485
 31
0.0
  0
LINE
  5
39E
330
1F
100
AcDbEntity
  8
0
100
AcDbLine
 10
1.313259
 20
-0.859036
 30
0.0
 11
1.306455
 21
-0.859666
 31
0.0
  0
LINE
  5
39F
330
1F
100
AcDbEntity
  8
0
100
AcDbLine
 10
1.323163
 20
-0.858846
 30
0.0
 11
1.313259
 21
-0.859036
 31
0.0
  0
LINE
  5
3A0
330
1F
100
AcDbEntity
  8
0
100
AcDbLine
 10
1.330771
 20
-0.858437
 30
0.0
 11
1.323163
 21
-0.858846
 31
0.0
  0
LINE
  5
3A1
330
1F
100
AcDbEntity
  8
0
100
AcDbLine
 10
1.337239
 20
-0.860051
 30
0.0
 11
1.330771
 21
-0.858437
 31
0.0
  0
LINE
  5
3A2
330
1F
100
AcDbEntity
  8
0
100
AcDbLine
 10
1.344251
 20
-0.857618
 30
0.0
 11
1.337239
 21
-0.860051
 31
0.0
  0
LINE
  5
3A3
330
1F
100
AcDbEntity
  8
0
100
AcDbLine
 10
1.350044
 20
-0.857208
 30
0.0
 11
1.344251
 21
-0.857618
 31
0.0
  0
LINE
  5
3A4
330
1F
100
AcDbEntity
  8
0
100
AcDbLine
 10
1.355156
 20
-0.856799
 30
0.0
 11
1.350044
 21
-0.857208
 31
0.0
  0
LINE
  5
3A5
330
1F
100
AcDbEntity
  8
0
100
AcDbLine
 10
1.359552
 20
-0.856389
 30
0.0
 11
1.355156
 21
-0.856799
 31
0.0
  0
LINE
  5
3A6
330
1F
100
AcDbEntity
  8
0
100
AcDbLine
 10
1.363207
 20
-0.855979
 30
0.0
 11
1.359552
 21
-0.856389
 31
0.0
  0
LINE
  5
3A7
330
1F
100
AcDbEntity
  8
0
100
AcDbLine
 10
1.366102
 20
-0.85557
 30
0.0
 11
1.363207
 21
-0.855979
 31
0.0
  0
LINE
  5
3A8
330
1F
100
AcDbEntity
  8
0
100
AcDbLine
 10
1.380849
 20
-0.859164
 30
0.0
 11
1.369756
 21
-0.853932
 31
0.0
  0
LINE
  5
3A9
330
1F
100
AcDbEntity
  8
0
100
AcDbLine
 10
1.160553
 20
-0.84269
 30
0.0
 11
1.163573
 21
-0.842819
 31
0.0
  0
LINE
  5
3AA
330
1F
100
AcDbEntity
  8
0
100
AcDbLine
 10
1.099596
 20
-0.842512
 30
0.0
 11
1.110315
 21
-0.837549
 31
0.0
  0
LINE
  5
3AB
330
1F
100
AcDbEntity
  8
0
100
AcDbLine
 10
1.116206
 20
-0.83632
 30
0.0
 11
1.113453
 21
-0.83673
 31
0.0
  0
LINE
  5
3AC
330
1F
100
AcDbEntity
  8
0
100
AcDbLine
 10
1.119724
 20
-0.835911
 30
0.0
 11
1.116206
 21
-0.83632
 31
0.0
  0
LINE
  5
3AD
330
1F
100
AcDbEntity
  8
0
100
AcDbLine
 10
1.123985
 20
-0.835501
 30
0.0
 11
1.119724
 21
-0.835911
 31
0.0
  0
LINE
  5
3AE
330
1F
100
AcDbEntity
  8
0
100
AcDbLine
 10
1.128969
 20
-0.835091
 30
0.0
 11
1.123985
 21
-0.835501
 31
0.0
  0
LINE
  5
3AF
330
1F
100
AcDbEntity
  8
0
100
AcDbLine
 10
1.134641
 20
-0.834682
 30
0.0
 11
1.128969
 21
-0.835091
 31
0.0
  0
LINE
  5
3B0
330
1F
100
AcDbEntity
  8
0
100
AcDbLine
 10
1.140963
 20
-0.834272
 30
0.0
 11
1.134641
 21
-0.834682
 31
0.0
  0
LINE
  5
3B1
330
1F
100
AcDbEntity
  8
0
100
AcDbLine
 10
1.147898
 20
-0.833863
 30
0.0
 11
1.140963
 21
-0.834272
 31
0.0
  0
LINE
  5
3B2
330
1F
100
AcDbEntity
  8
0
100
AcDbLine
 10
1.155406
 20
-0.833453
 30
0.0
 11
1.147898
 21
-0.833863
 31
0.0
  0
LINE
  5
3B3
330
1F
100
AcDbEntity
  8
0
100
AcDbLine
 10
1.171943
 20
-0.832634
 30
0.0
 11
1.163438
 21
-0.833044
 31
0.0
  0
LINE
  5
3B4
330
1F
100
AcDbEntity
  8
0
100
AcDbLine
 10
1.190162
 20
-0.831815
 30
0.0
 11
1.180868
 21
-0.832224
 31
0.0
  0
LINE
  5
3B5
330
1F
100
AcDbEntity
  8
0
100
AcDbLine
 10
1.316643
 20
-0.82649
 30
0.0
 11
1.31015
 21
-0.826229
 31
0.0
  0
LINE
  5
3B6
330
1F
100
AcDbEntity
  8
0
100
AcDbLine
 10
1.330394
 20
-0.827061
 30
0.0
 11
1.32467
 21
-0.826081
 31
0.0
  0
LINE
  5
3B7
330
1F
100
AcDbEntity
  8
0
100
AcDbLine
 10
1.345418
 20
-0.824852
 30
0.0
 11
1.339074
 21
-0.827453
 31
0.0
  0
LINE
  5
3B8
330
1F
100
AcDbEntity
  8
0
100
AcDbLine
 10
1.351083
 20
-0.824443
 30
0.0
 11
1.345418
 21
-0.824852
 31
0.0
  0
LINE
  5
3B9
330
1F
100
AcDbEntity
  8
0
100
AcDbLine
 10
1.35606
 20
-0.824033
 30
0.0
 11
1.351083
 21
-0.824443
 31
0.0
  0
LINE
  5
3BA
330
1F
100
AcDbEntity
  8
0
100
AcDbLine
 10
1.360314
 20
-0.823623
 30
0.0
 11
1.35606
 21
-0.824033
 31
0.0
  0
LINE
  5
3BB
330
1F
100
AcDbEntity
  8
0
100
AcDbLine
 10
1.363824
 20
-0.823214
 30
0.0
 11
1.360314
 21
-0.823623
 31
0.0
  0
LINE
  5
3BC
330
1F
100
AcDbEntity
  8
0
100
AcDbLine
 10
1.36657
 20
-0.822804
 30
0.0
 11
1.363824
 21
-0.823214
 31
0.0
  0
LINE
  5
3BD
330
1F
100
AcDbEntity
  8
0
100
AcDbLine
 10
1.380876
 20
-0.826554
 30
0.0
 11
1.369706
 21
-0.821213
 31
0.0
  0
LINE
  5
3BE
330
1F
100
AcDbEntity
  8
0
100
AcDbLine
 10
1.316691
 20
-0.816708
 30
0.0
 11
1.319391
 21
-0.816845
 31
0.0
  0
LINE
  5
3BF
330
1F
100
AcDbEntity
  8
0
100
AcDbLine
 10
1.099447
 20
-0.809903
 30
0.0
 11
1.110478
 21
-0.804783
 31
0.0
  0
LINE
  5
3C0
330
1F
100
AcDbEntity
  8
0
100
AcDbLine
 10
1.116825
 20
-0.803555
 30
0.0
 11
1.113923
 21
-0.803964
 31
0.0
  0
LINE
  5
3C1
330
1F
100
AcDbEntity
  8
0
100
AcDbLine
 10
1.120488
 20
-0.803145
 30
0.0
 11
1.116825
 21
-0.803555
 31
0.0
  0
LINE
  5
3C2
330
1F
100
AcDbEntity
  8
0
100
AcDbLine
 10
1.12489
 20
-0.802735
 30
0.0
 11
1.120488
 21
-0.803145
 31
0.0
  0
LINE
  5
3C3
330
1F
100
AcDbEntity
  8
0
100
AcDbLine
 10
1.130009
 20
-0.802326
 30
0.0
 11
1.12489
 21
-0.802735
 31
0.0
  0
LINE
  5
3C4
330
1F
100
AcDbEntity
  8
0
100
AcDbLine
 10
1.135809
 20
-0.801916
 30
0.0
 11
1.130009
 21
-0.802326
 31
0.0
  0
LINE
  5
3C5
330
1F
100
AcDbEntity
  8
0
100
AcDbLine
 10
1.142252
 20
-0.801507
 30
0.0
 11
1.135809
 21
-0.801916
 31
0.0
  0
LINE
  5
3C6
330
1F
100
AcDbEntity
  8
0
100
AcDbLine
 10
1.149301
 20
-0.801097
 30
0.0
 11
1.142252
 21
-0.801507
 31
0.0
  0
LINE
  5
3C7
330
1F
100
AcDbEntity
  8
0
100
AcDbLine
 10
1.156913
 20
-0.800688
 30
0.0
 11
1.149301
 21
-0.801097
 31
0.0
  0
LINE
  5
3C8
330
1F
100
AcDbEntity
  8
0
100
AcDbLine
 10
1.165041
 20
-0.800278
 30
0.0
 11
1.156913
 21
-0.800688
 31
0.0
  0
LINE
  5
3C9
330
1F
100
AcDbEntity
  8
0
100
AcDbLine
 10
1.173631
 20
-0.799868
 30
0.0
 11
1.165041
 21
-0.800278
 31
0.0
  0
LINE
  5
3CA
330
1F
100
AcDbEntity
  8
0
100
AcDbLine
 10
1.2822
 20
-0.795363
 30
0.0
 11
1.272395
 21
-0.795773
 31
0.0
  0
LINE
  5
3CB
330
1F
100
AcDbEntity
  8
0
100
AcDbLine
 10
1.325652
 20
-0.79417
 30
0.0
 11
1.318228
 21
-0.793725
 31
0.0
  0
LINE
  5
3CC
330
1F
100
AcDbEntity
  8
0
100
AcDbLine
 10
1.340368
 20
-0.792496
 30
0.0
 11
1.333554
 21
-0.792906
 31
0.0
  0
LINE
  5
3CD
330
1F
100
AcDbEntity
  8
0
100
AcDbLine
 10
1.346561
 20
-0.792087
 30
0.0
 11
1.340368
 21
-0.792496
 31
0.0
  0
LINE
  5
3CE
330
1F
100
AcDbEntity
  8
0
100
AcDbLine
 10
1.352096
 20
-0.791677
 30
0.0
 11
1.346561
 21
-0.792087
 31
0.0
  0
LINE
  5
3CF
330
1F
100
AcDbEntity
  8
0
100
AcDbLine
 10
1.356937
 20
-0.791267
 30
0.0
 11
1.352096
 21
-0.791677
 31
0.0
  0
LINE
  5
3D0
330
1F
100
AcDbEntity
  8
0
100
AcDbLine
 10
1.361049
 20
-0.790858
 30
0.0
 11
1.356937
 21
-0.791267
 31
0.0
  0
LINE
  5
3D1
330
1F
100
AcDbEntity
  8
0
100
AcDbLine
 10
1.364413
 20
-0.790448
 30
0.0
 11
1.361049
 21
-0.790858
 31
0.0
  0
LINE
  5
3D2
330
1F
100
AcDbEntity
  8
0
100
AcDbLine
 10
1.367009
 20
-0.790039
 30
0.0
 11
1.364413
 21
-0.790448
 31
0.0
  0
LINE
  5
3D3
330
1F
100
AcDbEntity
  8
0
100
AcDbLine
 10
1.380879
 20
-0.793945
 30
0.0
 11
1.369429
 21
-0.7884
 31
0.0
  0
LINE
  5
3D4
330
1F
100
AcDbEntity
  8
0
100
AcDbLine
 10
1.31664
 20
-0.78402
 30
0.0
 11
1.319391
 21
-0.784158
 31
0.0
  0
LINE
  5
3D5
330
1F
100
AcDbEntity
  8
0
100
AcDbLine
 10
1.09932
 20
-0.777293
 30
0.0
 11
1.110671
 21
-0.772018
 31
0.0
  0
LINE
  5
3D6
330
1F
100
AcDbEntity
  8
0
100
AcDbLine
 10
1.117472
 20
-0.770789
 30
0.0
 11
1.114421
 21
-0.771199
 31
0.0
  0
LINE
  5
3D7
330
1F
100
AcDbEntity
  8
0
100
AcDbLine
 10
1.121279
 20
-0.770379
 30
0.0
 11
1.117472
 21
-0.770789
 31
0.0
  0
LINE
  5
3D8
330
1F
100
AcDbEntity
  8
0
100
AcDbLine
 10
1.125821
 20
-0.76997
 30
0.0
 11
1.121279
 21
-0.770379
 31
0.0
  0
LINE
  5
3D9
330
1F
100
AcDbEntity
  8
0
100
AcDbLine
 10
1.131074
 20
-0.76956
 30
0.0
 11
1.125821
 21
-0.76997
 31
0.0
  0
LINE
  5
3DA
330
1F
100
AcDbEntity
  8
0
100
AcDbLine
 10
1.137002
 20
-0.769151
 30
0.0
 11
1.131074
 21
-0.76956
 31
0.0
  0
LINE
  5
3DB
330
1F
100
AcDbEntity
  8
0
100
AcDbLine
 10
1.143565
 20
-0.768741
 30
0.0
 11
1.137002
 21
-0.769151
 31
0.0
  0
LINE
  5
3DC
330
1F
100
AcDbEntity
  8
0
100
AcDbLine
 10
1.150725
 20
-0.768332
 30
0.0
 11
1.143565
 21
-0.768741
 31
0.0
  0
LINE
  5
3DD
330
1F
100
AcDbEntity
  8
0
100
AcDbLine
 10
1.15844
 20
-0.767922
 30
0.0
 11
1.150725
 21
-0.768332
 31
0.0
  0
LINE
  5
3DE
330
1F
100
AcDbEntity
  8
0
100
AcDbLine
 10
1.166661
 20
-0.767512
 30
0.0
 11
1.15844
 21
-0.767922
 31
0.0
  0
LINE
  5
3DF
330
1F
100
AcDbEntity
  8
0
100
AcDbLine
 10
1.175335
 20
-0.767103
 30
0.0
 11
1.166661
 21
-0.767512
 31
0.0
  0
LINE
  5
3E0
330
1F
100
AcDbEntity
  8
0
100
AcDbLine
 10
1.284061
 20
-0.762598
 30
0.0
 11
1.274301
 21
-0.763007
 31
0.0
  0
LINE
  5
3E1
330
1F
100
AcDbEntity
  8
0
100
AcDbLine
 10
1.341611
 20
-0.759731
 30
0.0
 11
1.33528
 21
-0.761907
 31
0.0
  0
LINE
  5
3E2
330
1F
100
AcDbEntity
  8
0
100
AcDbLine
 10
1.347679
 20
-0.759321
 30
0.0
 11
1.341611
 21
-0.759731
 31
0.0
  0
LINE
  5
3E3
330
1F
100
AcDbEntity
  8
0
100
AcDbLine
 10
1.353083
 20
-0.758911
 30
0.0
 11
1.347679
 21
-0.759321
 31
0.0
  0
LINE
  5
3E4
330
1F
100
AcDbEntity
  8
0
100
AcDbLine
 10
1.357786
 20
-0.758502
 30
0.0
 11
1.353083
 21
-0.758911
 31
0.0
  0
LINE
  5
3E5
330
1F
100
AcDbEntity
  8
0
100
AcDbLine
 10
1.361757
 20
-0.758092
 30
0.0
 11
1.357786
 21
-0.758502
 31
0.0
  0
LINE
  5
3E6
330
1F
100
AcDbEntity
  8
0
100
AcDbLine
 10
1.364973
 20
-0.757683
 30
0.0
 11
1.361757
 21
-0.758092
 31
0.0
  0
LINE
  5
3E7
330
1F
100
AcDbEntity
  8
0
100
AcDbLine
 10
1.379988
 20
-0.760641
 30
0.0
 11
1.369634
 21
-0.755827
 31
0.0
  0
LINE
  5
3E8
330
1F
100
AcDbEntity
  8
0
100
AcDbLine
 10
1.316672
 20
-0.751335
 30
0.0
 11
1.319408
 21
-0.751471
 31
0.0
  0
LINE
  5
3E9
330
1F
100
AcDbEntity
  8
0
100
AcDbLine
 10
1.16058
 20
-0.744633
 30
0.0
 11
1.163368
 21
-0.744771
 31
0.0
  0
LINE
  5
3EA
330
1F
100
AcDbEntity
  8
0
100
AcDbLine
 10
1.099216
 20
-0.744683
 30
0.0
 11
1.110894
 21
-0.739252
 31
0.0
  0
LINE
  5
3EB
330
1F
100
AcDbEntity
  8
0
100
AcDbLine
 10
1.118148
 20
-0.738023
 30
0.0
 11
1.114949
 21
-0.738433
 31
0.0
  0
LINE
  5
3EC
330
1F
100
AcDbEntity
  8
0
100
AcDbLine
 10
1.122098
 20
-0.737614
 30
0.0
 11
1.118148
 21
-0.738023
 31
0.0
  0
LINE
  5
3ED
330
1F
100
AcDbEntity
  8
0
100
AcDbLine
 10
1.126779
 20
-0.737204
 30
0.0
 11
1.122098
 21
-0.737614
 31
0.0
  0
LINE
  5
3EE
330
1F
100
AcDbEntity
  8
0
100
AcDbLine
 10
1.132164
 20
-0.736795
 30
0.0
 11
1.126779
 21
-0.737204
 31
0.0
  0
LINE
  5
3EF
330
1F
100
AcDbEntity
  8
0
100
AcDbLine
 10
1.138218
 20
-0.736385
 30
0.0
 11
1.132164
 21
-0.736795
 31
0.0
  0
LINE
  5
3F0
330
1F
100
AcDbEntity
  8
0
100
AcDbLine
 10
1.144899
 20
-0.735976
 30
0.0
 11
1.138218
 21
-0.736385
 31
0.0
  0
LINE
  5
3F1
330
1F
100
AcDbEntity
  8
0
100
AcDbLine
 10
1.152169
 20
-0.735566
 30
0.0
 11
1.144899
 21
-0.735976
 31
0.0
  0
LINE
  5
3F2
330
1F
100
AcDbEntity
  8
0
100
AcDbLine
 10
1.159986
 20
-0.735156
 30
0.0
 11
1.152169
 21
-0.735566
 31
0.0
  0
LINE
  5
3F3
330
1F
100
AcDbEntity
  8
0
100
AcDbLine
 10
1.168299
 20
-0.734747
 30
0.0
 11
1.159986
 21
-0.735156
 31
0.0
  0
LINE
  5
3F4
330
1F
100
AcDbEntity
  8
0
100
AcDbLine
 10
1.177054
 20
-0.734337
 30
0.0
 11
1.168299
 21
-0.734747
 31
0.0
  0
LINE
  5
3F5
330
1F
100
AcDbEntity
  8
0
100
AcDbLine
 10
1.195678
 20
-0.733518
 30
0.0
 11
1.186198
 21
-0.733928
 31
0.0
  0
LINE
  5
3F6
330
1F
100
AcDbEntity
  8
0
100
AcDbLine
 10
1.29534
 20
-0.729422
 30
0.0
 11
1.285912
 21
-0.729832
 31
0.0
  0
LINE
  5
3F7
330
1F
100
AcDbEntity
  8
0
100
AcDbLine
 10
1.321343
 20
-0.728194
 30
0.0
 11
1.313309
 21
-0.728291
 31
0.0
  0
LINE
  5
3F8
330
1F
100
AcDbEntity
  8
0
100
AcDbLine
 10
1.34283
 20
-0.726965
 30
0.0
 11
1.337231
 21
-0.729304
 31
0.0
  0
LINE
  5
3F9
330
1F
100
AcDbEntity
  8
0
100
AcDbLine
 10
1.348773
 20
-0.726555
 30
0.0
 11
1.34283
 21
-0.726965
 31
0.0
  0
LINE
  5
3FA
330
1F
100
AcDbEntity
  8
0
100
AcDbLine
 10
1.354044
 20
-0.726146
 30
0.0
 11
1.348773
 21
-0.726555
 31
0.0
  0
LINE
  5
3FB
330
1F
100
AcDbEntity
  8
0
100
AcDbLine
 10
1.358609
 20
-0.725736
 30
0.0
 11
1.354044
 21
-0.726146
 31
0.0
  0
LINE
  5
3FC
330
1F
100
AcDbEntity
  8
0
100
AcDbLine
 10
1.362436
 20
-0.725327
 30
0.0
 11
1.358609
 21
-0.725736
 31
0.0
  0
LINE
  5
3FD
330
1F
100
AcDbEntity
  8
0
100
AcDbLine
 10
1.365505
 20
-0.724917
 30
0.0
 11
1.362436
 21
-0.725327
 31
0.0
  0
LINE
  5
3FE
330
1F
100
AcDbEntity
  8
0
100
AcDbLine
 10
1.380215
 20
-0.728032
 30
0.0
 11
1.369892
 21
-0.723279
 31
0.0
  0
LINE
  5
3FF
330
1F
100
AcDbEntity
  8
0
100
AcDbLine
 10
1.316641
 20
-0.718647
 30
0.0
 11
1.319234
 21
-0.718774
 31
0.0
  0
LINE
  5
400
330
1F
100
AcDbEntity
  8
0
100
AcDbLine
 10
1.160605
 20
-0.711947
 30
0.0
 11
1.163524
 21
-0.712075
 31
0.0
  0
LINE
  5
401
330
1F
100
AcDbEntity
  8
0
100
AcDbLine
 10
1.099159
 20
-0.712074
 30
0.0
 11
1.11016
 21
-0.706896
 31
0.0
  0
LINE
  5
402
330
1F
100
AcDbEntity
  8
0
100
AcDbLine
 10
1.115505
 20
-0.705667
 30
0.0
 11
1.11293
 21
-0.706077
 31
0.0
  0
LINE
  5
403
330
1F
100
AcDbEntity
  8
0
100
AcDbLine
 10
1.118851
 20
-0.705258
 30
0.0
 11
1.115505
 21
-0.705667
 31
0.0
  0
LINE
  5
404
330
1F
100
AcDbEntity
  8
0
100
AcDbLine
 10
1.122944
 20
-0.704848
 30
0.0
 11
1.118851
 21
-0.705258
 31
0.0
  0
LINE
  5
405
330
1F
100
AcDbEntity
  8
0
100
AcDbLine
 10
1.127763
 20
-0.704439
 30
0.0
 11
1.122944
 21
-0.704848
 31
0.0
  0
LINE
  5
406
330
1F
100
AcDbEntity
  8
0
100
AcDbLine
 10
1.133279
 20
-0.704029
 30
0.0
 11
1.127763
 21
-0.704439
 31
0.0
  0
LINE
  5
407
330
1F
100
AcDbEntity
  8
0
100
AcDbLine
 10
1.139457
 20
-0.70362
 30
0.0
 11
1.133279
 21
-0.704029
 31
0.0
  0
LINE
  5
408
330
1F
100
AcDbEntity
  8
0
100
AcDbLine
 10
1.146256
 20
-0.70321
 30
0.0
 11
1.139457
 21
-0.70362
 31
0.0
  0
LINE
  5
409
330
1F
100
AcDbEntity
  8
0
100
AcDbLine
 10
1.153634
 20
-0.7028
 30
0.0
 11
1.146256
 21
-0.70321
 31
0.0
  0
LINE
  5
40A
330
1F
100
AcDbEntity
  8
0
100
AcDbLine
 10
1.16155
 20
-0.702391
 30
0.0
 11
1.153634
 21
-0.7028
 31
0.0
  0
LINE
  5
40B
330
1F
100
AcDbEntity
  8
0
100
AcDbLine
 10
1.169952
 20
-0.701981
 30
0.0
 11
1.16155
 21
-0.702391
 31
0.0
  0
LINE
  5
40C
330
1F
100
AcDbEntity
  8
0
100
AcDbLine
 10
1.207337
 20
-0.700343
 30
0.0
 11
1.197537
 21
-0.700753
 31
0.0
  0
LINE
  5
40D
330
1F
100
AcDbEntity
  8
0
100
AcDbLine
 10
1.287752
 20
-0.697066
 30
0.0
 11
1.27809
 21
-0.697476
 31
0.0
  0
LINE
  5
40E
330
1F
100
AcDbEntity
  8
0
100
AcDbLine
 10
1.344026
 20
-0.694199
 30
0.0
 11
1.335965
 21
-0.696565
 31
0.0
  0
LINE
  5
40F
330
1F
100
AcDbEntity
  8
0
100
AcDbLine
 10
1.349842
 20
-0.69379
 30
0.0
 11
1.344026
 21
-0.694199
 31
0.0
  0
LINE
  5
410
330
1F
100
AcDbEntity
  8
0
100
AcDbLine
 10
1.354979
 20
-0.69338
 30
0.0
 11
1.349842
 21
-0.69379
 31
0.0
  0
LINE
  5
411
330
1F
100
AcDbEntity
  8
0
100
AcDbLine
 10
1.359405
 20
-0.692971
 30
0.0
 11
1.354979
 21
-0.69338
 31
0.0
  0
LINE
  5
412
330
1F
100
AcDbEntity
  8
0
100
AcDbLine
 10
1.363087
 20
-0.692561
 30
0.0
 11
1.359405
 21
-0.692971
 31
0.0
  0
LINE
  5
413
330
1F
100
AcDbEntity
  8
0
100
AcDbLine
 10
1.366007
 20
-0.692152
 30
0.0
 11
1.363087
 21
-0.692561
 31
0.0
  0
LINE
  5
414
330
1F
100
AcDbEntity
  8
0
100
AcDbLine
 10
1.380395
 20
-0.695422
 30
0.0
 11
1.369779
 21
-0.690513
 31
0.0
  0
LINE
  5
415
330
1F
100
AcDbEntity
  8
0
100
AcDbLine
 10
1.160615
 20
-0.67926
 30
0.0
 11
1.163351
 21
-0.679399
 31
0.0
  0
LINE
  5
416
330
1F
100
AcDbEntity
  8
0
100
AcDbLine
 10
1.099124
 20
-0.679464
 30
0.0
 11
1.110288
 21
-0.674131
 31
0.0
  0
LINE
  5
417
330
1F
100
AcDbEntity
  8
0
100
AcDbLine
 10
1.11609
 20
-0.672902
 30
0.0
 11
1.113365
 21
-0.673311
 31
0.0
  0
LINE
  5
418
330
1F
100
AcDbEntity
  8
0
100
AcDbLine
 10
1.119582
 20
-0.672492
 30
0.0
 11
1.11609
 21
-0.672902
 31
0.0
  0
LINE
  5
419
330
1F
100
AcDbEntity
  8
0
100
AcDbLine
 10
1.123817
 20
-0.672083
 30
0.0
 11
1.119582
 21
-0.672492
 31
0.0
  0
LINE
  5
41A
330
1F
100
AcDbEntity
  8
0
100
AcDbLine
 10
1.128772
 20
-0.671673
 30
0.0
 11
1.123817
 21
-0.672083
 31
0.0
  0
LINE
  5
41B
330
1F
100
AcDbEntity
  8
0
100
AcDbLine
 10
1.134419
 20
-0.671264
 30
0.0
 11
1.128772
 21
-0.671673
 31
0.0
  0
LINE
  5
41C
330
1F
100
AcDbEntity
  8
0
100
AcDbLine
 10
1.14072
 20
-0.670854
 30
0.0
 11
1.134419
 21
-0.671264
 31
0.0
  0
LINE
  5
41D
330
1F
100
AcDbEntity
  8
0
100
AcDbLine
 10
1.147634
 20
-0.670444
 30
0.0
 11
1.14072
 21
-0.670854
 31
0.0
  0
LINE
  5
41E
330
1F
100
AcDbEntity
  8
0
100
AcDbLine
 10
1.155119
 20
-0.670035
 30
0.0
 11
1.147634
 21
-0.670444
 31
0.0
  0
LINE
  5
41F
330
1F
100
AcDbEntity
  8
0
100
AcDbLine
 10
1.163132
 20
-0.669625
 30
0.0
 11
1.155119
 21
-0.670035
 31
0.0
  0
LINE
  5
420
330
1F
100
AcDbEntity
  8
0
100
AcDbLine
 10
1.180534
 20
-0.668806
 30
0.0
 11
1.171622
 21
-0.669216
 31
0.0
  0
LINE
  5
421
330
1F
100
AcDbEntity
  8
0
100
AcDbLine
 10
1.289335
 20
-0.662007
 30
0.0
 11
1.279972
 21
-0.66471
 31
0.0
  0
LINE
  5
422
330
1F
100
AcDbEntity
  8
0
100
AcDbLine
 10
1.325699
 20
-0.663425
 30
0.0
 11
1.316339
 21
-0.663072
 31
0.0
  0
LINE
  5
423
330
1F
100
AcDbEntity
  8
0
100
AcDbLine
 10
1.338859
 20
-0.661843
 30
0.0
 11
1.331758
 21
-0.663691
 31
0.0
  0
LINE
  5
424
330
1F
100
AcDbEntity
  8
0
100
AcDbLine
 10
1.345198
 20
-0.661434
 30
0.0
 11
1.338859
 21
-0.661843
 31
0.0
  0
LINE
  5
425
330
1F
100
AcDbEntity
  8
0
100
AcDbLine
 10
1.350885
 20
-0.661024
 30
0.0
 11
1.345198
 21
-0.661434
 31
0.0
  0
LINE
  5
426
330
1F
100
AcDbEntity
  8
0
100
AcDbLine
 10
1.355888
 20
-0.660615
 30
0.0
 11
1.350885
 21
-0.661024
 31
0.0
  0
LINE
  5
427
330
1F
100
AcDbEntity
  8
0
100
AcDbLine
 10
1.360173
 20
-0.660205
 30
0.0
 11
1.355888
 21
-0.660615
 31
0.0
  0
LINE
  5
428
330
1F
100
AcDbEntity
  8
0
100
AcDbLine
 10
1.36371
 20
-0.659796
 30
0.0
 11
1.360173
 21
-0.660205
 31
0.0
  0
LINE
  5
429
330
1F
100
AcDbEntity
  8
0
100
AcDbLine
 10
1.366481
 20
-0.659386
 30
0.0
 11
1.36371
 21
-0.659796
 31
0.0
  0
LINE
  5
42A
330
1F
100
AcDbEntity
  8
0
100
AcDbLine
 10
1.380553
 20
-0.662812
 30
0.0
 11
1.369637
 21
-0.657748
 31
0.0
  0
LINE
  5
42B
330
1F
100
AcDbEntity
  8
0
100
AcDbLine
 10
1.31666
 20
-0.653272
 30
0.0
 11
1.320786
 21
-0.653482
 31
0.0
  0
LINE
  5
42C
330
1F
100
AcDbEntity
  8
0
100
AcDbLine
 10
1.099113
 20
-0.646855
 30
0.0
 11
1.110446
 21
-0.641365
 31
0.0
  0
LINE
  5
42D
330
1F
100
AcDbEntity
  8
0
100
AcDbLine
 10
1.116703
 20
-0.640136
 30
0.0
 11
1.113829
 21
-0.640546
 31
0.0
  0
LINE
  5
42E
330
1F
100
AcDbEntity
  8
0
100
AcDbLine
 10
1.120341
 20
-0.639727
 30
0.0
 11
1.116703
 21
-0.640136
 31
0.0
  0
LINE
  5
42F
330
1F
100
AcDbEntity
  8
0
100
AcDbLine
 10
1.124717
 20
-0.639317
 30
0.0
 11
1.120341
 21
-0.639727
 31
0.0
  0
LINE
  5
430
330
1F
100
AcDbEntity
  8
0
100
AcDbLine
 10
1.129807
 20
-0.638908
 30
0.0
 11
1.124717
 21
-0.639317
 31
0.0
  0
LINE
  5
431
330
1F
100
AcDbEntity
  8
0
100
AcDbLine
 10
1.135583
 20
-0.638498
 30
0.0
 11
1.129807
 21
-0.638908
 31
0.0
  0
LINE
  5
432
330
1F
100
AcDbEntity
  8
0
100
AcDbLine
 10
1.142005
 20
-0.638088
 30
0.0
 11
1.135583
 21
-0.638498
 31
0.0
  0
LINE
  5
433
330
1F
100
AcDbEntity
  8
0
100
AcDbLine
 10
1.149033
 20
-0.637679
 30
0.0
 11
1.142005
 21
-0.638088
 31
0.0
  0
LINE
  5
434
330
1F
100
AcDbEntity
  8
0
100
AcDbLine
 10
1.156623
 20
-0.637269
 30
0.0
 11
1.149033
 21
-0.637679
 31
0.0
  0
LINE
  5
435
330
1F
100
AcDbEntity
  8
0
100
AcDbLine
 10
1.164732
 20
-0.63686
 30
0.0
 11
1.156623
 21
-0.637269
 31
0.0
  0
LINE
  5
436
330
1F
100
AcDbEntity
  8
0
100
AcDbLine
 10
1.173308
 20
-0.63645
 30
0.0
 11
1.164732
 21
-0.63686
 31
0.0
  0
LINE
  5
437
330
1F
100
AcDbEntity
  8
0
100
AcDbLine
 10
1.291399
 20
-0.631535
 30
0.0
 11
1.281844
 21
-0.631945
 31
0.0
  0
LINE
  5
438
330
1F
100
AcDbEntity
  8
0
100
AcDbLine
 10
1.299726
 20
-0.629708
 30
0.0
 11
1.291399
 21
-0.631535
 31
0.0
  0
LINE
  5
439
330
1F
100
AcDbEntity
  8
0
100
AcDbLine
 10
1.317859
 20
-0.630416
 30
0.0
 11
1.309498
 21
-0.630716
 31
0.0
  0
LINE
  5
43A
330
1F
100
AcDbEntity
  8
0
100
AcDbLine
 10
1.325874
 20
-0.629897
 30
0.0
 11
1.317859
 21
-0.630416
 31
0.0
  0
LINE
  5
43B
330
1F
100
AcDbEntity
  8
0
100
AcDbLine
 10
1.331596
 20
-0.630992
 30
0.0
 11
1.325874
 21
-0.629897
 31
0.0
  0
LINE
  5
43C
330
1F
100
AcDbEntity
  8
0
100
AcDbLine
 10
1.346345
 20
-0.628668
 30
0.0
 11
1.34013
 21
-0.629078
 31
0.0
  0
LINE
  5
43D
330
1F
100
AcDbEntity
  8
0
100
AcDbLine
 10
1.351903
 20
-0.628259
 30
0.0
 11
1.346345
 21
-0.628668
 31
0.0
  0
LINE
  5
43E
330
1F
100
AcDbEntity
  8
0
100
AcDbLine
 10
1.35677
 20
-0.627849
 30
0.0
 11
1.351903
 21
-0.628259
 31
0.0
  0
LINE
  5
43F
330
1F
100
AcDbEntity
  8
0
100
AcDbLine
 10
1.360913
 20
-0.62744
 30
0.0
 11
1.35677
 21
-0.627849
 31
0.0
  0
LINE
  5
440
330
1F
100
AcDbEntity
  8
0
100
AcDbLine
 10
1.364304
 20
-0.62703
 30
0.0
 11
1.360913
 21
-0.62744
 31
0.0
  0
LINE
  5
441
330
1F
100
AcDbEntity
  8
0
100
AcDbLine
 10
1.366925
 20
-0.626621
 30
0.0
 11
1.364304
 21
-0.62703
 31
0.0
  0
LINE
  5
442
330
1F
100
AcDbEntity
  8
0
100
AcDbLine
 10
1.380688
 20
-0.630203
 30
0.0
 11
1.369464
 21
-0.624982
 31
0.0
  0
LINE
  5
443
330
1F
100
AcDbEntity
  8
0
100
AcDbLine
 10
1.316679
 20
-0.620588
 30
0.0
 11
1.319452
 21
-0.620728
 31
0.0
  0
LINE
  5
444
330
1F
100
AcDbEntity
  8
0
100
AcDbLine
 10
1.100005
 20
-0.613551
 30
0.0
 11
1.110633
 21
-0.608599
 31
0.0
  0
LINE
  5
445
330
1F
100
AcDbEntity
  8
0
100
AcDbLine
 10
1.117345
 20
-0.607371
 30
0.0
 11
1.114322
 21
-0.60778
 31
0.0
  0
LINE
  5
446
330
1F
100
AcDbEntity
  8
0
100
AcDbLine
 10
1.121127
 20
-0.606961
 30
0.0
 11
1.117345
 21
-0.607371
 31
0.0
  0
LINE
  5
447
330
1F
100
AcDbEntity
  8
0
100
AcDbLine
 10
1.125643
 20
-0.606552
 30
0.0
 11
1.121127
 21
-0.606961
 31
0.0
  0
LINE
  5
448
330
1F
100
AcDbEntity
  8
0
100
AcDbLine
 10
1.130867
 20
-0.606142
 30
0.0
 11
1.125643
 21
-0.606552
 31
0.0
  0
LINE
  5
449
330
1F
100
AcDbEntity
  8
0
100
AcDbLine
 10
1.136771
 20
-0.605732
 30
0.0
 11
1.130867
 21
-0.606142
 31
0.0
  0
LINE
  5
44A
330
1F
100
AcDbEntity
  8
0
100
AcDbLine
 10
1.143313
 20
-0.605323
 30
0.0
 11
1.136771
 21
-0.605732
 31
0.0
  0
LINE
  5
44B
330
1F
100
AcDbEntity
  8
0
100
AcDbLine
 10
1.150453
 20
-0.604913
 30
0.0
 11
1.143313
 21
-0.605323
 31
0.0
  0
LINE
  5
44C
330
1F
100
AcDbEntity
  8
0
100
AcDbLine
 10
1.16635
 20
-0.604094
 30
0.0
 11
1.158146
 21
-0.604504
 31
0.0
  0
LINE
  5
44D
330
1F
100
AcDbEntity
  8
0
100
AcDbLine
 10
1.175009
 20
-0.603685
 30
0.0
 11
1.16635
 21
-0.604094
 31
0.0
  0
LINE
  5
44E
330
1F
100
AcDbEntity
  8
0
100
AcDbLine
 10
1.319497
 20
-0.597541
 30
0.0
 11
1.3133
 21
-0.597544
 31
0.0
  0
LINE
  5
44F
330
1F
100
AcDbEntity
  8
0
100
AcDbLine
 10
1.325695
 20
-0.598052
 30
0.0
 11
1.319497
 21
-0.597541
 31
0.0
  0
LINE
  5
450
330
1F
100
AcDbEntity
  8
0
100
AcDbLine
 10
1.347469
 20
-0.595903
 30
0.0
 11
1.341641
 21
-0.598767
 31
0.0
  0
LINE
  5
451
330
1F
100
AcDbEntity
  8
0
100
AcDbLine
 10
1.352895
 20
-0.595493
 30
0.0
 11
1.347469
 21
-0.595903
 31
0.0
  0
LINE
  5
452
330
1F
100
AcDbEntity
  8
0
100
AcDbLine
 10
1.357625
 20
-0.595084
 30
0.0
 11
1.352895
 21
-0.595493
 31
0.0
  0
LINE
  5
453
330
1F
100
AcDbEntity
  8
0
100
AcDbLine
 10
1.361626
 20
-0.594674
 30
0.0
 11
1.357625
 21
-0.595084
 31
0.0
  0
LINE
  5
454
330
1F
100
AcDbEntity
  8
0
100
AcDbLine
 10
1.36487
 20
-0.594265
 30
0.0
 11
1.361626
 21
-0.594674
 31
0.0
  0
LINE
  5
455
330
1F
100
AcDbEntity
  8
0
100
AcDbLine
 10
1.380776
 20
-0.597593
 30
0.0
 11
1.369262
 21
-0.592217
 31
0.0
  0
LINE
  5
456
330
1F
100
AcDbEntity
  8
0
100
AcDbLine
 10
1.316636
 20
-0.5879
 30
0.0
 11
1.319436
 21
-0.588039
 31
0.0
  0
LINE
  5
457
330
1F
100
AcDbEntity
  8
0
100
AcDbLine
 10
1.16056
 20
-0.5812
 30
0.0
 11
1.163533
 21
-0.581328
 31
0.0
  0
LINE
  5
458
330
1F
100
AcDbEntity
  8
0
100
AcDbLine
 10
1.099794
 20
-0.580941
 30
0.0
 11
1.11085
 21
-0.575834
 31
0.0
  0
LINE
  5
459
330
1F
100
AcDbEntity
  8
0
100
AcDbLine
 10
1.118015
 20
-0.574605
 30
0.0
 11
1.114844
 21
-0.575015
 31
0.0
  0
LINE
  5
45A
330
1F
100
AcDbEntity
  8
0
100
AcDbLine
 10
1.121941
 20
-0.574196
 30
0.0
 11
1.118015
 21
-0.574605
 31
0.0
  0
LINE
  5
45B
330
1F
100
AcDbEntity
  8
0
100
AcDbLine
 10
1.126596
 20
-0.573786
 30
0.0
 11
1.121941
 21
-0.574196
 31
0.0
  0
LINE
  5
45C
330
1F
100
AcDbEntity
  8
0
100
AcDbLine
 10
1.131953
 20
-0.573376
 30
0.0
 11
1.126596
 21
-0.573786
 31
0.0
  0
LINE
  5
45D
330
1F
100
AcDbEntity
  8
0
100
AcDbLine
 10
1.137982
 20
-0.572967
 30
0.0
 11
1.131953
 21
-0.573376
 31
0.0
  0
LINE
  5
45E
330
1F
100
AcDbEntity
  8
0
100
AcDbLine
 10
1.144644
 20
-0.572557
 30
0.0
 11
1.137982
 21
-0.572967
 31
0.0
  0
LINE
  5
45F
330
1F
100
AcDbEntity
  8
0
100
AcDbLine
 10
1.151893
 20
-0.572148
 30
0.0
 11
1.144644
 21
-0.572557
 31
0.0
  0
LINE
  5
460
330
1F
100
AcDbEntity
  8
0
100
AcDbLine
 10
1.159689
 20
-0.571738
 30
0.0
 11
1.151893
 21
-0.572148
 31
0.0
  0
LINE
  5
461
330
1F
100
AcDbEntity
  8
0
100
AcDbLine
 10
1.167984
 20
-0.571329
 30
0.0
 11
1.159689
 21
-0.571738
 31
0.0
  0
LINE
  5
462
330
1F
100
AcDbEntity
  8
0
100
AcDbLine
 10
1.176725
 20
-0.570919
 30
0.0
 11
1.167984
 21
-0.571329
 31
0.0
  0
LINE
  5
463
330
1F
100
AcDbEntity
  8
0
100
AcDbLine
 10
1.185857
 20
-0.570509
 30
0.0
 11
1.176725
 21
-0.570919
 31
0.0
  0
LINE
  5
464
330
1F
100
AcDbEntity
  8
0
100
AcDbLine
 10
1.285559
 20
-0.566414
 30
0.0
 11
1.275839
 21
-0.566823
 31
0.0
  0
LINE
  5
465
330
1F
100
AcDbEntity
  8
0
100
AcDbLine
 10
1.319589
 20
-0.565111
 30
0.0
 11
1.3128
 21
-0.565185
 31
0.0
  0
LINE
  5
466
330
1F
100
AcDbEntity
  8
0
100
AcDbLine
 10
1.335996
 20
-0.563956
 30
0.0
 11
1.328328
 21
-0.565481
 31
0.0
  0
LINE
  5
467
330
1F
100
AcDbEntity
  8
0
100
AcDbLine
 10
1.342601
 20
-0.563547
 30
0.0
 11
1.335996
 21
-0.563956
 31
0.0
  0
LINE
  5
468
330
1F
100
AcDbEntity
  8
0
100
AcDbLine
 10
1.348567
 20
-0.563137
 30
0.0
 11
1.342601
 21
-0.563547
 31
0.0
  0
LINE
  5
469
330
1F
100
AcDbEntity
  8
0
100
AcDbLine
 10
1.353861
 20
-0.562728
 30
0.0
 11
1.348567
 21
-0.563137
 31
0.0
  0
LINE
  5
46A
330
1F
100
AcDbEntity
  8
0
100
AcDbLine
 10
1.358453
 20
-0.562318
 30
0.0
 11
1.353861
 21
-0.562728
 31
0.0
  0
LINE
  5
46B
330
1F
100
AcDbEntity
  8
0
100
AcDbLine
 10
1.36231
 20
-0.561909
 30
0.0
 11
1.358453
 21
-0.562318
 31
0.0
  0
LINE
  5
46C
330
1F
100
AcDbEntity
  8
0
100
AcDbLine
 10
1.365407
 20
-0.561499
 30
0.0
 11
1.36231
 21
-0.561909
 31
0.0
  0
LINE
  5
46D
330
1F
100
AcDbEntity
  8
0
100
AcDbLine
 10
1.380841
 20
-0.564984
 30
0.0
 11
1.369912
 21
-0.559861
 31
0.0
  0
LINE
  5
46E
330
1F
100
AcDbEntity
  8
0
100
AcDbLine
 10
1.316676
 20
-0.555215
 30
0.0
 11
1.319435
 21
-0.555351
 31
0.0
  0
LINE
  5
46F
330
1F
100
AcDbEntity
  8
0
100
AcDbLine
 10
1.160548
 20
-0.548511
 30
0.0
 11
1.163365
 21
-0.548652
 31
0.0
  0
LINE
  5
470
330
1F
100
AcDbEntity
  8
0
100
AcDbLine
 10
1.099605
 20
-0.548332
 30
0.0
 11
1.110138
 21
-0.543478
 31
0.0
  0
LINE
  5
471
330
1F
100
AcDbEntity
  8
0
100
AcDbLine
 10
1.115395
 20
-0.542249
 30
0.0
 11
1.112853
 21
-0.542659
 31
0.0
  0
LINE
  5
472
330
1F
100
AcDbEntity
  8
0
100
AcDbLine
 10
1.118713
 20
-0.54184
 30
0.0
 11
1.115395
 21
-0.542249
 31
0.0
  0
LINE
  5
473
330
1F
100
AcDbEntity
  8
0
100
AcDbLine
 10
1.122782
 20
-0.54143
 30
0.0
 11
1.118713
 21
-0.54184
 31
0.0
  0
LINE
  5
474
330
1F
100
AcDbEntity
  8
0
100
AcDbLine
 10
1.127575
 20
-0.54102
 30
0.0
 11
1.122782
 21
-0.54143
 31
0.0
  0
LINE
  5
475
330
1F
100
AcDbEntity
  8
0
100
AcDbLine
 10
1.133063
 20
-0.540611
 30
0.0
 11
1.127575
 21
-0.54102
 31
0.0
  0
LINE
  5
476
330
1F
100
AcDbEntity
  8
0
100
AcDbLine
 10
1.139217
 20
-0.540201
 30
0.0
 11
1.133063
 21
-0.540611
 31
0.0
  0
LINE
  5
477
330
1F
100
AcDbEntity
  8
0
100
AcDbLine
 10
1.145996
 20
-0.539792
 30
0.0
 11
1.139217
 21
-0.540201
 31
0.0
  0
LINE
  5
478
330
1F
100
AcDbEntity
  8
0
100
AcDbLine
 10
1.153354
 20
-0.539382
 30
0.0
 11
1.145996
 21
-0.539792
 31
0.0
  0
LINE
  5
479
330
1F
100
AcDbEntity
  8
0
100
AcDbLine
 10
1.161249
 20
-0.538973
 30
0.0
 11
1.153354
 21
-0.539382
 31
0.0
  0
LINE
  5
47A
330
1F
100
AcDbEntity
  8
0
100
AcDbLine
 10
1.178455
 20
-0.538153
 30
0.0
 11
1.169634
 21
-0.538563
 31
0.0
  0
LINE
  5
47B
330
1F
100
AcDbEntity
  8
0
100
AcDbLine
 10
1.187656
 20
-0.537744
 30
0.0
 11
1.178455
 21
-0.538153
 31
0.0
  0
LINE
  5
47C
330
1F
100
AcDbEntity
  8
0
100
AcDbLine
 10
1.287402
 20
-0.533648
 30
0.0
 11
1.277731
 21
-0.534058
 31
0.0
  0
LINE
  5
47D
330
1F
100
AcDbEntity
  8
0
100
AcDbLine
 10
1.313325
 20
-0.532172
 30
0.0
 11
1.305807
 21
-0.532829
 31
0.0
  0
LINE
  5
47E
330
1F
100
AcDbEntity
  8
0
100
AcDbLine
 10
1.32282
 20
-0.532561
 30
0.0
 11
1.313325
 21
-0.532172
 31
0.0
  0
LINE
  5
47F
330
1F
100
AcDbEntity
  8
0
100
AcDbLine
 10
1.329054
 20
-0.532826
 30
0.0
 11
1.32282
 21
-0.532561
 31
0.0
  0
LINE
  5
480
330
1F
100
AcDbEntity
  8
0
100
AcDbLine
 10
1.343801
 20
-0.530781
 30
0.0
 11
1.337271
 21
-0.533186
 31
0.0
  0
LINE
  5
481
330
1F
100
AcDbEntity
  8
0
100
AcDbLine
 10
1.349641
 20
-0.530372
 30
0.0
 11
1.343801
 21
-0.530781
 31
0.0
  0
LINE
  5
482
330
1F
100
AcDbEntity
  8
0
100
AcDbLine
 10
1.354801
 20
-0.529962
 30
0.0
 11
1.349641
 21
-0.530372
 31
0.0
  0
LINE
  5
483
330
1F
100
AcDbEntity
  8
0
100
AcDbLine
 10
1.359253
 20
-0.529553
 30
0.0
 11
1.354801
 21
-0.529962
 31
0.0
  0
LINE
  5
484
330
1F
100
AcDbEntity
  8
0
100
AcDbLine
 10
1.362967
 20
-0.529143
 30
0.0
 11
1.359253
 21
-0.529553
 31
0.0
  0
LINE
  5
485
330
1F
100
AcDbEntity
  8
0
100
AcDbLine
 10
1.365915
 20
-0.528733
 30
0.0
 11
1.362967
 21
-0.529143
 31
0.0
  0
LINE
  5
486
330
1F
100
AcDbEntity
  8
0
100
AcDbLine
 10
1.380883
 20
-0.532374
 30
0.0
 11
1.369805
 21
-0.527095
 31
0.0
  0
LINE
  5
487
330
1F
100
AcDbEntity
  8
0
100
AcDbLine
 10
1.160551
 20
-0.515824
 30
0.0
 11
1.163508
 21
-0.515955
 31
0.0
  0
LINE
  5
488
330
1F
100
AcDbEntity
  8
0
100
AcDbLine
 10
1.099439
 20
-0.515722
 30
0.0
 11
1.11026
 21
-0.510712
 31
0.0
  0
LINE
  5
489
330
1F
100
AcDbEntity
  8
0
100
AcDbLine
 10
1.115974
 20
-0.509484
 30
0.0
 11
1.113282
 21
-0.509893
 31
0.0
  0
LINE
  5
48A
330
1F
100
AcDbEntity
  8
0
100
AcDbLine
 10
1.119439
 20
-0.509074
 30
0.0
 11
1.115974
 21
-0.509484
 31
0.0
  0
LINE
  5
48B
330
1F
100
AcDbEntity
  8
0
100
AcDbLine
 10
1.12365
 20
-0.508664
 30
0.0
 11
1.119439
 21
-0.509074
 31
0.0
  0
LINE
  5
48C
330
1F
100
AcDbEntity
  8
0
100
AcDbLine
 10
1.128579
 20
-0.508255
 30
0.0
 11
1.12365
 21
-0.508664
 31
0.0
  0
LINE
  5
48D
330
1F
100
AcDbEntity
  8
0
100
AcDbLine
 10
1.134198
 20
-0.507845
 30
0.0
 11
1.128579
 21
-0.508255
 31
0.0
  0
LINE
  5
48E
330
1F
100
AcDbEntity
  8
0
100
AcDbLine
 10
1.140476
 20
-0.507436
 30
0.0
 11
1.134198
 21
-0.507845
 31
0.0
  0
LINE
  5
48F
330
1F
100
AcDbEntity
  8
0
100
AcDbLine
 10
1.14737
 20
-0.507026
 30
0.0
 11
1.140476
 21
-0.507436
 31
0.0
  0
LINE
  5
490
330
1F
100
AcDbEntity
  8
0
100
AcDbLine
 10
1.154835
 20
-0.506617
 30
0.0
 11
1.14737
 21
-0.507026
 31
0.0
  0
LINE
  5
491
330
1F
100
AcDbEntity
  8
0
100
AcDbLine
 10
1.162828
 20
-0.506207
 30
0.0
 11
1.154835
 21
-0.506617
 31
0.0
  0
LINE
  5
492
330
1F
100
AcDbEntity
  8
0
100
AcDbLine
 10
1.171301
 20
-0.505798
 30
0.0
 11
1.162828
 21
-0.506207
 31
0.0
  0
LINE
  5
493
330
1F
100
AcDbEntity
  8
0
100
AcDbLine
 10
1.189468
 20
-0.504978
 30
0.0
 11
1.1802
 21
-0.505388
 31
0.0
  0
LINE
  5
494
330
1F
100
AcDbEntity
  8
0
100
AcDbLine
 10
1.316035
 20
-0.499654
 30
0.0
 11
1.309551
 21
-0.499339
 31
0.0
  0
LINE
  5
495
330
1F
100
AcDbEntity
  8
0
100
AcDbLine
 10
1.331587
 20
-0.500245
 30
0.0
 11
1.324096
 21
-0.499244
 31
0.0
  0
LINE
  5
496
330
1F
100
AcDbEntity
  8
0
100
AcDbLine
 10
1.339018
 20
-0.500584
 30
0.0
 11
1.331587
 21
-0.500245
 31
0.0
  0
LINE
  5
497
330
1F
100
AcDbEntity
  8
0
100
AcDbLine
 10
1.344978
 20
-0.498016
 30
0.0
 11
1.339018
 21
-0.500584
 31
0.0
  0
LINE
  5
498
330
1F
100
AcDbEntity
  8
0
100
AcDbLine
 10
1.350689
 20
-0.497606
 30
0.0
 11
1.344978
 21
-0.498016
 31
0.0
  0
LINE
  5
499
330
1F
100
AcDbEntity
  8
0
100
AcDbLine
 10
1.355715
 20
-0.497197
 30
0.0
 11
1.350689
 21
-0.497606
 31
0.0
  0
LINE
  5
49A
330
1F
100
AcDbEntity
  8
0
100
AcDbLine
 10
1.360027
 20
-0.496787
 30
0.0
 11
1.355715
 21
-0.497197
 31
0.0
  0
LINE
  5
49B
330
1F
100
AcDbEntity
  8
0
100
AcDbLine
 10
1.363595
 20
-0.496377
 30
0.0
 11
1.360027
 21
-0.496787
 31
0.0
  0
LINE
  5
49C
330
1F
100
AcDbEntity
  8
0
100
AcDbLine
 10
1.366394
 20
-0.495968
 30
0.0
 11
1.363595
 21
-0.496377
 31
0.0
  0
LINE
  5
49D
330
1F
100
AcDbEntity
  8
0
100
AcDbLine
 10
1.380879
 20
-0.499764
 30
0.0
 11
1.369668
 21
-0.49433
 31
0.0
  0
LINE
  5
49E
330
1F
100
AcDbEntity
  8
0
100
AcDbLine
 10
1.3167
 20
-0.489841
 30
0.0
 11
1.31939
 21
-0.489978
 31
0.0
  0
LINE
  5
49F
330
1F
100
AcDbEntity
  8
0
100
AcDbLine
 10
1.160572
 20
-0.483139
 30
0.0
 11
1.163167
 21
-0.483271
 31
0.0
  0
LINE
  5
4A0
330
1F
100
AcDbEntity
  8
0
100
AcDbLine
 10
1.09932
 20
-0.483113
 30
0.0
 11
1.110412
 21
-0.477947
 31
0.0
  0
LINE
  5
4A1
330
1F
100
AcDbEntity
  8
0
100
AcDbLine
 10
1.116582
 20
-0.476718
 30
0.0
 11
1.11374
 21
-0.477128
 31
0.0
  0
LINE
  5
4A2
330
1F
100
AcDbEntity
  8
0
100
AcDbLine
 10
1.120192
 20
-0.476308
 30
0.0
 11
1.116582
 21
-0.476718
 31
0.0
  0
LINE
  5
4A3
330
1F
100
AcDbEntity
  8
0
100
AcDbLine
 10
1.124544
 20
-0.475899
 30
0.0
 11
1.120192
 21
-0.476308
 31
0.0
  0
LINE
  5
4A4
330
1F
100
AcDbEntity
  8
0
100
AcDbLine
 10
1.129609
 20
-0.475489
 30
0.0
 11
1.124544
 21
-0.475899
 31
0.0
  0
LINE
  5
4A5
330
1F
100
AcDbEntity
  8
0
100
AcDbLine
 10
1.135357
 20
-0.47508
 30
0.0
 11
1.129609
 21
-0.475489
 31
0.0
  0
LINE
  5
4A6
330
1F
100
AcDbEntity
  8
0
100
AcDbLine
 10
1.141757
 20
-0.47467
 30
0.0
 11
1.135357
 21
-0.47508
 31
0.0
  0
LINE
  5
4A7
330
1F
100
AcDbEntity
  8
0
100
AcDbLine
 10
1.148765
 20
-0.474261
 30
0.0
 11
1.141757
 21
-0.47467
 31
0.0
  0
LINE
  5
4A8
330
1F
100
AcDbEntity
  8
0
100
AcDbLine
 10
1.156336
 20
-0.473851
 30
0.0
 11
1.148765
 21
-0.474261
 31
0.0
  0
LINE
  5
4A9
330
1F
100
AcDbEntity
  8
0
100
AcDbLine
 10
1.164425
 20
-0.473442
 30
0.0
 11
1.156336
 21
-0.473851
 31
0.0
  0
LINE
  5
4AA
330
1F
100
AcDbEntity
  8
0
100
AcDbLine
 10
1.172984
 20
-0.473032
 30
0.0
 11
1.164425
 21
-0.473442
 31
0.0
  0
LINE
  5
4AB
330
1F
100
AcDbEntity
  8
0
100
AcDbLine
 10
1.333939
 20
-0.467666
 30
0.0
 11
1.325714
 21
-0.467306
 31
0.0
  0
LINE
  5
4AC
330
1F
100
AcDbEntity
  8
0
100
AcDbLine
 10
1.339888
 20
-0.46566
 30
0.0
 11
1.333939
 21
-0.467666
 31
0.0
  0
LINE
  5
4AD
330
1F
100
AcDbEntity
  8
0
100
AcDbLine
 10
1.34613
 20
-0.46525
 30
0.0
 11
1.339888
 21
-0.46566
 31
0.0
  0
LINE
  5
4AE
330
1F
100
AcDbEntity
  8
0
100
AcDbLine
 10
1.351712
 20
-0.464841
 30
0.0
 11
1.34613
 21
-0.46525
 31
0.0
  0
LINE
  5
4AF
330
1F
100
AcDbEntity
  8
0
100
AcDbLine
 10
1.356602
 20
-0.464431
 30
0.0
 11
1.351712
 21
-0.464841
 31
0.0
  0
LINE
  5
4B0
330
1F
100
AcDbEntity
  8
0
100
AcDbLine
 10
1.360772
 20
-0.464021
 30
0.0
 11
1.356602
 21
-0.464431
 31
0.0
  0
LINE
  5
4B1
330
1F
100
AcDbEntity
  8
0
100
AcDbLine
 10
1.364195
 20
-0.463612
 30
0.0
 11
1.360772
 21
-0.464021
 31
0.0
  0
LINE
  5
4B2
330
1F
100
AcDbEntity
  8
0
100
AcDbLine
 10
1.366844
 20
-0.463202
 30
0.0
 11
1.364195
 21
-0.463612
 31
0.0
  0
LINE
  5
4B3
330
1F
100
AcDbEntity
  8
0
100
AcDbLine
 10
1.379987
 20
-0.466461
 30
0.0
 11
1.369501
 21
-0.461564
 31
0.0
  0
LINE
  5
4B4
330
1F
100
AcDbEntity
  8
0
100
AcDbLine
 10
1.316646
 20
-0.457153
 30
0.0
 11
1.319395
 21
-0.457292
 31
0.0
  0
LINE
  5
4B5
330
1F
100
AcDbEntity
  8
0
100
AcDbLine
 10
1.099224
 20
-0.450503
 30
0.0
 11
1.110594
 21
-0.445181
 31
0.0
  0
LINE
  5
4B6
330
1F
100
AcDbEntity
  8
0
100
AcDbLine
 10
1.117219
 20
-0.443953
 30
0.0
 11
1.114228
 21
-0.444362
 31
0.0
  0
LINE
  5
4B7
330
1F
100
AcDbEntity
  8
0
100
AcDbLine
 10
1.120974
 20
-0.443543
 30
0.0
 11
1.117219
 21
-0.443953
 31
0.0
  0
LINE
  5
4B8
330
1F
100
AcDbEntity
  8
0
100
AcDbLine
 10
1.125466
 20
-0.443133
 30
0.0
 11
1.120974
 21
-0.443543
 31
0.0
  0
LINE
  5
4B9
330
1F
100
AcDbEntity
  8
0
100
AcDbLine
 10
1.130665
 20
-0.442724
 30
0.0
 11
1.125466
 21
-0.443133
 31
0.0
  0
LINE
  5
4BA
330
1F
100
AcDbEntity
  8
0
100
AcDbLine
 10
1.136541
 20
-0.442314
 30
0.0
 11
1.130665
 21
-0.442724
 31
0.0
  0
LINE
  5
4BB
330
1F
100
AcDbEntity
  8
0
100
AcDbLine
 10
1.14306
 20
-0.441905
 30
0.0
 11
1.136541
 21
-0.442314
 31
0.0
  0
LINE
  5
4BC
330
1F
100
AcDbEntity
  8
0
100
AcDbLine
 10
1.150181
 20
-0.441495
 30
0.0
 11
1.14306
 21
-0.441905
 31
0.0
  0
LINE
  5
4BD
330
1F
100
AcDbEntity
  8
0
100
AcDbLine
 10
1.157855
 20
-0.441086
 30
0.0
 11
1.150181
 21
-0.441495
 31
0.0
  0
LINE
  5
4BE
330
1F
100
AcDbEntity
  8
0
100
AcDbLine
 10
1.174682
 20
-0.440266
 30
0.0
 11
1.166039
 21
-0.440676
 31
0.0
  0
LINE
  5
4BF
330
1F
100
AcDbEntity
  8
0
100
AcDbLine
 10
1.18373
 20
-0.439857
 30
0.0
 11
1.174682
 21
-0.440266
 31
0.0
  0
LINE
  5
4C0
330
1F
100
AcDbEntity
  8
0
100
AcDbLine
 10
1.283353
 20
-0.435761
 30
0.0
 11
1.273575
 21
-0.436171
 31
0.0
  0
LINE
  5
4C1
330
1F
100
AcDbEntity
  8
0
100
AcDbLine
 10
1.293491
 20
-0.433352
 30
0.0
 11
1.283353
 21
-0.435761
 31
0.0
  0
LINE
  5
4C2
330
1F
100
AcDbEntity
  8
0
100
AcDbLine
 10
1.319638
 20
-0.434367
 30
0.0
 11
1.310841
 21
-0.434532
 31
0.0
  0
LINE
  5
4C3
330
1F
100
AcDbEntity
  8
0
100
AcDbLine
 10
1.334425
 20
-0.435001
 30
0.0
 11
1.328602
 21
-0.434746
 31
0.0
  0
LINE
  5
4C4
330
1F
100
AcDbEntity
  8
0
100
AcDbLine
 10
1.341139
 20
-0.432894
 30
0.0
 11
1.334425
 21
-0.435001
 31
0.0
  0
LINE
  5
4C5
330
1F
100
AcDbEntity
  8
0
100
AcDbLine
 10
1.347258
 20
-0.432485
 30
0.0
 11
1.341139
 21
-0.432894
 31
0.0
  0
LINE
  5
4C6
330
1F
100
AcDbEntity
  8
0
100
AcDbLine
 10
1.352709
 20
-0.432075
 30
0.0
 11
1.347258
 21
-0.432485
 31
0.0
  0
LINE
  5
4C7
330
1F
100
AcDbEntity
  8
0
100
AcDbLine
 10
1.357462
 20
-0.431665
 30
0.0
 11
1.352709
 21
-0.432075
 31
0.0
  0
LINE
  5
4C8
330
1F
100
AcDbEntity
  8
0
100
AcDbLine
 10
1.36149
 20
-0.431256
 30
0.0
 11
1.357462
 21
-0.431665
 31
0.0
  0
LINE
  5
4C9
330
1F
100
AcDbEntity
  8
0
100
AcDbLine
 10
1.364766
 20
-0.430846
 30
0.0
 11
1.36149
 21
-0.431256
 31
0.0
  0
LINE
  5
4CA
330
1F
100
AcDbEntity
  8
0
100
AcDbLine
 10
1.380206
 20
-0.433851
 30
0.0
 11
1.369582
 21
-0.428927
 31
0.0
  0
LINE
  5
4CB
330
1F
100
AcDbEntity
  8
0
100
AcDbLine
 10
1.316672
 20
-0.424469
 30
0.0
 11
1.319415
 21
-0.424605
 31
0.0
  0
LINE
  5
4CC
330
1F
100
AcDbEntity
  8
0
100
AcDbLine
 10
1.160584
 20
-0.417768
 30
0.0
 11
1.163366
 21
-0.417905
 31
0.0
  0
LINE
  5
4CD
330
1F
100
AcDbEntity
  8
0
100
AcDbLine
 10
1.383692
 20
-0.877892
 30
0.0
 11
1.379072
 21
-0.8775
 31
0.0
  0
LINE
  5
4CE
330
1F
100
AcDbEntity
  8
0
100
AcDbLine
 10
1.388237
 20
-0.8775
 30
0.0
 11
1.383692
 21
-0.877892
 31
0.0
  0
LINE
  5
4CF
330
1F
100
AcDbEntity
  8
0
100
AcDbLine
 10
1.099213
 20
-0.865822
 30
0.0
 11
1.090564
 21
-0.860825
 31
0.0
  0
LINE
  5
4D0
330
1F
100
AcDbEntity
  8
0
100
AcDbLine
 10
1.099213
 20
-0.865822
 30
0.0
 11
1.110181
 21
-0.870314
 31
0.0
  0
LINE
  5
4D1
330
1F
100
AcDbEntity
  8
0
100
AcDbLine
 10
1.369756
 20
-0.853932
 30
0.0
 11
1.379997
 21
-0.849864
 31
0.0
  0
LINE
  5
4D2
330
1F
100
AcDbEntity
  8
0
100
AcDbLine
 10
1.110315
 20
-0.837549
 30
0.0
 11
1.099315
 21
-0.833212
 31
0.0
  0
LINE
  5
4D3
330
1F
100
AcDbEntity
  8
0
100
AcDbLine
 10
1.379748
 20
-0.817254
 30
0.0
 11
1.369706
 21
-0.821213
 31
0.0
  0
LINE
  5
4D4
330
1F
100
AcDbEntity
  8
0
100
AcDbLine
 10
1.099441
 20
-0.800602
 30
0.0
 11
1.090811
 21
-0.795605
 31
0.0
  0
LINE
  5
4D5
330
1F
100
AcDbEntity
  8
0
100
AcDbLine
 10
1.110478
 20
-0.804783
 30
0.0
 11
1.099441
 21
-0.800602
 31
0.0
  0
LINE
  5
4D6
330
1F
100
AcDbEntity
  8
0
100
AcDbLine
 10
1.379477
 20
-0.784644
 30
0.0
 11
1.369429
 21
-0.7884
 31
0.0
  0
LINE
  5
4D7
330
1F
100
AcDbEntity
  8
0
100
AcDbLine
 10
1.099589
 20
-0.767993
 30
0.0
 11
1.090971
 21
-0.762996
 31
0.0
  0
LINE
  5
4D8
330
1F
100
AcDbEntity
  8
0
100
AcDbLine
 10
1.110671
 20
-0.772018
 30
0.0
 11
1.099589
 21
-0.767993
 31
0.0
  0
LINE
  5
4D9
330
1F
100
AcDbEntity
  8
0
100
AcDbLine
 10
1.369634
 20
-0.755827
 30
0.0
 11
1.380851
 21
-0.751341
 31
0.0
  0
LINE
  5
4DA
330
1F
100
AcDbEntity
  8
0
100
AcDbLine
 10
1.110894
 20
-0.739252
 30
0.0
 11
1.099203
 21
-0.734689
 31
0.0
  0
LINE
  5
4DB
330
1F
100
AcDbEntity
  8
0
100
AcDbLine
 10
1.38078
 20
-0.718731
 30
0.0
 11
1.369892
 21
-0.723279
 31
0.0
  0
LINE
  5
4DC
330
1F
100
AcDbEntity
  8
0
100
AcDbLine
 10
1.11016
 20
-0.706896
 30
0.0
 11
1.099151
 21
-0.70208
 31
0.0
  0
LINE
  5
4DD
330
1F
100
AcDbEntity
  8
0
100
AcDbLine
 10
1.380685
 20
-0.686122
 30
0.0
 11
1.387593
 21
-0.681496
 31
0.0
  0
LINE
  5
4DE
330
1F
100
AcDbEntity
  8
0
100
AcDbLine
 10
1.380685
 20
-0.686122
 30
0.0
 11
1.369779
 21
-0.690513
 31
0.0
  0
LINE
  5
4DF
330
1F
100
AcDbEntity
  8
0
100
AcDbLine
 10
1.100243
 20
-0.670164
 30
0.0
 11
1.091672
 21
-0.665167
 31
0.0
  0
LINE
  5
4E0
330
1F
100
AcDbEntity
  8
0
100
AcDbLine
 10
1.100243
 20
-0.670164
 30
0.0
 11
1.110288
 21
-0.674131
 31
0.0
  0
LINE
  5
4E1
330
1F
100
AcDbEntity
  8
0
100
AcDbLine
 10
1.369637
 20
-0.657748
 30
0.0
 11
1.380567
 21
-0.653512
 31
0.0
  0
LINE
  5
4E2
330
1F
100
AcDbEntity
  8
0
100
AcDbLine
 10
1.110446
 20
-0.641365
 30
0.0
 11
1.10053
 21
-0.637554
 31
0.0
  0
LINE
  5
4E3
330
1F
100
AcDbEntity
  8
0
100
AcDbLine
 10
1.369464
 20
-0.624982
 30
0.0
 11
1.380403
 21
-0.620903
 31
0.0
  0
LINE
  5
4E4
330
1F
100
AcDbEntity
  8
0
100
AcDbLine
 10
1.099156
 20
-0.604251
 30
0.0
 11
1.090502
 21
-0.599254
 31
0.0
  0
LINE
  5
4E5
330
1F
100
AcDbEntity
  8
0
100
AcDbLine
 10
1.110633
 20
-0.608599
 30
0.0
 11
1.099156
 21
-0.604251
 31
0.0
  0
LINE
  5
4E6
330
1F
100
AcDbEntity
  8
0
100
AcDbLine
 10
1.369262
 20
-0.592217
 30
0.0
 11
1.380216
 21
-0.588293
 31
0.0
  0
LINE
  5
4E7
330
1F
100
AcDbEntity
  8
0
100
AcDbLine
 10
1.09922
 20
-0.571641
 30
0.0
 11
1.11085
 21
-0.575834
 31
0.0
  0
LINE
  5
4E8
330
1F
100
AcDbEntity
  8
0
100
AcDbLine
 10
1.369912
 20
-0.559861
 30
0.0
 11
1.380006
 21
-0.555683
 31
0.0
  0
LINE
  5
4E9
330
1F
100
AcDbEntity
  8
0
100
AcDbLine
 10
1.099307
 20
-0.539032
 30
0.0
 11
1.090667
 21
-0.534035
 31
0.0
  0
LINE
  5
4EA
330
1F
100
AcDbEntity
  8
0
100
AcDbLine
 10
1.099307
 20
-0.539032
 30
0.0
 11
1.110138
 21
-0.543478
 31
0.0
  0
LINE
  5
4EB
330
1F
100
AcDbEntity
  8
0
100
AcDbLine
 10
1.369805
 20
-0.527095
 30
0.0
 11
1.37975
 21
-0.523074
 31
0.0
  0
LINE
  5
4EC
330
1F
100
AcDbEntity
  8
0
100
AcDbLine
 10
1.09944
 20
-0.506422
 30
0.0
 11
1.09081
 21
-0.501425
 31
0.0
  0
LINE
  5
4ED
330
1F
100
AcDbEntity
  8
0
100
AcDbLine
 10
1.11026
 20
-0.510712
 30
0.0
 11
1.09944
 21
-0.506422
 31
0.0
  0
LINE
  5
4EE
330
1F
100
AcDbEntity
  8
0
100
AcDbLine
 10
1.380876
 20
-0.48977
 30
0.0
 11
1.369668
 21
-0.49433
 31
0.0
  0
LINE
  5
4EF
330
1F
100
AcDbEntity
  8
0
100
AcDbLine
 10
1.099596
 20
-0.473813
 30
0.0
 11
1.090979
 21
-0.468816
 31
0.0
  0
LINE
  5
4F0
330
1F
100
AcDbEntity
  8
0
100
AcDbLine
 10
1.110412
 20
-0.477947
 30
0.0
 11
1.099596
 21
-0.473813
 31
0.0
  0
LINE
  5
4F1
330
1F
100
AcDbEntity
  8
0
100
AcDbLine
 10
1.380844
 20
-0.457161
 30
0.0
 11
1.369501
 21
-0.461564
 31
0.0
  0
LINE
  5
4F2
330
1F
100
AcDbEntity
  8
0
100
AcDbLine
 10
1.110594
 20
-0.445181
 30
0.0
 11
1.099211
 21
-0.440509
 31
0.0
  0
LINE
  5
4F3
330
1F
100
AcDbEntity
  8
0
100
AcDbLine
 10
1.369582
 20
-0.428927
 30
0.0
 11
1.380788
 21
-0.424551
 31
0.0
  0
LINE
  5
4F4
330
1F
100
AcDbEntity
  8
0
100
AcDbLine
 10
1.353077
 20
-0.872972
 30
0.0
 11
1.356176
 21
-0.873146
 31
0.0
  0
LINE
  5
4F5
330
1F
100
AcDbEntity
  8
0
100
AcDbLine
 10
1.347496
 20
-0.872693
 30
0.0
 11
1.353077
 21
-0.872972
 31
0.0
  0
LINE
  5
4F6
330
1F
100
AcDbEntity
  8
0
100
AcDbLine
 10
1.335295
 20
-0.872116
 30
0.0
 11
1.341674
 21
-0.872407
 31
0.0
  0
LINE
  5
4F7
330
1F
100
AcDbEntity
  8
0
100
AcDbLine
 10
1.3229
 20
-0.869679
 30
0.0
 11
1.330405
 21
-0.871897
 31
0.0
  0
LINE
  5
4F8
330
1F
100
AcDbEntity
  8
0
100
AcDbLine
 10
1.29713
 20
-0.870692
 30
0.0
 11
1.307162
 21
-0.870945
 31
0.0
  0
LINE
  5
4F9
330
1F
100
AcDbEntity
  8
0
100
AcDbLine
 10
1.200528
 20
-0.867143
 30
0.0
 11
1.203844
 21
-0.867262
 31
0.0
  0
LINE
  5
4FA
330
1F
100
AcDbEntity
  8
0
100
AcDbLine
 10
1.186702
 20
-0.866638
 30
0.0
 11
1.191284
 21
-0.866808
 31
0.0
  0
LINE
  5
4FB
330
1F
100
AcDbEntity
  8
0
100
AcDbLine
 10
1.161852
 20
-0.865809
 30
0.0
 11
1.166788
 21
-0.865877
 31
0.0
  0
LINE
  5
4FC
330
1F
100
AcDbEntity
  8
0
100
AcDbLine
 10
1.139696
 20
-0.867038
 30
0.0
 11
1.142827
 21
-0.864864
 31
0.0
  0
LINE
  5
4FD
330
1F
100
AcDbEntity
  8
0
100
AcDbLine
 10
1.126657
 20
-0.864067
 30
0.0
 11
1.13185
 21
-0.86434
 31
0.0
  0
LINE
  5
4FE
330
1F
100
AcDbEntity
  8
0
100
AcDbLine
 10
1.096828
 20
-0.858783
 30
0.0
 11
1.093159
 21
-0.859289
 31
0.0
  0
LINE
  5
4FF
330
1F
100
AcDbEntity
  8
0
100
AcDbLine
 10
1.101851
 20
-0.858277
 30
0.0
 11
1.096828
 21
-0.858783
 31
0.0
  0
LINE
  5
500
330
1F
100
AcDbEntity
  8
0
100
AcDbLine
 10
1.108198
 20
-0.857769
 30
0.0
 11
1.101851
 21
-0.858277
 31
0.0
  0
LINE
  5
501
330
1F
100
AcDbEntity
  8
0
100
AcDbLine
 10
1.115797
 20
-0.857262
 30
0.0
 11
1.108198
 21
-0.857769
 31
0.0
  0
LINE
  5
502
330
1F
100
AcDbEntity
  8
0
100
AcDbLine
 10
1.124555
 20
-0.856756
 30
0.0
 11
1.115797
 21
-0.857262
 31
0.0
  0
LINE
  5
503
330
1F
100
AcDbEntity
  8
0
100
AcDbLine
 10
1.134405
 20
-0.856249
 30
0.0
 11
1.124555
 21
-0.856756
 31
0.0
  0
LINE
  5
504
330
1F
100
AcDbEntity
  8
0
100
AcDbLine
 10
1.14528
 20
-0.855742
 30
0.0
 11
1.134405
 21
-0.856249
 31
0.0
  0
LINE
  5
505
330
1F
100
AcDbEntity
  8
0
100
AcDbLine
 10
1.157056
 20
-0.855235
 30
0.0
 11
1.14528
 21
-0.855742
 31
0.0
  0
LINE
  5
506
330
1F
100
AcDbEntity
  8
0
100
AcDbLine
 10
1.16959
 20
-0.854729
 30
0.0
 11
1.157056
 21
-0.855235
 31
0.0
  0
LINE
  5
507
330
1F
100
AcDbEntity
  8
0
100
AcDbLine
 10
1.196563
 20
-0.853715
 30
0.0
 11
1.184793
 21
-0.85442
 31
0.0
  0
LINE
  5
508
330
1F
100
AcDbEntity
  8
0
100
AcDbLine
 10
1.296749
 20
-0.850168
 30
0.0
 11
1.282992
 21
-0.850674
 31
0.0
  0
LINE
  5
509
330
1F
100
AcDbEntity
  8
0
100
AcDbLine
 10
1.31
 20
-0.849661
 30
0.0
 11
1.296749
 21
-0.850168
 31
0.0
  0
LINE
  5
50A
330
1F
100
AcDbEntity
  8
0
100
AcDbLine
 10
1.322585
 20
-0.849154
 30
0.0
 11
1.31
 21
-0.849661
 31
0.0
  0
LINE
  5
50B
330
1F
100
AcDbEntity
  8
0
100
AcDbLine
 10
1.334359
 20
-0.848647
 30
0.0
 11
1.322585
 21
-0.849154
 31
0.0
  0
LINE
  5
50C
330
1F
100
AcDbEntity
  8
0
100
AcDbLine
 10
1.34524
 20
-0.848141
 30
0.0
 11
1.334359
 21
-0.848647
 31
0.0
  0
LINE
  5
50D
330
1F
100
AcDbEntity
  8
0
100
AcDbLine
 10
1.355148
 20
-0.847634
 30
0.0
 11
1.34524
 21
-0.848141
 31
0.0
  0
LINE
  5
50E
330
1F
100
AcDbEntity
  8
0
100
AcDbLine
 10
1.363961
 20
-0.847126
 30
0.0
 11
1.355148
 21
-0.847634
 31
0.0
  0
LINE
  5
50F
330
1F
100
AcDbEntity
  8
0
100
AcDbLine
 10
1.37158
 20
-0.84662
 30
0.0
 11
1.363961
 21
-0.847126
 31
0.0
  0
LINE
  5
510
330
1F
100
AcDbEntity
  8
0
100
AcDbLine
 10
1.377954
 20
-0.846114
 30
0.0
 11
1.37158
 21
-0.84662
 31
0.0
  0
LINE
  5
511
330
1F
100
AcDbEntity
  8
0
100
AcDbLine
 10
1.383033
 20
-0.845607
 30
0.0
 11
1.377954
 21
-0.846114
 31
0.0
  0
LINE
  5
512
330
1F
100
AcDbEntity
  8
0
100
AcDbLine
 10
1.388585
 20
-0.844867
 30
0.0
 11
1.383033
 21
-0.845607
 31
0.0
  0
LINE
  5
513
330
1F
100
AcDbEntity
  8
0
100
AcDbLine
 10
1.295226
 20
-0.837807
 30
0.0
 11
1.298804
 21
-0.83794
 31
0.0
  0
LINE
  5
514
330
1F
100
AcDbEntity
  8
0
100
AcDbLine
 10
1.19564
 20
-0.83428
 30
0.0
 11
1.199948
 21
-0.834437
 31
0.0
  0
LINE
  5
515
330
1F
100
AcDbEntity
  8
0
100
AcDbLine
 10
1.171943
 20
-0.832634
 30
0.0
 11
1.177095
 21
-0.83359
 31
0.0
  0
LINE
  5
516
330
1F
100
AcDbEntity
  8
0
100
AcDbLine
 10
1.113294
 20
-0.830601
 30
0.0
 11
1.116101
 21
-0.83078
 31
0.0
  0
LINE
  5
517
330
1F
100
AcDbEntity
  8
0
100
AcDbLine
 10
1.094818
 20
-0.82635
 30
0.0
 11
1.090675
 21
-0.828215
 31
0.0
  0
LINE
  5
518
330
1F
100
AcDbEntity
  8
0
100
AcDbLine
 10
1.099168
 20
-0.825843
 30
0.0
 11
1.094818
 21
-0.82635
 31
0.0
  0
LINE
  5
519
330
1F
100
AcDbEntity
  8
0
100
AcDbLine
 10
1.104865
 20
-0.825336
 30
0.0
 11
1.099168
 21
-0.825843
 31
0.0
  0
LINE
  5
51A
330
1F
100
AcDbEntity
  8
0
100
AcDbLine
 10
1.111847
 20
-0.824829
 30
0.0
 11
1.104865
 21
-0.825336
 31
0.0
  0
LINE
  5
51B
330
1F
100
AcDbEntity
  8
0
100
AcDbLine
 10
1.120026
 20
-0.824323
 30
0.0
 11
1.111847
 21
-0.824829
 31
0.0
  0
LINE
  5
51C
330
1F
100
AcDbEntity
  8
0
100
AcDbLine
 10
1.129339
 20
-0.823816
 30
0.0
 11
1.120026
 21
-0.824323
 31
0.0
  0
LINE
  5
51D
330
1F
100
AcDbEntity
  8
0
100
AcDbLine
 10
1.139725
 20
-0.823309
 30
0.0
 11
1.129339
 21
-0.823816
 31
0.0
  0
LINE
  5
51E
330
1F
100
AcDbEntity
  8
0
100
AcDbLine
 10
1.151065
 20
-0.822802
 30
0.0
 11
1.139725
 21
-0.823309
 31
0.0
  0
LINE
  5
51F
330
1F
100
AcDbEntity
  8
0
100
AcDbLine
 10
1.16322
 20
-0.822296
 30
0.0
 11
1.151065
 21
-0.822802
 31
0.0
  0
LINE
  5
520
330
1F
100
AcDbEntity
  8
0
100
AcDbLine
 10
1.176101
 20
-0.821789
 30
0.0
 11
1.16322
 21
-0.822296
 31
0.0
  0
LINE
  5
521
330
1F
100
AcDbEntity
  8
0
100
AcDbLine
 10
1.303452
 20
-0.817228
 30
0.0
 11
1.289916
 21
-0.817735
 31
0.0
  0
LINE
  5
522
330
1F
100
AcDbEntity
  8
0
100
AcDbLine
 10
1.316691
 20
-0.816708
 30
0.0
 11
1.303452
 21
-0.817228
 31
0.0
  0
LINE
  5
523
330
1F
100
AcDbEntity
  8
0
100
AcDbLine
 10
1.339907
 20
-0.815708
 30
0.0
 11
1.328565
 21
-0.816214
 31
0.0
  0
LINE
  5
524
330
1F
100
AcDbEntity
  8
0
100
AcDbLine
 10
1.350327
 20
-0.815201
 30
0.0
 11
1.339907
 21
-0.815708
 31
0.0
  0
LINE
  5
525
330
1F
100
AcDbEntity
  8
0
100
AcDbLine
 10
1.359698
 20
-0.814693
 30
0.0
 11
1.350327
 21
-0.815201
 31
0.0
  0
LINE
  5
526
330
1F
100
AcDbEntity
  8
0
100
AcDbLine
 10
1.367914
 20
-0.814187
 30
0.0
 11
1.359698
 21
-0.814693
 31
0.0
  0
LINE
  5
527
330
1F
100
AcDbEntity
  8
0
100
AcDbLine
 10
1.37492
 20
-0.813681
 30
0.0
 11
1.367914
 21
-0.814187
 31
0.0
  0
LINE
  5
528
330
1F
100
AcDbEntity
  8
0
100
AcDbLine
 10
1.380662
 20
-0.813174
 30
0.0
 11
1.37492
 21
-0.813681
 31
0.0
  0
LINE
  5
529
330
1F
100
AcDbEntity
  8
0
100
AcDbLine
 10
1.384728
 20
-0.812712
 30
0.0
 11
1.380662
 21
-0.813174
 31
0.0
  0
LINE
  5
52A
330
1F
100
AcDbEntity
  8
0
100
AcDbLine
 10
1.388319
 20
-0.812257
 30
0.0
 11
1.384728
 21
-0.812712
 31
0.0
  0
LINE
  5
52B
330
1F
100
AcDbEntity
  8
0
100
AcDbLine
 10
1.19944
 20
-0.801731
 30
0.0
 11
1.20257
 21
-0.801843
 31
0.0
  0
LINE
  5
52C
330
1F
100
AcDbEntity
  8
0
100
AcDbLine
 10
1.173631
 20
-0.799868
 30
0.0
 11
1.179879
 21
-0.801011
 31
0.0
  0
LINE
  5
52D
330
1F
100
AcDbEntity
  8
0
100
AcDbLine
 10
1.149301
 20
-0.801097
 30
0.0
 11
1.154411
 21
-0.799998
 31
0.0
  0
LINE
  5
52E
330
1F
100
AcDbEntity
  8
0
100
AcDbLine
 10
1.135533
 20
-0.799144
 30
0.0
 11
1.142252
 21
-0.801507
 31
0.0
  0
LINE
  5
52F
330
1F
100
AcDbEntity
  8
0
100
AcDbLine
 10
1.096819
 20
-0.79341
 30
0.0
 11
1.093153
 21
-0.793917
 31
0.0
  0
LINE
  5
530
330
1F
100
AcDbEntity
  8
0
100
AcDbLine
 10
1.101853
 20
-0.792903
 30
0.0
 11
1.096819
 21
-0.79341
 31
0.0
  0
LINE
  5
531
330
1F
100
AcDbEntity
  8
0
100
AcDbLine
 10
1.1082
 20
-0.792396
 30
0.0
 11
1.101853
 21
-0.792903
 31
0.0
  0
LINE
  5
532
330
1F
100
AcDbEntity
  8
0
100
AcDbLine
 10
1.115781
 20
-0.79189
 30
0.0
 11
1.1082
 21
-0.792396
 31
0.0
  0
LINE
  5
533
330
1F
100
AcDbEntity
  8
0
100
AcDbLine
 10
1.124537
 20
-0.791383
 30
0.0
 11
1.115781
 21
-0.79189
 31
0.0
  0
LINE
  5
534
330
1F
100
AcDbEntity
  8
0
100
AcDbLine
 10
1.134409
 20
-0.790876
 30
0.0
 11
1.124537
 21
-0.791383
 31
0.0
  0
LINE
  5
535
330
1F
100
AcDbEntity
  8
0
100
AcDbLine
 10
1.145285
 20
-0.790369
 30
0.0
 11
1.134409
 21
-0.790876
 31
0.0
  0
LINE
  5
536
330
1F
100
AcDbEntity
  8
0
100
AcDbLine
 10
1.157032
 20
-0.789862
 30
0.0
 11
1.145285
 21
-0.790369
 31
0.0
  0
LINE
  5
537
330
1F
100
AcDbEntity
  8
0
100
AcDbLine
 10
1.169564
 20
-0.789356
 30
0.0
 11
1.157032
 21
-0.789862
 31
0.0
  0
LINE
  5
538
330
1F
100
AcDbEntity
  8
0
100
AcDbLine
 10
1.196568
 20
-0.788342
 30
0.0
 11
1.184813
 21
-0.789047
 31
0.0
  0
LINE
  5
539
330
1F
100
AcDbEntity
  8
0
100
AcDbLine
 10
1.296754
 20
-0.784795
 30
0.0
 11
1.282965
 21
-0.785302
 31
0.0
  0
LINE
  5
53A
330
1F
100
AcDbEntity
  8
0
100
AcDbLine
 10
1.310005
 20
-0.784287
 30
0.0
 11
1.296754
 21
-0.784795
 31
0.0
  0
LINE
  5
53B
330
1F
100
AcDbEntity
  8
0
100
AcDbLine
 10
1.334337
 20
-0.783275
 30
0.0
 11
1.322561
 21
-0.783781
 31
0.0
  0
LINE
  5
53C
330
1F
100
AcDbEntity
  8
0
100
AcDbLine
 10
1.345244
 20
-0.782768
 30
0.0
 11
1.334337
 21
-0.783275
 31
0.0
  0
LINE
  5
53D
330
1F
100
AcDbEntity
  8
0
100
AcDbLine
 10
1.355151
 20
-0.78226
 30
0.0
 11
1.345244
 21
-0.782768
 31
0.0
  0
LINE
  5
53E
330
1F
100
AcDbEntity
  8
0
100
AcDbLine
 10
1.363945
 20
-0.781754
 30
0.0
 11
1.355151
 21
-0.78226
 31
0.0
  0
LINE
  5
53F
330
1F
100
AcDbEntity
  8
0
100
AcDbLine
 10
1.371566
 20
-0.781248
 30
0.0
 11
1.363945
 21
-0.781754
 31
0.0
  0
LINE
  5
540
330
1F
100
AcDbEntity
  8
0
100
AcDbLine
 10
1.377956
 20
-0.780741
 30
0.0
 11
1.371566
 21
-0.781248
 31
0.0
  0
LINE
  5
541
330
1F
100
AcDbEntity
  8
0
100
AcDbLine
 10
1.383035
 20
-0.780233
 30
0.0
 11
1.377956
 21
-0.780741
 31
0.0
  0
LINE
  5
542
330
1F
100
AcDbEntity
  8
0
100
AcDbLine
 10
1.389071
 20
-0.779221
 30
0.0
 11
1.383035
 21
-0.780233
 31
0.0
  0
LINE
  5
543
330
1F
100
AcDbEntity
  8
0
100
AcDbLine
 10
1.295187
 20
-0.772432
 30
0.0
 11
1.298804
 21
-0.772567
 31
0.0
  0
LINE
  5
544
330
1F
100
AcDbEntity
  8
0
100
AcDbLine
 10
1.21222
 20
-0.7695
 30
0.0
 11
1.214796
 21
-0.769592
 31
0.0
  0
LINE
  5
545
330
1F
100
AcDbEntity
  8
0
100
AcDbLine
 10
1.175335
 20
-0.767103
 30
0.0
 11
1.178371
 21
-0.768265
 31
0.0
  0
LINE
  5
546
330
1F
100
AcDbEntity
  8
0
100
AcDbLine
 10
1.182445
 20
-0.768419
 30
0.0
 11
1.186646
 21
-0.768578
 31
0.0
  0
LINE
  5
547
330
1F
100
AcDbEntity
  8
0
100
AcDbLine
 10
1.13266
 20
-0.766315
 30
0.0
 11
1.137392
 21
-0.766551
 31
0.0
  0
LINE
  5
548
330
1F
100
AcDbEntity
  8
0
100
AcDbLine
 10
1.09481
 20
-0.760977
 30
0.0
 11
1.090971
 21
-0.762996
 31
0.0
  0
LINE
  5
549
330
1F
100
AcDbEntity
  8
0
100
AcDbLine
 10
1.09917
 20
-0.76047
 30
0.0
 11
1.09481
 21
-0.760977
 31
0.0
  0
LINE
  5
54A
330
1F
100
AcDbEntity
  8
0
100
AcDbLine
 10
1.104867
 20
-0.759963
 30
0.0
 11
1.09917
 21
-0.76047
 31
0.0
  0
LINE
  5
54B
330
1F
100
AcDbEntity
  8
0
100
AcDbLine
 10
1.111832
 20
-0.759456
 30
0.0
 11
1.104867
 21
-0.759963
 31
0.0
  0
LINE
  5
54C
330
1F
100
AcDbEntity
  8
0
100
AcDbLine
 10
1.120008
 20
-0.75895
 30
0.0
 11
1.111832
 21
-0.759456
 31
0.0
  0
LINE
  5
54D
330
1F
100
AcDbEntity
  8
0
100
AcDbLine
 10
1.129343
 20
-0.758443
 30
0.0
 11
1.120008
 21
-0.75895
 31
0.0
  0
LINE
  5
54E
330
1F
100
AcDbEntity
  8
0
100
AcDbLine
 10
1.13973
 20
-0.757936
 30
0.0
 11
1.129343
 21
-0.758443
 31
0.0
  0
LINE
  5
54F
330
1F
100
AcDbEntity
  8
0
100
AcDbLine
 10
1.151041
 20
-0.757429
 30
0.0
 11
1.13973
 21
-0.757936
 31
0.0
  0
LINE
  5
550
330
1F
100
AcDbEntity
  8
0
100
AcDbLine
 10
1.163195
 20
-0.756923
 30
0.0
 11
1.151041
 21
-0.757429
 31
0.0
  0
LINE
  5
551
330
1F
100
AcDbEntity
  8
0
100
AcDbLine
 10
1.176106
 20
-0.756416
 30
0.0
 11
1.163195
 21
-0.756923
 31
0.0
  0
LINE
  5
552
330
1F
100
AcDbEntity
  8
0
100
AcDbLine
 10
1.303457
 20
-0.751854
 30
0.0
 11
1.289921
 21
-0.752362
 31
0.0
  0
LINE
  5
553
330
1F
100
AcDbEntity
  8
0
100
AcDbLine
 10
1.316672
 20
-0.751335
 30
0.0
 11
1.303457
 21
-0.751854
 31
0.0
  0
LINE
  5
554
330
1F
100
AcDbEntity
  8
0
100
AcDbLine
 10
1.339911
 20
-0.750335
 30
0.0
 11
1.328542
 21
-0.750842
 31
0.0
  0
LINE
  5
555
330
1F
100
AcDbEntity
  8
0
100
AcDbLine
 10
1.350331
 20
-0.749827
 30
0.0
 11
1.339911
 21
-0.750335
 31
0.0
  0
LINE
  5
556
330
1F
100
AcDbEntity
  8
0
100
AcDbLine
 10
1.359681
 20
-0.749321
 30
0.0
 11
1.350331
 21
-0.749827
 31
0.0
  0
LINE
  5
557
330
1F
100
AcDbEntity
  8
0
100
AcDbLine
 10
1.367899
 20
-0.748815
 30
0.0
 11
1.359681
 21
-0.749321
 31
0.0
  0
LINE
  5
558
330
1F
100
AcDbEntity
  8
0
100
AcDbLine
 10
1.374922
 20
-0.748308
 30
0.0
 11
1.367899
 21
-0.748815
 31
0.0
  0
LINE
  5
559
330
1F
100
AcDbEntity
  8
0
100
AcDbLine
 10
1.380663
 20
-0.7478
 30
0.0
 11
1.374922
 21
-0.748308
 31
0.0
  0
LINE
  5
55A
330
1F
100
AcDbEntity
  8
0
100
AcDbLine
 10
1.385059
 20
-0.747294
 30
0.0
 11
1.380663
 21
-0.7478
 31
0.0
  0
LINE
  5
55B
330
1F
100
AcDbEntity
  8
0
100
AcDbLine
 10
1.389506
 20
-0.746344
 30
0.0
 11
1.385059
 21
-0.747294
 31
0.0
  0
LINE
  5
55C
330
1F
100
AcDbEntity
  8
0
100
AcDbLine
 10
1.194818
 20
-0.736191
 30
0.0
 11
1.201541
 21
-0.736433
 31
0.0
  0
LINE
  5
55D
330
1F
100
AcDbEntity
  8
0
100
AcDbLine
 10
1.182906
 20
-0.73575
 30
0.0
 11
1.186198
 21
-0.733928
 31
0.0
  0
LINE
  5
55E
330
1F
100
AcDbEntity
  8
0
100
AcDbLine
 10
1.132367
 20
-0.73362
 30
0.0
 11
1.135322
 21
-0.73376
 31
0.0
  0
LINE
  5
55F
330
1F
100
AcDbEntity
  8
0
100
AcDbLine
 10
1.096821
 20
-0.728037
 30
0.0
 11
1.093147
 21
-0.728544
 31
0.0
  0
LINE
  5
560
330
1F
100
AcDbEntity
  8
0
100
AcDbLine
 10
1.101855
 20
-0.72753
 30
0.0
 11
1.096821
 21
-0.728037
 31
0.0
  0
LINE
  5
561
330
1F
100
AcDbEntity
  8
0
100
AcDbLine
 10
1.108187
 20
-0.727023
 30
0.0
 11
1.101855
 21
-0.72753
 31
0.0
  0
LINE
  5
562
330
1F
100
AcDbEntity
  8
0
100
AcDbLine
 10
1.115765
 20
-0.726517
 30
0.0
 11
1.108187
 21
-0.727023
 31
0.0
  0
LINE
  5
563
330
1F
100
AcDbEntity
  8
0
100
AcDbLine
 10
1.12454
 20
-0.72601
 30
0.0
 11
1.115765
 21
-0.726517
 31
0.0
  0
LINE
  5
564
330
1F
100
AcDbEntity
  8
0
100
AcDbLine
 10
1.134413
 20
-0.725502
 30
0.0
 11
1.12454
 21
-0.72601
 31
0.0
  0
LINE
  5
565
330
1F
100
AcDbEntity
  8
0
100
AcDbLine
 10
1.145262
 20
-0.724996
 30
0.0
 11
1.134413
 21
-0.725502
 31
0.0
  0
LINE
  5
566
330
1F
100
AcDbEntity
  8
0
100
AcDbLine
 10
1.157008
 20
-0.72449
 30
0.0
 11
1.145262
 21
-0.724996
 31
0.0
  0
LINE
  5
567
330
1F
100
AcDbEntity
  8
0
100
AcDbLine
 10
1.169569
 20
-0.723983
 30
0.0
 11
1.157008
 21
-0.72449
 31
0.0
  0
LINE
  5
568
330
1F
100
AcDbEntity
  8
0
100
AcDbLine
 10
1.196541
 20
-0.722969
 30
0.0
 11
1.184809
 21
-0.723674
 31
0.0
  0
LINE
  5
569
330
1F
100
AcDbEntity
  8
0
100
AcDbLine
 10
1.296759
 20
-0.719421
 30
0.0
 11
1.28297
 21
-0.719929
 31
0.0
  0
LINE
  5
56A
330
1F
100
AcDbEntity
  8
0
100
AcDbLine
 10
1.309979
 20
-0.718915
 30
0.0
 11
1.296759
 21
-0.719421
 31
0.0
  0
LINE
  5
56B
330
1F
100
AcDbEntity
  8
0
100
AcDbLine
 10
1.334341
 20
-0.717902
 30
0.0
 11
1.322537
 21
-0.718409
 31
0.0
  0
LINE
  5
56C
330
1F
100
AcDbEntity
  8
0
100
AcDbLine
 10
1.345248
 20
-0.717394
 30
0.0
 11
1.334341
 21
-0.717902
 31
0.0
  0
LINE
  5
56D
330
1F
100
AcDbEntity
  8
0
100
AcDbLine
 10
1.355133
 20
-0.716888
 30
0.0
 11
1.345248
 21
-0.717394
 31
0.0
  0
LINE
  5
56E
330
1F
100
AcDbEntity
  8
0
100
AcDbLine
 10
1.363929
 20
-0.716382
 30
0.0
 11
1.355133
 21
-0.716888
 31
0.0
  0
LINE
  5
56F
330
1F
100
AcDbEntity
  8
0
100
AcDbLine
 10
1.371569
 20
-0.715875
 30
0.0
 11
1.363929
 21
-0.716382
 31
0.0
  0
LINE
  5
570
330
1F
100
AcDbEntity
  8
0
100
AcDbLine
 10
1.377958
 20
-0.715367
 30
0.0
 11
1.371569
 21
-0.715875
 31
0.0
  0
LINE
  5
571
330
1F
100
AcDbEntity
  8
0
100
AcDbLine
 10
1.383026
 20
-0.714861
 30
0.0
 11
1.377958
 21
-0.715367
 31
0.0
  0
LINE
  5
572
330
1F
100
AcDbEntity
  8
0
100
AcDbLine
 10
1.386741
 20
-0.714355
 30
0.0
 11
1.383026
 21
-0.714861
 31
0.0
  0
LINE
  5
573
330
1F
100
AcDbEntity
  8
0
100
AcDbLine
 10
1.295167
 20
-0.707058
 30
0.0
 11
1.298804
 21
-0.707194
 31
0.0
  0
LINE
  5
574
330
1F
100
AcDbEntity
  8
0
100
AcDbLine
 10
1.2067
 20
-0.703931
 30
0.0
 11
1.213179
 21
-0.704161
 31
0.0
  0
LINE
  5
575
330
1F
100
AcDbEntity
  8
0
100
AcDbLine
 10
1.189914
 20
-0.703324
 30
0.0
 11
1.194616
 21
-0.703496
 31
0.0
  0
LINE
  5
576
330
1F
100
AcDbEntity
  8
0
100
AcDbLine
 10
1.178787
 20
-0.701572
 30
0.0
 11
1.183328
 21
-0.703079
 31
0.0
  0
LINE
  5
577
330
1F
100
AcDbEntity
  8
0
100
AcDbLine
 10
1.169952
 20
-0.701981
 30
0.0
 11
1.173275
 21
-0.702699
 31
0.0
  0
LINE
  5
578
330
1F
100
AcDbEntity
  8
0
100
AcDbLine
 10
1.148529
 20
-0.701685
 30
0.0
 11
1.153634
 21
-0.7028
 31
0.0
  0
LINE
  5
579
330
1F
100
AcDbEntity
  8
0
100
AcDbLine
 10
1.14128
 20
-0.701355
 30
0.0
 11
1.148529
 21
-0.701685
 31
0.0
  0
LINE
  5
57A
330
1F
100
AcDbEntity
  8
0
100
AcDbLine
 10
1.132073
 20
-0.700912
 30
0.0
 11
1.135246
 21
-0.701071
 31
0.0
  0
LINE
  5
57B
330
1F
100
AcDbEntity
  8
0
100
AcDbLine
 10
1.094812
 20
-0.695604
 30
0.0
 11
1.091414
 21
-0.697777
 31
0.0
  0
LINE
  5
57C
330
1F
100
AcDbEntity
  8
0
100
AcDbLine
 10
1.099172
 20
-0.695096
 30
0.0
 11
1.094812
 21
-0.695604
 31
0.0
  0
LINE
  5
57D
330
1F
100
AcDbEntity
  8
0
100
AcDbLine
 10
1.104855
 20
-0.69459
 30
0.0
 11
1.099172
 21
-0.695096
 31
0.0
  0
LINE
  5
57E
330
1F
100
AcDbEntity
  8
0
100
AcDbLine
 10
1.111817
 20
-0.694084
 30
0.0
 11
1.104855
 21
-0.69459
 31
0.0
  0
LINE
  5
57F
330
1F
100
AcDbEntity
  8
0
100
AcDbLine
 10
1.120011
 20
-0.693577
 30
0.0
 11
1.111817
 21
-0.694084
 31
0.0
  0
LINE
  5
580
330
1F
100
AcDbEntity
  8
0
100
AcDbLine
 10
1.129347
 20
-0.693069
 30
0.0
 11
1.120011
 21
-0.693577
 31
0.0
  0
LINE
  5
581
330
1F
100
AcDbEntity
  8
0
100
AcDbLine
 10
1.139708
 20
-0.692563
 30
0.0
 11
1.129347
 21
-0.693069
 31
0.0
  0
LINE
  5
582
330
1F
100
AcDbEntity
  8
0
100
AcDbLine
 10
1.151018
 20
-0.692057
 30
0.0
 11
1.139708
 21
-0.692563
 31
0.0
  0
LINE
  5
583
330
1F
100
AcDbEntity
  8
0
100
AcDbLine
 10
1.163199
 20
-0.69155
 30
0.0
 11
1.151018
 21
-0.692057
 31
0.0
  0
LINE
  5
584
330
1F
100
AcDbEntity
  8
0
100
AcDbLine
 10
1.176111
 20
-0.691042
 30
0.0
 11
1.163199
 21
-0.69155
 31
0.0
  0
LINE
  5
585
330
1F
100
AcDbEntity
  8
0
100
AcDbLine
 10
1.303431
 20
-0.686482
 30
0.0
 11
1.289926
 21
-0.686988
 31
0.0
  0
LINE
  5
586
330
1F
100
AcDbEntity
  8
0
100
AcDbLine
 10
1.316336
 20
-0.685976
 30
0.0
 11
1.303431
 21
-0.686482
 31
0.0
  0
LINE
  5
587
330
1F
100
AcDbEntity
  8
0
100
AcDbLine
 10
1.328546
 20
-0.685469
 30
0.0
 11
1.316336
 21
-0.685976
 31
0.0
  0
LINE
  5
588
330
1F
100
AcDbEntity
  8
0
100
AcDbLine
 10
1.339915
 20
-0.684961
 30
0.0
 11
1.328546
 21
-0.685469
 31
0.0
  0
LINE
  5
589
330
1F
100
AcDbEntity
  8
0
100
AcDbLine
 10
1.350311
 20
-0.684455
 30
0.0
 11
1.339915
 21
-0.684961
 31
0.0
  0
LINE
  5
58A
330
1F
100
AcDbEntity
  8
0
100
AcDbLine
 10
1.359664
 20
-0.683949
 30
0.0
 11
1.350311
 21
-0.684455
 31
0.0
  0
LINE
  5
58B
330
1F
100
AcDbEntity
  8
0
100
AcDbLine
 10
1.367902
 20
-0.683441
 30
0.0
 11
1.359664
 21
-0.683949
 31
0.0
  0
LINE
  5
58C
330
1F
100
AcDbEntity
  8
0
100
AcDbLine
 10
1.374925
 20
-0.682934
 30
0.0
 11
1.367902
 21
-0.683441
 31
0.0
  0
LINE
  5
58D
330
1F
100
AcDbEntity
  8
0
100
AcDbLine
 10
1.380653
 20
-0.682428
 30
0.0
 11
1.374925
 21
-0.682934
 31
0.0
  0
LINE
  5
58E
330
1F
100
AcDbEntity
  8
0
100
AcDbLine
 10
1.385051
 20
-0.681922
 30
0.0
 11
1.380653
 21
-0.682428
 31
0.0
  0
LINE
  5
58F
330
1F
100
AcDbEntity
  8
0
100
AcDbLine
 10
1.194435
 20
-0.670804
 30
0.0
 11
1.197917
 21
-0.670929
 31
0.0
  0
LINE
  5
590
330
1F
100
AcDbEntity
  8
0
100
AcDbLine
 10
1.184058
 20
-0.67042
 30
0.0
 11
1.189814
 21
-0.668397
 31
0.0
  0
LINE
  5
591
330
1F
100
AcDbEntity
  8
0
100
AcDbLine
 10
1.096822
 20
-0.662663
 30
0.0
 11
1.091672
 21
-0.665167
 31
0.0
  0
LINE
  5
592
330
1F
100
AcDbEntity
  8
0
100
AcDbLine
 10
1.101844
 20
-0.662157
 30
0.0
 11
1.096822
 21
-0.662663
 31
0.0
  0
LINE
  5
593
330
1F
100
AcDbEntity
  8
0
100
AcDbLine
 10
1.108173
 20
-0.661651
 30
0.0
 11
1.101844
 21
-0.662157
 31
0.0
  0
LINE
  5
594
330
1F
100
AcDbEntity
  8
0
100
AcDbLine
 10
1.115768
 20
-0.661144
 30
0.0
 11
1.108173
 21
-0.661651
 31
0.0
  0
LINE
  5
595
330
1F
100
AcDbEntity
  8
0
100
AcDbLine
 10
1.124543
 20
-0.660636
 30
0.0
 11
1.115768
 21
-0.661144
 31
0.0
  0
LINE
  5
596
330
1F
100
AcDbEntity
  8
0
100
AcDbLine
 10
1.134392
 20
-0.66013
 30
0.0
 11
1.124543
 21
-0.660636
 31
0.0
  0
LINE
  5
597
330
1F
100
AcDbEntity
  8
0
100
AcDbLine
 10
1.14524
 20
-0.659624
 30
0.0
 11
1.134392
 21
-0.66013
 31
0.0
  0
LINE
  5
598
330
1F
100
AcDbEntity
  8
0
100
AcDbLine
 10
1.157012
 20
-0.659117
 30
0.0
 11
1.14524
 21
-0.659624
 31
0.0
  0
LINE
  5
599
330
1F
100
AcDbEntity
  8
0
100
AcDbLine
 10
1.169574
 20
-0.658609
 30
0.0
 11
1.157012
 21
-0.659117
 31
0.0
  0
LINE
  5
59A
330
1F
100
AcDbEntity
  8
0
100
AcDbLine
 10
1.196513
 20
-0.657597
 30
0.0
 11
1.184777
 21
-0.658299
 31
0.0
  0
LINE
  5
59B
330
1F
100
AcDbEntity
  8
0
100
AcDbLine
 10
1.296732
 20
-0.654049
 30
0.0
 11
1.282975
 21
-0.654555
 31
0.0
  0
LINE
  5
59C
330
1F
100
AcDbEntity
  8
0
100
AcDbLine
 10
1.309954
 20
-0.653543
 30
0.0
 11
1.296732
 21
-0.654049
 31
0.0
  0
LINE
  5
59D
330
1F
100
AcDbEntity
  8
0
100
AcDbLine
 10
1.334345
 20
-0.652528
 30
0.0
 11
1.320786
 21
-0.653482
 31
0.0
  0
LINE
  5
59E
330
1F
100
AcDbEntity
  8
0
100
AcDbLine
 10
1.345227
 20
-0.652022
 30
0.0
 11
1.334345
 21
-0.652528
 31
0.0
  0
LINE
  5
59F
330
1F
100
AcDbEntity
  8
0
100
AcDbLine
 10
1.355114
 20
-0.651516
 30
0.0
 11
1.345227
 21
-0.652022
 31
0.0
  0
LINE
  5
5A0
330
1F
100
AcDbEntity
  8
0
100
AcDbLine
 10
1.363932
 20
-0.651008
 30
0.0
 11
1.355114
 21
-0.651516
 31
0.0
  0
LINE
  5
5A1
330
1F
100
AcDbEntity
  8
0
100
AcDbLine
 10
1.371571
 20
-0.650501
 30
0.0
 11
1.363932
 21
-0.651008
 31
0.0
  0
LINE
  5
5A2
330
1F
100
AcDbEntity
  8
0
100
AcDbLine
 10
1.377947
 20
-0.649995
 30
0.0
 11
1.371571
 21
-0.650501
 31
0.0
  0
LINE
  5
5A3
330
1F
100
AcDbEntity
  8
0
100
AcDbLine
 10
1.383017
 20
-0.649489
 30
0.0
 11
1.377947
 21
-0.649995
 31
0.0
  0
LINE
  5
5A4
330
1F
100
AcDbEntity
  8
0
100
AcDbLine
 10
1.389198
 20
-0.648515
 30
0.0
 11
1.383017
 21
-0.649489
 31
0.0
  0
LINE
  5
5A5
330
1F
100
AcDbEntity
  8
0
100
AcDbLine
 10
1.295176
 20
-0.641685
 30
0.0
 11
1.298804
 21
-0.64182
 31
0.0
  0
LINE
  5
5A6
330
1F
100
AcDbEntity
  8
0
100
AcDbLine
 10
1.204637
 20
-0.638484
 30
0.0
 11
1.20743
 21
-0.638583
 31
0.0
  0
LINE
  5
5A7
330
1F
100
AcDbEntity
  8
0
100
AcDbLine
 10
1.190045
 20
-0.637956
 30
0.0
 11
1.194283
 21
-0.63811
 31
0.0
  0
LINE
  5
5A8
330
1F
100
AcDbEntity
  8
0
100
AcDbLine
 10
1.179138
 20
-0.637547
 30
0.0
 11
1.182295
 21
-0.636041
 31
0.0
  0
LINE
  5
5A9
330
1F
100
AcDbEntity
  8
0
100
AcDbLine
 10
1.142005
 20
-0.638088
 30
0.0
 11
1.146702
 21
-0.636229
 31
0.0
  0
LINE
  5
5AA
330
1F
100
AcDbEntity
  8
0
100
AcDbLine
 10
1.129024
 20
-0.635387
 30
0.0
 11
1.135159
 21
-0.635693
 31
0.0
  0
LINE
  5
5AB
330
1F
100
AcDbEntity
  8
0
100
AcDbLine
 10
1.094813
 20
-0.63023
 30
0.0
 11
1.090457
 21
-0.631864
 31
0.0
  0
LINE
  5
5AC
330
1F
100
AcDbEntity
  8
0
100
AcDbLine
 10
1.099162
 20
-0.629724
 30
0.0
 11
1.094813
 21
-0.63023
 31
0.0
  0
LINE
  5
5AD
330
1F
100
AcDbEntity
  8
0
100
AcDbLine
 10
1.104842
 20
-0.629218
 30
0.0
 11
1.099162
 21
-0.629724
 31
0.0
  0
LINE
  5
5AE
330
1F
100
AcDbEntity
  8
0
100
AcDbLine
 10
1.111819
 20
-0.628711
 30
0.0
 11
1.104842
 21
-0.629218
 31
0.0
  0
LINE
  5
5AF
330
1F
100
AcDbEntity
  8
0
100
AcDbLine
 10
1.120015
 20
-0.628203
 30
0.0
 11
1.111819
 21
-0.628711
 31
0.0
  0
LINE
  5
5B0
330
1F
100
AcDbEntity
  8
0
100
AcDbLine
 10
1.129327
 20
-0.627697
 30
0.0
 11
1.120015
 21
-0.628203
 31
0.0
  0
LINE
  5
5B1
330
1F
100
AcDbEntity
  8
0
100
AcDbLine
 10
1.139687
 20
-0.627191
 30
0.0
 11
1.129327
 21
-0.627697
 31
0.0
  0
LINE
  5
5B2
330
1F
100
AcDbEntity
  8
0
100
AcDbLine
 10
1.151022
 20
-0.626684
 30
0.0
 11
1.139687
 21
-0.627191
 31
0.0
  0
LINE
  5
5B3
330
1F
100
AcDbEntity
  8
0
100
AcDbLine
 10
1.163204
 20
-0.626176
 30
0.0
 11
1.151022
 21
-0.626684
 31
0.0
  0
LINE
  5
5B4
330
1F
100
AcDbEntity
  8
0
100
AcDbLine
 10
1.176084
 20
-0.62567
 30
0.0
 11
1.163204
 21
-0.626176
 31
0.0
  0
LINE
  5
5B5
330
1F
100
AcDbEntity
  8
0
100
AcDbLine
 10
1.303405
 20
-0.62111
 30
0.0
 11
1.289899
 21
-0.621616
 31
0.0
  0
LINE
  5
5B6
330
1F
100
AcDbEntity
  8
0
100
AcDbLine
 10
1.316679
 20
-0.620588
 30
0.0
 11
1.303405
 21
-0.62111
 31
0.0
  0
LINE
  5
5B7
330
1F
100
AcDbEntity
  8
0
100
AcDbLine
 10
1.339894
 20
-0.619589
 30
0.0
 11
1.328551
 21
-0.620095
 31
0.0
  0
LINE
  5
5B8
330
1F
100
AcDbEntity
  8
0
100
AcDbLine
 10
1.350291
 20
-0.619083
 30
0.0
 11
1.339894
 21
-0.619589
 31
0.0
  0
LINE
  5
5B9
330
1F
100
AcDbEntity
  8
0
100
AcDbLine
 10
1.359667
 20
-0.618575
 30
0.0
 11
1.350291
 21
-0.619083
 31
0.0
  0
LINE
  5
5BA
330
1F
100
AcDbEntity
  8
0
100
AcDbLine
 10
1.367905
 20
-0.618068
 30
0.0
 11
1.359667
 21
-0.618575
 31
0.0
  0
LINE
  5
5BB
330
1F
100
AcDbEntity
  8
0
100
AcDbLine
 10
1.374912
 20
-0.617562
 30
0.0
 11
1.367905
 21
-0.618068
 31
0.0
  0
LINE
  5
5BC
330
1F
100
AcDbEntity
  8
0
100
AcDbLine
 10
1.380643
 20
-0.617056
 30
0.0
 11
1.374912
 21
-0.617562
 31
0.0
  0
LINE
  5
5BD
330
1F
100
AcDbEntity
  8
0
100
AcDbLine
 10
1.385053
 20
-0.616548
 30
0.0
 11
1.380643
 21
-0.617056
 31
0.0
  0
LINE
  5
5BE
330
1F
100
AcDbEntity
  8
0
100
AcDbLine
 10
1.20009
 20
-0.605634
 30
0.0
 11
1.203796
 21
-0.605767
 31
0.0
  0
LINE
  5
5BF
330
1F
100
AcDbEntity
  8
0
100
AcDbLine
 10
1.18407
 20
-0.603275
 30
0.0
 11
1.190111
 21
-0.605271
 31
0.0
  0
LINE
  5
5C0
330
1F
100
AcDbEntity
  8
0
100
AcDbLine
 10
1.150453
 20
-0.604913
 30
0.0
 11
1.154426
 21
-0.603878
 31
0.0
  0
LINE
  5
5C1
330
1F
100
AcDbEntity
  8
0
100
AcDbLine
 10
1.13805
 20
-0.603143
 30
0.0
 11
1.143313
 21
-0.605323
 31
0.0
  0
LINE
  5
5C2
330
1F
100
AcDbEntity
  8
0
100
AcDbLine
 10
1.128569
 20
-0.602674
 30
0.0
 11
1.131192
 21
-0.602812
 31
0.0
  0
LINE
  5
5C3
330
1F
100
AcDbEntity
  8
0
100
AcDbLine
 10
1.096814
 20
-0.597291
 30
0.0
 11
1.093149
 21
-0.597797
 31
0.0
  0
LINE
  5
5C4
330
1F
100
AcDbEntity
  8
0
100
AcDbLine
 10
1.101833
 20
-0.596785
 30
0.0
 11
1.096814
 21
-0.597291
 31
0.0
  0
LINE
  5
5C5
330
1F
100
AcDbEntity
  8
0
100
AcDbLine
 10
1.108175
 20
-0.596278
 30
0.0
 11
1.101833
 21
-0.596785
 31
0.0
  0
LINE
  5
5C6
330
1F
100
AcDbEntity
  8
0
100
AcDbLine
 10
1.115771
 20
-0.59577
 30
0.0
 11
1.108175
 21
-0.596278
 31
0.0
  0
LINE
  5
5C7
330
1F
100
AcDbEntity
  8
0
100
AcDbLine
 10
1.124525
 20
-0.595264
 30
0.0
 11
1.115771
 21
-0.59577
 31
0.0
  0
LINE
  5
5C8
330
1F
100
AcDbEntity
  8
0
100
AcDbLine
 10
1.134372
 20
-0.594758
 30
0.0
 11
1.124525
 21
-0.595264
 31
0.0
  0
LINE
  5
5C9
330
1F
100
AcDbEntity
  8
0
100
AcDbLine
 10
1.145244
 20
-0.59425
 30
0.0
 11
1.134372
 21
-0.594758
 31
0.0
  0
LINE
  5
5CA
330
1F
100
AcDbEntity
  8
0
100
AcDbLine
 10
1.157017
 20
-0.593743
 30
0.0
 11
1.145244
 21
-0.59425
 31
0.0
  0
LINE
  5
5CB
330
1F
100
AcDbEntity
  8
0
100
AcDbLine
 10
1.169548
 20
-0.593237
 30
0.0
 11
1.157017
 21
-0.593743
 31
0.0
  0
LINE
  5
5CC
330
1F
100
AcDbEntity
  8
0
100
AcDbLine
 10
1.196518
 20
-0.592223
 30
0.0
 11
1.184778
 21
-0.592926
 31
0.0
  0
LINE
  5
5CD
330
1F
100
AcDbEntity
  8
0
100
AcDbLine
 10
1.296706
 20
-0.588677
 30
0.0
 11
1.282947
 21
-0.589183
 31
0.0
  0
LINE
  5
5CE
330
1F
100
AcDbEntity
  8
0
100
AcDbLine
 10
1.309958
 20
-0.588169
 30
0.0
 11
1.296706
 21
-0.588677
 31
0.0
  0
LINE
  5
5CF
330
1F
100
AcDbEntity
  8
0
100
AcDbLine
 10
1.334322
 20
-0.587156
 30
0.0
 11
1.322546
 21
-0.587662
 31
0.0
  0
LINE
  5
5D0
330
1F
100
AcDbEntity
  8
0
100
AcDbLine
 10
1.345207
 20
-0.58665
 30
0.0
 11
1.334322
 21
-0.587156
 31
0.0
  0
LINE
  5
5D1
330
1F
100
AcDbEntity
  8
0
100
AcDbLine
 10
1.355118
 20
-0.586142
 30
0.0
 11
1.345207
 21
-0.58665
 31
0.0
  0
LINE
  5
5D2
330
1F
100
AcDbEntity
  8
0
100
AcDbLine
 10
1.363935
 20
-0.585635
 30
0.0
 11
1.355118
 21
-0.586142
 31
0.0
  0
LINE
  5
5D3
330
1F
100
AcDbEntity
  8
0
100
AcDbLine
 10
1.371557
 20
-0.585129
 30
0.0
 11
1.363935
 21
-0.585635
 31
0.0
  0
LINE
  5
5D4
330
1F
100
AcDbEntity
  8
0
100
AcDbLine
 10
1.377935
 20
-0.584623
 30
0.0
 11
1.371557
 21
-0.585129
 31
0.0
  0
LINE
  5
5D5
330
1F
100
AcDbEntity
  8
0
100
AcDbLine
 10
1.383019
 20
-0.584115
 30
0.0
 11
1.377935
 21
-0.584623
 31
0.0
  0
LINE
  5
5D6
330
1F
100
AcDbEntity
  8
0
100
AcDbLine
 10
1.386065
 20
-0.583716
 30
0.0
 11
1.383019
 21
-0.584115
 31
0.0
  0
LINE
  5
5D7
330
1F
100
AcDbEntity
  8
0
100
AcDbLine
 10
1.295203
 20
-0.576313
 30
0.0
 11
1.298804
 21
-0.576447
 31
0.0
  0
LINE
  5
5D8
330
1F
100
AcDbEntity
  8
0
100
AcDbLine
 10
1.203057
 20
-0.573055
 30
0.0
 11
1.205773
 21
-0.573151
 31
0.0
  0
LINE
  5
5D9
330
1F
100
AcDbEntity
  8
0
100
AcDbLine
 10
1.185857
 20
-0.570509
 30
0.0
 11
1.194038
 21
-0.572728
 31
0.0
  0
LINE
  5
5DA
330
1F
100
AcDbEntity
  8
0
100
AcDbLine
 10
1.094806
 20
-0.564858
 30
0.0
 11
1.090572
 21
-0.566644
 31
0.0
  0
LINE
  5
5DB
330
1F
100
AcDbEntity
  8
0
100
AcDbLine
 10
1.099152
 20
-0.564352
 30
0.0
 11
1.094806
 21
-0.564858
 31
0.0
  0
LINE
  5
5DC
330
1F
100
AcDbEntity
  8
0
100
AcDbLine
 10
1.104845
 20
-0.563844
 30
0.0
 11
1.099152
 21
-0.564352
 31
0.0
  0
LINE
  5
5DD
330
1F
100
AcDbEntity
  8
0
100
AcDbLine
 10
1.111822
 20
-0.563337
 30
0.0
 11
1.104845
 21
-0.563844
 31
0.0
  0
LINE
  5
5DE
330
1F
100
AcDbEntity
  8
0
100
AcDbLine
 10
1.119997
 20
-0.562831
 30
0.0
 11
1.111822
 21
-0.563337
 31
0.0
  0
LINE
  5
5DF
330
1F
100
AcDbEntity
  8
0
100
AcDbLine
 10
1.129308
 20
-0.562325
 30
0.0
 11
1.119997
 21
-0.562831
 31
0.0
  0
LINE
  5
5E0
330
1F
100
AcDbEntity
  8
0
100
AcDbLine
 10
1.139691
 20
-0.561817
 30
0.0
 11
1.129308
 21
-0.562325
 31
0.0
  0
LINE
  5
5E1
330
1F
100
AcDbEntity
  8
0
100
AcDbLine
 10
1.151027
 20
-0.56131
 30
0.0
 11
1.139691
 21
-0.561817
 31
0.0
  0
LINE
  5
5E2
330
1F
100
AcDbEntity
  8
0
100
AcDbLine
 10
1.163179
 20
-0.560804
 30
0.0
 11
1.151027
 21
-0.56131
 31
0.0
  0
LINE
  5
5E3
330
1F
100
AcDbEntity
  8
0
100
AcDbLine
 10
1.176058
 20
-0.560298
 30
0.0
 11
1.163179
 21
-0.560804
 31
0.0
  0
LINE
  5
5E4
330
1F
100
AcDbEntity
  8
0
100
AcDbLine
 10
1.30341
 20
-0.555736
 30
0.0
 11
1.289872
 21
-0.556244
 31
0.0
  0
LINE
  5
5E5
330
1F
100
AcDbEntity
  8
0
100
AcDbLine
 10
1.316676
 20
-0.555215
 30
0.0
 11
1.30341
 21
-0.555736
 31
0.0
  0
LINE
  5
5E6
330
1F
100
AcDbEntity
  8
0
100
AcDbLine
 10
1.339872
 20
-0.554217
 30
0.0
 11
1.328527
 21
-0.554723
 31
0.0
  0
LINE
  5
5E7
330
1F
100
AcDbEntity
  8
0
100
AcDbLine
 10
1.350295
 20
-0.553709
 30
0.0
 11
1.339872
 21
-0.554217
 31
0.0
  0
LINE
  5
5E8
330
1F
100
AcDbEntity
  8
0
100
AcDbLine
 10
1.35967
 20
-0.553202
 30
0.0
 11
1.350295
 21
-0.553709
 31
0.0
  0
LINE
  5
5E9
330
1F
100
AcDbEntity
  8
0
100
AcDbLine
 10
1.36789
 20
-0.552696
 30
0.0
 11
1.35967
 21
-0.553202
 31
0.0
  0
LINE
  5
5EA
330
1F
100
AcDbEntity
  8
0
100
AcDbLine
 10
1.3749
 20
-0.552189
 30
0.0
 11
1.36789
 21
-0.552696
 31
0.0
  0
LINE
  5
5EB
330
1F
100
AcDbEntity
  8
0
100
AcDbLine
 10
1.380645
 20
-0.551682
 30
0.0
 11
1.3749
 21
-0.552189
 31
0.0
  0
LINE
  5
5EC
330
1F
100
AcDbEntity
  8
0
100
AcDbLine
 10
1.384719
 20
-0.55122
 30
0.0
 11
1.380645
 21
-0.551682
 31
0.0
  0
LINE
  5
5ED
330
1F
100
AcDbEntity
  8
0
100
AcDbLine
 10
1.388595
 20
-0.550686
 30
0.0
 11
1.384719
 21
-0.55122
 31
0.0
  0
LINE
  5
5EE
330
1F
100
AcDbEntity
  8
0
100
AcDbLine
 10
1.217034
 20
-0.540863
 30
0.0
 11
1.219827
 21
-0.540961
 31
0.0
  0
LINE
  5
5EF
330
1F
100
AcDbEntity
  8
0
100
AcDbLine
 10
1.185605
 20
-0.539731
 30
0.0
 11
1.190238
 21
-0.539903
 31
0.0
  0
LINE
  5
5F0
330
1F
100
AcDbEntity
  8
0
100
AcDbLine
 10
1.161249
 20
-0.538973
 30
0.0
 11
1.166824
 21
-0.539012
 31
0.0
  0
LINE
  5
5F1
330
1F
100
AcDbEntity
  8
0
100
AcDbLine
 10
1.096805
 20
-0.531919
 30
0.0
 11
1.093143
 21
-0.532425
 31
0.0
  0
LINE
  5
5F2
330
1F
100
AcDbEntity
  8
0
100
AcDbLine
 10
1.101835
 20
-0.531411
 30
0.0
 11
1.096805
 21
-0.531919
 31
0.0
  0
LINE
  5
5F3
330
1F
100
AcDbEntity
  8
0
100
AcDbLine
 10
1.108178
 20
-0.530904
 30
0.0
 11
1.101835
 21
-0.531411
 31
0.0
  0
LINE
  5
5F4
330
1F
100
AcDbEntity
  8
0
100
AcDbLine
 10
1.115755
 20
-0.530398
 30
0.0
 11
1.108178
 21
-0.530904
 31
0.0
  0
LINE
  5
5F5
330
1F
100
AcDbEntity
  8
0
100
AcDbLine
 10
1.124507
 20
-0.529892
 30
0.0
 11
1.115755
 21
-0.530398
 31
0.0
  0
LINE
  5
5F6
330
1F
100
AcDbEntity
  8
0
100
AcDbLine
 10
1.134375
 20
-0.529384
 30
0.0
 11
1.124507
 21
-0.529892
 31
0.0
  0
LINE
  5
5F7
330
1F
100
AcDbEntity
  8
0
100
AcDbLine
 10
1.145248
 20
-0.528877
 30
0.0
 11
1.134375
 21
-0.529384
 31
0.0
  0
LINE
  5
5F8
330
1F
100
AcDbEntity
  8
0
100
AcDbLine
 10
1.156993
 20
-0.528371
 30
0.0
 11
1.145248
 21
-0.528877
 31
0.0
  0
LINE
  5
5F9
330
1F
100
AcDbEntity
  8
0
100
AcDbLine
 10
1.169523
 20
-0.527865
 30
0.0
 11
1.156993
 21
-0.528371
 31
0.0
  0
LINE
  5
5FA
330
1F
100
AcDbEntity
  8
0
100
AcDbLine
 10
1.196523
 20
-0.52685
 30
0.0
 11
1.184806
 21
-0.527554
 31
0.0
  0
LINE
  5
5FB
330
1F
100
AcDbEntity
  8
0
100
AcDbLine
 10
1.296711
 20
-0.523303
 30
0.0
 11
1.282919
 21
-0.523811
 31
0.0
  0
LINE
  5
5FC
330
1F
100
AcDbEntity
  8
0
100
AcDbLine
 10
1.309963
 20
-0.522796
 30
0.0
 11
1.296711
 21
-0.523303
 31
0.0
  0
LINE
  5
5FD
330
1F
100
AcDbEntity
  8
0
100
AcDbLine
 10
1.322522
 20
-0.52229
 30
0.0
 11
1.309963
 21
-0.522796
 31
0.0
  0
LINE
  5
5FE
330
1F
100
AcDbEntity
  8
0
100
AcDbLine
 10
1.3343
 20
-0.521783
 30
0.0
 11
1.322522
 21
-0.52229
 31
0.0
  0
LINE
  5
5FF
330
1F
100
AcDbEntity
  8
0
100
AcDbLine
 10
1.345211
 20
-0.521276
 30
0.0
 11
1.3343
 21
-0.521783
 31
0.0
  0
LINE
  5
600
330
1F
100
AcDbEntity
  8
0
100
AcDbLine
 10
1.355121
 20
-0.520769
 30
0.0
 11
1.345211
 21
-0.521276
 31
0.0
  0
LINE
  5
601
330
1F
100
AcDbEntity
  8
0
100
AcDbLine
 10
1.363918
 20
-0.520263
 30
0.0
 11
1.355121
 21
-0.520769
 31
0.0
  0
LINE
  5
602
330
1F
100
AcDbEntity
  8
0
100
AcDbLine
 10
1.371543
 20
-0.519756
 30
0.0
 11
1.363918
 21
-0.520263
 31
0.0
  0
LINE
  5
603
330
1F
100
AcDbEntity
  8
0
100
AcDbLine
 10
1.377937
 20
-0.519249
 30
0.0
 11
1.371543
 21
-0.519756
 31
0.0
  0
LINE
  5
604
330
1F
100
AcDbEntity
  8
0
100
AcDbLine
 10
1.383021
 20
-0.518742
 30
0.0
 11
1.377937
 21
-0.519249
 31
0.0
  0
LINE
  5
605
330
1F
100
AcDbEntity
  8
0
100
AcDbLine
 10
1.38832
 20
-0.518077
 30
0.0
 11
1.383021
 21
-0.518742
 31
0.0
  0
LINE
  5
606
330
1F
100
AcDbEntity
  8
0
100
AcDbLine
 10
1.295206
 20
-0.51094
 30
0.0
 11
1.298804
 21
-0.511074
 31
0.0
  0
LINE
  5
607
330
1F
100
AcDbEntity
  8
0
100
AcDbLine
 10
1.171301
 20
-0.505798
 30
0.0
 11
1.176358
 21
-0.506695
 31
0.0
  0
LINE
  5
608
330
1F
100
AcDbEntity
  8
0
100
AcDbLine
 10
1.134759
 20
-0.504926
 30
0.0
 11
1.137426
 21
-0.50506
 31
0.0
  0
LINE
  5
609
330
1F
100
AcDbEntity
  8
0
100
AcDbLine
 10
1.123665
 20
-0.504352
 30
0.0
 11
1.127091
 21
-0.504543
 31
0.0
  0
LINE
  5
60A
330
1F
100
AcDbEntity
  8
0
100
AcDbLine
 10
1.094799
 20
-0.499486
 30
0.0
 11
1.09081
 21
-0.501425
 31
0.0
  0
LINE
  5
60B
330
1F
100
AcDbEntity
  8
0
100
AcDbLine
 10
1.099153
 20
-0.498978
 30
0.0
 11
1.094799
 21
-0.499486
 31
0.0
  0
LINE
  5
60C
330
1F
100
AcDbEntity
  8
0
100
AcDbLine
 10
1.104847
 20
-0.498471
 30
0.0
 11
1.099153
 21
-0.498978
 31
0.0
  0
LINE
  5
60D
330
1F
100
AcDbEntity
  8
0
100
AcDbLine
 10
1.111807
 20
-0.497965
 30
0.0
 11
1.104847
 21
-0.498471
 31
0.0
  0
LINE
  5
60E
330
1F
100
AcDbEntity
  8
0
100
AcDbLine
 10
1.11998
 20
-0.497459
 30
0.0
 11
1.111807
 21
-0.497965
 31
0.0
  0
LINE
  5
60F
330
1F
100
AcDbEntity
  8
0
100
AcDbLine
 10
1.129311
 20
-0.496951
 30
0.0
 11
1.11998
 21
-0.497459
 31
0.0
  0
LINE
  5
610
330
1F
100
AcDbEntity
  8
0
100
AcDbLine
 10
1.139695
 20
-0.496444
 30
0.0
 11
1.129311
 21
-0.496951
 31
0.0
  0
LINE
  5
611
330
1F
100
AcDbEntity
  8
0
100
AcDbLine
 10
1.151004
 20
-0.495938
 30
0.0
 11
1.139695
 21
-0.496444
 31
0.0
  0
LINE
  5
612
330
1F
100
AcDbEntity
  8
0
100
AcDbLine
 10
1.163154
 20
-0.495432
 30
0.0
 11
1.151004
 21
-0.495938
 31
0.0
  0
LINE
  5
613
330
1F
100
AcDbEntity
  8
0
100
AcDbLine
 10
1.176063
 20
-0.494924
 30
0.0
 11
1.163154
 21
-0.495432
 31
0.0
  0
LINE
  5
614
330
1F
100
AcDbEntity
  8
0
100
AcDbLine
 10
1.303415
 20
-0.490363
 30
0.0
 11
1.289877
 21
-0.49087
 31
0.0
  0
LINE
  5
615
330
1F
100
AcDbEntity
  8
0
100
AcDbLine
 10
1.3167
 20
-0.489841
 30
0.0
 11
1.303415
 21
-0.490363
 31
0.0
  0
LINE
  5
616
330
1F
100
AcDbEntity
  8
0
100
AcDbLine
 10
1.339876
 20
-0.488843
 30
0.0
 11
1.328504
 21
-0.48935
 31
0.0
  0
LINE
  5
617
330
1F
100
AcDbEntity
  8
0
100
AcDbLine
 10
1.350299
 20
-0.488336
 30
0.0
 11
1.339876
 21
-0.488843
 31
0.0
  0
LINE
  5
618
330
1F
100
AcDbEntity
  8
0
100
AcDbLine
 10
1.359653
 20
-0.487829
 30
0.0
 11
1.350299
 21
-0.488336
 31
0.0
  0
LINE
  5
619
330
1F
100
AcDbEntity
  8
0
100
AcDbLine
 10
1.367875
 20
-0.487323
 30
0.0
 11
1.359653
 21
-0.487829
 31
0.0
  0
LINE
  5
61A
330
1F
100
AcDbEntity
  8
0
100
AcDbLine
 10
1.374902
 20
-0.486816
 30
0.0
 11
1.367875
 21
-0.487323
 31
0.0
  0
LINE
  5
61B
330
1F
100
AcDbEntity
  8
0
100
AcDbLine
 10
1.380647
 20
-0.486309
 30
0.0
 11
1.374902
 21
-0.486816
 31
0.0
  0
LINE
  5
61C
330
1F
100
AcDbEntity
  8
0
100
AcDbLine
 10
1.385047
 20
-0.485802
 30
0.0
 11
1.380647
 21
-0.486309
 31
0.0
  0
LINE
  5
61D
330
1F
100
AcDbEntity
  8
0
100
AcDbLine
 10
1.389279
 20
-0.484921
 30
0.0
 11
1.385047
 21
-0.485802
 31
0.0
  0
LINE
  5
61E
330
1F
100
AcDbEntity
  8
0
100
AcDbLine
 10
1.193813
 20
-0.474662
 30
0.0
 11
1.201294
 21
-0.474931
 31
0.0
  0
LINE
  5
61F
330
1F
100
AcDbEntity
  8
0
100
AcDbLine
 10
1.181958
 20
-0.472622
 30
0.0
 11
1.186182
 21
-0.474379
 31
0.0
  0
LINE
  5
620
330
1F
100
AcDbEntity
  8
0
100
AcDbLine
 10
1.172984
 20
-0.473032
 30
0.0
 11
1.177042
 21
-0.474035
 31
0.0
  0
LINE
  5
621
330
1F
100
AcDbEntity
  8
0
100
AcDbLine
 10
1.134585
 20
-0.472232
 30
0.0
 11
1.138204
 21
-0.472404
 31
0.0
  0
LINE
  5
622
330
1F
100
AcDbEntity
  8
0
100
AcDbLine
 10
1.096807
 20
-0.466545
 30
0.0
 11
1.093137
 21
-0.467053
 31
0.0
  0
LINE
  5
623
330
1F
100
AcDbEntity
  8
0
100
AcDbLine
 10
1.101837
 20
-0.466038
 30
0.0
 11
1.096807
 21
-0.466545
 31
0.0
  0
LINE
  5
624
330
1F
100
AcDbEntity
  8
0
100
AcDbLine
 10
1.108164
 20
-0.465532
 30
0.0
 11
1.101837
 21
-0.466038
 31
0.0
  0
LINE
  5
625
330
1F
100
AcDbEntity
  8
0
100
AcDbLine
 10
1.115738
 20
-0.465026
 30
0.0
 11
1.108164
 21
-0.465532
 31
0.0
  0
LINE
  5
626
330
1F
100
AcDbEntity
  8
0
100
AcDbLine
 10
1.12451
 20
-0.464518
 30
0.0
 11
1.115738
 21
-0.465026
 31
0.0
  0
LINE
  5
627
330
1F
100
AcDbEntity
  8
0
100
AcDbLine
 10
1.134379
 20
-0.464011
 30
0.0
 11
1.12451
 21
-0.464518
 31
0.0
  0
LINE
  5
628
330
1F
100
AcDbEntity
  8
0
100
AcDbLine
 10
1.145226
 20
-0.463505
 30
0.0
 11
1.134379
 21
-0.464011
 31
0.0
  0
LINE
  5
629
330
1F
100
AcDbEntity
  8
0
100
AcDbLine
 10
1.156969
 20
-0.462999
 30
0.0
 11
1.145226
 21
-0.463505
 31
0.0
  0
LINE
  5
62A
330
1F
100
AcDbEntity
  8
0
100
AcDbLine
 10
1.169527
 20
-0.462491
 30
0.0
 11
1.156969
 21
-0.462999
 31
0.0
  0
LINE
  5
62B
330
1F
100
AcDbEntity
  8
0
100
AcDbLine
 10
1.196496
 20
-0.461478
 30
0.0
 11
1.184815
 21
-0.462181
 31
0.0
  0
LINE
  5
62C
330
1F
100
AcDbEntity
  8
0
100
AcDbLine
 10
1.296716
 20
-0.45793
 30
0.0
 11
1.282925
 21
-0.458437
 31
0.0
  0
LINE
  5
62D
330
1F
100
AcDbEntity
  8
0
100
AcDbLine
 10
1.309937
 20
-0.457423
 30
0.0
 11
1.296716
 21
-0.45793
 31
0.0
  0
LINE
  5
62E
330
1F
100
AcDbEntity
  8
0
100
AcDbLine
 10
1.334304
 20
-0.45641
 30
0.0
 11
1.322498
 21
-0.456917
 31
0.0
  0
LINE
  5
62F
330
1F
100
AcDbEntity
  8
0
100
AcDbLine
 10
1.345214
 20
-0.455903
 30
0.0
 11
1.334304
 21
-0.45641
 31
0.0
  0
LINE
  5
630
330
1F
100
AcDbEntity
  8
0
100
AcDbLine
 10
1.355103
 20
-0.455396
 30
0.0
 11
1.345214
 21
-0.455903
 31
0.0
  0
LINE
  5
631
330
1F
100
AcDbEntity
  8
0
100
AcDbLine
 10
1.363902
 20
-0.45489
 30
0.0
 11
1.355103
 21
-0.455396
 31
0.0
  0
LINE
  5
632
330
1F
100
AcDbEntity
  8
0
100
AcDbLine
 10
1.371546
 20
-0.454383
 30
0.0
 11
1.363902
 21
-0.45489
 31
0.0
  0
LINE
  5
633
330
1F
100
AcDbEntity
  8
0
100
AcDbLine
 10
1.37794
 20
-0.453876
 30
0.0
 11
1.371546
 21
-0.454383
 31
0.0
  0
LINE
  5
634
330
1F
100
AcDbEntity
  8
0
100
AcDbLine
 10
1.383012
 20
-0.453369
 30
0.0
 11
1.37794
 21
-0.453876
 31
0.0
  0
LINE
  5
635
330
1F
100
AcDbEntity
  8
0
100
AcDbLine
 10
1.386731
 20
-0.452863
 30
0.0
 11
1.383012
 21
-0.453369
 31
0.0
  0
LINE
  5
636
330
1F
100
AcDbEntity
  8
0
100
AcDbLine
 10
1.295174
 20
-0.445565
 30
0.0
 11
1.298804
 21
-0.4457
 31
0.0
  0
LINE
  5
637
330
1F
100
AcDbEntity
  8
0
100
AcDbLine
 10
1.188239
 20
-0.44177
 30
0.0
 11
1.193639
 21
-0.441967
 31
0.0
  0
LINE
  5
638
330
1F
100
AcDbEntity
  8
0
100
AcDbLine
 10
1.197681
 20
-0.442114
 30
0.0
 11
1.200591
 21
-0.44222
 31
0.0
  0
LINE
  5
639
330
1F
100
AcDbEntity
  8
0
100
AcDbLine
 10
1.174682
 20
-0.440266
 30
0.0
 11
1.181474
 21
-0.441516
 31
0.0
  0
LINE
  5
63A
330
1F
100
AcDbEntity
  8
0
100
AcDbLine
 10
1.157855
 20
-0.441086
 30
0.0
 11
1.16058
 21
-0.440701
 31
0.0
  0
LINE
  5
63B
330
1F
100
AcDbEntity
  8
0
100
AcDbLine
 10
1.131748
 20
-0.439403
 30
0.0
 11
1.134423
 21
-0.439536
 31
0.0
  0
LINE
  5
63C
330
1F
100
AcDbEntity
  8
0
100
AcDbLine
 10
1.0948
 20
-0.434112
 30
0.0
 11
1.091171
 21
-0.436206
 31
0.0
  0
LINE
  5
63D
330
1F
100
AcDbEntity
  8
0
100
AcDbLine
 10
1.099155
 20
-0.433605
 30
0.0
 11
1.0948
 21
-0.434112
 31
0.0
  0
LINE
  5
63E
330
1F
100
AcDbEntity
  8
0
100
AcDbLine
 10
1.104834
 20
-0.433099
 30
0.0
 11
1.099155
 21
-0.433605
 31
0.0
  0
LINE
  5
63F
330
1F
100
AcDbEntity
  8
0
100
AcDbLine
 10
1.111792
 20
-0.432592
 30
0.0
 11
1.104834
 21
-0.433099
 31
0.0
  0
LINE
  5
640
330
1F
100
AcDbEntity
  8
0
100
AcDbLine
 10
1.119983
 20
-0.432085
 30
0.0
 11
1.111792
 21
-0.432592
 31
0.0
  0
LINE
  5
641
330
1F
100
AcDbEntity
  8
0
100
AcDbLine
 10
1.129315
 20
-0.431578
 30
0.0
 11
1.119983
 21
-0.432085
 31
0.0
  0
LINE
  5
642
330
1F
100
AcDbEntity
  8
0
100
AcDbLine
 10
1.139673
 20
-0.431072
 30
0.0
 11
1.129315
 21
-0.431578
 31
0.0
  0
LINE
  5
643
330
1F
100
AcDbEntity
  8
0
100
AcDbLine
 10
1.15098
 20
-0.430565
 30
0.0
 11
1.139673
 21
-0.431072
 31
0.0
  0
LINE
  5
644
330
1F
100
AcDbEntity
  8
0
100
AcDbLine
 10
1.163159
 20
-0.430058
 30
0.0
 11
1.15098
 21
-0.430565
 31
0.0
  0
LINE
  5
645
330
1F
100
AcDbEntity
  8
0
100
AcDbLine
 10
1.176068
 20
-0.429551
 30
0.0
 11
1.163159
 21
-0.430058
 31
0.0
  0
LINE
  5
646
330
1F
100
AcDbEntity
  8
0
100
AcDbLine
 10
1.303388
 20
-0.42499
 30
0.0
 11
1.289882
 21
-0.425497
 31
0.0
  0
LINE
  5
647
330
1F
100
AcDbEntity
  8
0
100
AcDbLine
 10
1.316672
 20
-0.424469
 30
0.0
 11
1.303388
 21
-0.42499
 31
0.0
  0
LINE
  5
648
330
1F
100
AcDbEntity
  8
0
100
AcDbLine
 10
1.33988
 20
-0.423469
 30
0.0
 11
1.328508
 21
-0.423977
 31
0.0
  0
LINE
  5
649
330
1F
100
AcDbEntity
  8
0
100
AcDbLine
 10
1.350279
 20
-0.422963
 30
0.0
 11
1.33988
 21
-0.423469
 31
0.0
  0
LINE
  5
64A
330
1F
100
AcDbEntity
  8
0
100
AcDbLine
 10
1.359635
 20
-0.422457
 30
0.0
 11
1.350279
 21
-0.422963
 31
0.0
  0
LINE
  5
64B
330
1F
100
AcDbEntity
  8
0
100
AcDbLine
 10
1.367877
 20
-0.42195
 30
0.0
 11
1.359635
 21
-0.422457
 31
0.0
  0
LINE
  5
64C
330
1F
100
AcDbEntity
  8
0
100
AcDbLine
 10
1.374904
 20
-0.421442
 30
0.0
 11
1.367877
 21
-0.42195
 31
0.0
  0
LINE
  5
64D
330
1F
100
AcDbEntity
  8
0
100
AcDbLine
 10
1.380637
 20
-0.420936
 30
0.0
 11
1.374904
 21
-0.421442
 31
0.0
  0
LINE
  5
64E
330
1F
100
AcDbEntity
  8
0
100
AcDbLine
 10
1.385039
 20
-0.42043
 30
0.0
 11
1.380637
 21
-0.420936
 31
0.0
  0
LINE
  5
64F
330
1F
100
AcDbEntity
  8
0
100
AcDbLine
 10
1.389436
 20
-0.419554
 30
0.0
 11
1.385039
 21
-0.42043
 31
0.0
  0
LINE
  5
650
330
1F
100
AcDbEntity
  8
0
100
AcDbLine
 10
1.293875
 20
-0.412828
 30
0.0
 11
1.29707
 21
-0.413081
 31
0.0
  0
LINE
  5
651
330
1F
100
AcDbEntity
  8
0
100
AcDbLine
 10
1.388585
 20
-0.844867
 30
0.0
 11
1.389534
 21
-0.831551
 31
0.0
  0
LINE
  5
652
330
1F
100
AcDbEntity
  8
0
100
AcDbLine
 10
1.090979
 20
-0.847509
 30
0.0
 11
1.090564
 21
-0.860825
 31
0.0
  0
LINE
  5
653
330
1F
100
AcDbEntity
  8
0
100
AcDbLine
 10
1.389071
 20
-0.779221
 30
0.0
 11
1.387682
 21
-0.767409
 31
0.0
  0
LINE
  5
654
330
1F
100
AcDbEntity
  8
0
100
AcDbLine
 10
1.091914
 20
-0.782131
 30
0.0
 11
1.090811
 21
-0.795605
 31
0.0
  0
LINE
  5
655
330
1F
100
AcDbEntity
  8
0
100
AcDbLine
 10
1.38954
 20
-0.798942
 30
0.0
 11
1.388319
 21
-0.812257
 31
0.0
  0
LINE
  5
656
330
1F
100
AcDbEntity
  8
0
100
AcDbLine
 10
1.090818
 20
-0.8149
 30
0.0
 11
1.090675
 21
-0.828215
 31
0.0
  0
LINE
  5
657
330
1F
100
AcDbEntity
  8
0
100
AcDbLine
 10
1.389428
 20
-0.713734
 30
0.0
 11
1.388142
 21
-0.701939
 31
0.0
  0
LINE
  5
658
330
1F
100
AcDbEntity
  8
0
100
AcDbLine
 10
1.090095
 20
-0.717649
 30
0.0
 11
1.09118
 21
-0.730386
 31
0.0
  0
LINE
  5
659
330
1F
100
AcDbEntity
  8
0
100
AcDbLine
 10
1.388818
 20
-0.733029
 30
0.0
 11
1.389506
 21
-0.746344
 31
0.0
  0
LINE
  5
65A
330
1F
100
AcDbEntity
  8
0
100
AcDbLine
 10
1.090568
 20
-0.74968
 30
0.0
 11
1.090971
 21
-0.762996
 31
0.0
  0
LINE
  5
65B
330
1F
100
AcDbEntity
  8
0
100
AcDbLine
 10
1.389198
 20
-0.648515
 30
0.0
 11
1.388143
 21
-0.636566
 31
0.0
  0
LINE
  5
65C
330
1F
100
AcDbEntity
  8
0
100
AcDbLine
 10
1.090968
 20
-0.651554
 30
0.0
 11
1.091672
 21
-0.665167
 31
0.0
  0
LINE
  5
65D
330
1F
100
AcDbEntity
  8
0
100
AcDbLine
 10
1.389182
 20
-0.667809
 30
0.0
 11
1.39
 21
-0.680582
 31
0.0
  0
LINE
  5
65E
330
1F
100
AcDbEntity
  8
0
100
AcDbLine
 10
1.090914
 20
-0.684202
 30
0.0
 11
1.091414
 21
-0.697777
 31
0.0
  0
LINE
  5
65F
330
1F
100
AcDbEntity
  8
0
100
AcDbLine
 10
1.38882
 20
-0.583296
 30
0.0
 11
1.389495
 21
-0.569981
 31
0.0
  0
LINE
  5
660
330
1F
100
AcDbEntity
  8
0
100
AcDbLine
 10
1.091191
 20
-0.585938
 30
0.0
 11
1.090502
 21
-0.599254
 31
0.0
  0
LINE
  5
661
330
1F
100
AcDbEntity
  8
0
100
AcDbLine
 10
1.389424
 20
-0.60259
 30
0.0
 11
1.389021
 21
-0.615906
 31
0.0
  0
LINE
  5
662
330
1F
100
AcDbEntity
  8
0
100
AcDbLine
 10
1.091418
 20
-0.618548
 30
0.0
 11
1.090457
 21
-0.631864
 31
0.0
  0
LINE
  5
663
330
1F
100
AcDbEntity
  8
0
100
AcDbLine
 10
1.091911
 20
-0.520677
 30
0.0
 11
1.090667
 21
-0.534035
 31
0.0
  0
LINE
  5
664
330
1F
100
AcDbEntity
  8
0
100
AcDbLine
 10
1.389542
 20
-0.537371
 30
0.0
 11
1.388595
 21
-0.550686
 31
0.0
  0
LINE
  5
665
330
1F
100
AcDbEntity
  8
0
100
AcDbLine
 10
1.090988
 20
-0.553329
 30
0.0
 11
1.090572
 21
-0.566644
 31
0.0
  0
LINE
  5
666
330
1F
100
AcDbEntity
  8
0
100
AcDbLine
 10
1.389498
 20
-0.452164
 30
0.0
 11
1.388135
 21
-0.440448
 31
0.0
  0
LINE
  5
667
330
1F
100
AcDbEntity
  8
0
100
AcDbLine
 10
1.091897
 20
-0.455213
 30
0.0
 11
1.090979
 21
-0.468816
 31
0.0
  0
LINE
  5
668
330
1F
100
AcDbEntity
  8
0
100
AcDbLine
 10
1.388573
 20
-0.471458
 30
0.0
 11
1.389279
 21
-0.484921
 31
0.0
  0
LINE
  5
669
330
1F
100
AcDbEntity
  8
0
100
AcDbLine
 10
1.090681
 20
-0.48811
 30
0.0
 11
1.09081
 21
-0.501425
 31
0.0
  0
LINE
  5
66A
330
1F
100
AcDbEntity
  8
0
100
AcDbLine
 10
1.39
 20
-0.4125
 30
0.0
 11
1.389436
 21
-0.419554
 31
0.0
  0
LINE
  5
66B
330
1F
100
AcDbEntity
  8
0
100
AcDbLine
 10
1.092328
 20
-0.422197
 30
0.0
 11
1.091171
 21
-0.436206
 31
0.0
  0
LINE
  5
66C
330
1F
100
AcDbEntity
  8
0
100
AcDbLine
 10
1.09
 20
-0.8775
 30
0.0
 11
1.093162
 21
-0.8775
 31
0.0
  0
LINE
  5
66D
330
1F
100
AcDbEntity
  8
0
100
AcDbLine
 10
1.096754
 20
-0.8775
 30
0.0
 11
1.09
 21
-0.8775
 31
0.0
  0
LINE
  5
66E
330
1F
100
AcDbEntity
  8
0
100
AcDbLine
 10
1.103953
 20
-0.87883
 30
0.0
 11
1.096754
 21
-0.8775
 31
0.0
  0
LINE
  5
66F
330
1F
100
AcDbEntity
  8
0
100
AcDbLine
 10
1.424446
 20
-0.906298
 30
0.0
 11
1.425
 21
-0.9125
 31
0.0
  0
LINE
  5
670
330
1F
100
AcDbEntity
  8
0
100
AcDbLine
 10
1.422832
 20
-0.900374
 30
0.0
 11
1.424446
 21
-0.906298
 31
0.0
  0
LINE
  5
671
330
1F
100
AcDbEntity
  8
0
100
AcDbLine
 10
1.055578
 20
-0.906163
 30
0.0
 11
1.057261
 21
-0.900124
 31
0.0
  0
LINE
  5
672
330
1F
100
AcDbEntity
  8
0
100
AcDbLine
 10
1.053124
 20
-0.9125
 30
0.0
 11
1.055578
 21
-0.906163
 31
0.0
  0
LINE
  5
673
330
1F
100
AcDbEntity
  8
0
100
AcDbLine
 10
1.420298
 20
-0.894977
 30
0.0
 11
1.422832
 21
-0.900374
 31
0.0
  0
LINE
  5
674
330
1F
100
AcDbEntity
  8
0
100
AcDbLine
 10
1.057261
 20
-0.900124
 30
0.0
 11
1.059898
 21
-0.894644
 31
0.0
  0
LINE
  5
675
330
1F
100
AcDbEntity
  8
0
100
AcDbLine
 10
1.416902
 20
-0.89011
 30
0.0
 11
1.420298
 21
-0.894977
 31
0.0
  0
LINE
  5
676
330
1F
100
AcDbEntity
  8
0
100
AcDbLine
 10
1.41259
 20
-0.885766
 30
0.0
 11
1.416902
 21
-0.89011
 31
0.0
  0
LINE
  5
677
330
1F
100
AcDbEntity
  8
0
100
AcDbLine
 10
1.059898
 20
-0.894644
 30
0.0
 11
1.06762
 21
-0.885591
 31
0.0
  0
LINE
  5
678
330
1F
100
AcDbEntity
  8
0
100
AcDbLine
 10
1.4075
 20
-0.882189
 30
0.0
 11
1.41259
 21
-0.885766
 31
0.0
  0
LINE
  5
679
330
1F
100
AcDbEntity
  8
0
100
AcDbLine
 10
1.401854
 20
-0.879569
 30
0.0
 11
1.4075
 21
-0.882189
 31
0.0
  0
LINE
  5
67A
330
1F
100
AcDbEntity
  8
0
100
AcDbLine
 10
1.06762
 20
-0.885591
 30
0.0
 11
1.078274
 21
-0.879523
 31
0.0
  0
LINE
  5
67B
330
1F
100
AcDbEntity
  8
0
100
AcDbLine
 10
1.395927
 20
-0.878005
 30
0.0
 11
1.401854
 21
-0.879569
 31
0.0
  0
LINE
  5
67C
330
1F
100
AcDbEntity
  8
0
100
AcDbLine
 10
1.388237
 20
-0.8775
 30
0.0
 11
1.395927
 21
-0.878005
 31
0.0
  0
LINE
  5
67D
330
1F
100
AcDbEntity
  8
0
100
AcDbLine
 10
1.078274
 20
-0.879523
 30
0.0
 11
1.09
 21
-0.8775
 31
0.0
  0
LINE
  5
67E
330
1F
100
AcDbEntity
  8
0
100
AcDbLine
 10
1.84
 20
0.7875
 30
0.0
 11
1.84
 21
0.9075
 31
0.0
  0
LINE
  5
67F
330
1F
100
AcDbEntity
  8
0
100
AcDbLine
 10
0.64
 20
0.7875
 30
0.0
 11
0.64
 21
0.9075
 31
0.0
  0
LINE
  5
680
330
1F
100
AcDbEntity
  8
0
100
AcDbLine
 10
0.9435
 20
0.3675
 30
0.0
 11
0.9435
 21
0.7875
 31
0.0
  0
LINE
  5
681
330
1F
100
AcDbEntity
  8
0
100
AcDbLine
 10
1.5365
 20
0.3675
 30
0.0
 11
1.5365
 21
0.7875
 31
0.0
  0
LINE
  5
682
330
1F
100
AcDbEntity
  8
0
100
AcDbLine
 10
1.300313
 20
-0.4125
 30
0.0
 11
1.310276
 21
-0.412575
 31
0.0
  0
LINE
  5
683
330
1F
100
AcDbEntity
  8
0
100
AcDbLine
 10
1.283291
 20
-0.413589
 30
0.0
 11
1.287697
 21
-0.4125
 31
0.0
  0
LINE
  5
684
330
1F
100
AcDbEntity
  8
0
100
AcDbLine
 10
1.01
 20
0.3675
 30
0.0
 11
1.01
 21
-0.4125
 31
0.0
  0
LINE
  5
685
330
1F
100
AcDbEntity
  8
0
100
AcDbLine
 10
1.24
 20
-0.4125
 30
0.0
 11
1.24
 21
0.3675
 31
0.0
  0
LINE
  5
686
330
1F
100
AcDbEntity
  8
0
100
AcDbLine
 10
1.47
 20
0.3675
 30
0.0
 11
1.47
 21
-0.4125
 31
0.0
  0
LINE
  5
687
330
1F
100
AcDbEntity
  8
0
100
AcDbLine
 10
1.096921
 20
-0.421697
 30
0.0
 11
1.099151
 21
-0.417893
 31
0.0
  0
LINE
  5
688
330
1F
100
AcDbEntity
  8
0
100
AcDbLine
 10
1.219516
 20
0.994167
 30
0.0
 11
1.223258
 21
1.008662
 31
0.0
  0
LINE
  5
689
330
1F
100
AcDbEntity
  8
0
100
AcDbLine
 10
-1.173699
 20
-0.9655
 30
0.0
 11
-1.153409
 21
-0.930685
 31
0.0
  0
LINE
  5
68A
330
1F
100
AcDbEntity
  8
0
100
AcDbLine
 10
-1.153409
 20
-0.930685
 30
0.0
 11
-1.14817
 21
-0.930273
 31
0.0
  0
LINE
  5
68B
330
1F
100
AcDbEntity
  8
0
100
AcDbLine
 10
-1.17871
 20
-0.9695
 30
0.0
 11
-1.173699
 21
-0.9655
 31
0.0
  0
LINE
  5
68C
330
1F
100
AcDbEntity
  8
0
100
AcDbLine
 10
-1.173699
 20
-0.9655
 30
0.0
 11
-1.100953
 21
-0.9695
 31
0.0
  0
LINE
  5
68D
330
1F
100
AcDbEntity
  8
0
100
AcDbLine
 10
-1.173699
 20
-0.9655
 30
0.0
 11
-1.179878
 21
-0.96721
 31
0.0
  0
LINE
  5
68E
330
1F
100
AcDbEntity
  8
0
100
AcDbLine
 10
-1.426876
 20
-0.920838
 30
0.0
 11
-1.430876
 21
-0.9675
 31
0.0
  0
LINE
  5
68F
330
1F
100
AcDbEntity
  8
0
100
AcDbLine
 10
-1.426876
 20
-0.920838
 30
0.0
 11
-1.389023
 21
-0.91687
 31
0.0
  0
LINE
  5
690
330
1F
100
AcDbEntity
  8
0
100
AcDbLine
 10
-1.389023
 20
-0.91687
 30
0.0
 11
-1.3838
 21
-0.920874
 31
0.0
  0
LINE
  5
691
330
1F
100
AcDbEntity
  8
0
100
AcDbLine
 10
-1.426876
 20
-0.907527
 30
0.0
 11
-1.389023
 21
-0.91687
 31
0.0
  0
LINE
  5
692
330
1F
100
AcDbEntity
  8
0
100
AcDbLine
 10
-1.333861
 20
-0.930113
 30
0.0
 11
-1.316538
 21
-0.931476
 31
0.0
  0
LINE
  5
693
330
1F
100
AcDbEntity
  8
0
100
AcDbLine
 10
-1.238
 20
-0.937343
 30
0.0
 11
-1.153409
 21
-0.930685
 31
0.0
  0
LINE
  5
694
330
1F
100
AcDbEntity
  8
0
100
AcDbLine
 10
-1.14817
 20
-0.930273
 30
0.0
 11
-1.069295
 21
-0.911664
 31
0.0
  0
LINE
  5
695
330
1F
100
AcDbEntity
  8
0
100
AcDbLine
 10
1.147186
 20
-0.876196
 30
0.0
 11
1.155518
 21
-0.8775
 31
0.0
  0
LINE
  5
696
330
1F
100
AcDbEntity
  8
0
100
AcDbLine
 10
1.13689
 20
-0.8775
 30
0.0
 11
1.133934
 21
-0.8775
 31
0.0
  0
LINE
  5
697
330
1F
100
AcDbEntity
  8
0
100
AcDbLine
 10
1.133934
 20
-0.8775
 30
0.0
 11
1.128879
 21
-0.877065
 31
0.0
  0
LINE
  5
698
330
1F
100
AcDbEntity
  8
0
100
AcDbLine
 10
1.155518
 20
-0.8775
 30
0.0
 11
1.16058
 21
-0.875379
 31
0.0
  0
LINE
  5
699
330
1F
100
AcDbEntity
  8
0
100
AcDbLine
 10
1.16058
 20
-0.875379
 30
0.0
 11
1.15737
 21
-0.87576
 31
0.0
  0
LINE
  5
69A
330
1F
100
AcDbEntity
  8
0
100
AcDbLine
 10
1.175976
 20
-0.8775
 30
0.0
 11
1.169953
 21
-0.875252
 31
0.0
  0
LINE
  5
69B
330
1F
100
AcDbEntity
  8
0
100
AcDbLine
 10
1.21112
 20
-0.873733
 30
0.0
 11
1.207888
 21
-0.8775
 31
0.0
  0
LINE
  5
69C
330
1F
100
AcDbEntity
  8
0
100
AcDbLine
 10
1.196924
 20
-0.87424
 30
0.0
 11
1.192815
 21
-0.876867
 31
0.0
  0
LINE
  5
69D
330
1F
100
AcDbEntity
  8
0
100
AcDbLine
 10
1.225589
 20
-0.873225
 30
0.0
 11
1.218997
 21
-0.8775
 31
0.0
  0
LINE
  5
69E
330
1F
100
AcDbEntity
  8
0
100
AcDbLine
 10
1.218997
 20
-0.8775
 30
0.0
 11
1.21112
 21
-0.873733
 31
0.0
  0
LINE
  5
69F
330
1F
100
AcDbEntity
  8
0
100
AcDbLine
 10
1.225589
 20
-0.873225
 30
0.0
 11
1.24
 21
-0.8775
 31
0.0
  0
LINE
  5
6A0
330
1F
100
AcDbEntity
  8
0
100
AcDbLine
 10
1.3229
 20
-0.869679
 30
0.0
 11
1.319093
 21
-0.87142
 31
0.0
  0
LINE
  5
6A1
330
1F
100
AcDbEntity
  8
0
100
AcDbLine
 10
1.319093
 20
-0.87142
 30
0.0
 11
1.310333
 21
-0.870186
 31
0.0
  0
LINE
  5
6A2
330
1F
100
AcDbEntity
  8
0
100
AcDbLine
 10
1.310333
 20
-0.870186
 30
0.0
 11
1.307162
 21
-0.870945
 31
0.0
  0
LINE
  5
6A3
330
1F
100
AcDbEntity
  8
0
100
AcDbLine
 10
1.345533
 20
-0.868665
 30
0.0
 11
1.341674
 21
-0.872407
 31
0.0
  0
LINE
  5
6A4
330
1F
100
AcDbEntity
  8
0
100
AcDbLine
 10
1.341674
 20
-0.872407
 30
0.0
 11
1.334678
 21
-0.869171
 31
0.0
  0
LINE
  5
6A5
330
1F
100
AcDbEntity
  8
0
100
AcDbLine
 10
1.334678
 20
-0.869171
 30
0.0
 11
1.330405
 21
-0.871897
 31
0.0
  0
LINE
  5
6A6
330
1F
100
AcDbEntity
  8
0
100
AcDbLine
 10
1.349838
 20
-0.8775
 30
0.0
 11
1.356176
 21
-0.873146
 31
0.0
  0
LINE
  5
6A7
330
1F
100
AcDbEntity
  8
0
100
AcDbLine
 10
1.356176
 20
-0.873146
 30
0.0
 11
1.361559
 21
-0.8775
 31
0.0
  0
LINE
  5
6A8
330
1F
100
AcDbEntity
  8
0
100
AcDbLine
 10
1.330771
 20
-0.858437
 30
0.0
 11
1.325903
 21
-0.859554
 31
0.0
  0
LINE
  5
6A9
330
1F
100
AcDbEntity
  8
0
100
AcDbLine
 10
1.306455
 20
-0.859666
 30
0.0
 11
1.301166
 21
-0.858567
 31
0.0
  0
LINE
  5
6AA
330
1F
100
AcDbEntity
  8
0
100
AcDbLine
 10
1.094922
 20
-0.846874
 30
0.0
 11
1.099596
 21
-0.842512
 31
0.0
  0
LINE
  5
6AB
330
1F
100
AcDbEntity
  8
0
100
AcDbLine
 10
1.151369
 20
-0.843327
 30
0.0
 11
1.160553
 21
-0.84269
 31
0.0
  0
LINE
  5
6AC
330
1F
100
AcDbEntity
  8
0
100
AcDbLine
 10
1.290304
 20
-0.838259
 30
0.0
 11
1.295226
 21
-0.837807
 31
0.0
  0
LINE
  5
6AD
330
1F
100
AcDbEntity
  8
0
100
AcDbLine
 10
1.389534
 20
-0.831551
 30
0.0
 11
1.385162
 21
-0.833191
 31
0.0
  0
LINE
  5
6AE
330
1F
100
AcDbEntity
  8
0
100
AcDbLine
 10
1.385162
 20
-0.833191
 30
0.0
 11
1.380876
 21
-0.826554
 31
0.0
  0
LINE
  5
6AF
330
1F
100
AcDbEntity
  8
0
100
AcDbLine
 10
1.31955
 20
-0.826603
 30
0.0
 11
1.316643
 21
-0.82649
 31
0.0
  0
LINE
  5
6B0
330
1F
100
AcDbEntity
  8
0
100
AcDbLine
 10
1.32467
 20
-0.826081
 30
0.0
 11
1.31955
 21
-0.826603
 31
0.0
  0
LINE
  5
6B1
330
1F
100
AcDbEntity
  8
0
100
AcDbLine
 10
1.096942
 20
-0.813934
 30
0.0
 11
1.099447
 21
-0.809903
 31
0.0
  0
LINE
  5
6B2
330
1F
100
AcDbEntity
  8
0
100
AcDbLine
 10
1.318228
 20
-0.793725
 30
0.0
 11
1.313284
 21
-0.793664
 31
0.0
  0
LINE
  5
6B3
330
1F
100
AcDbEntity
  8
0
100
AcDbLine
 10
1.313284
 20
-0.793664
 30
0.0
 11
1.309815
 21
-0.794134
 31
0.0
  0
LINE
  5
6B4
330
1F
100
AcDbEntity
  8
0
100
AcDbLine
 10
1.309815
 20
-0.794134
 30
0.0
 11
1.305486
 21
-0.793361
 31
0.0
  0
LINE
  5
6B5
330
1F
100
AcDbEntity
  8
0
100
AcDbLine
 10
1.094914
 20
-0.781501
 30
0.0
 11
1.09932
 21
-0.777293
 31
0.0
  0
LINE
  5
6B6
330
1F
100
AcDbEntity
  8
0
100
AcDbLine
 10
1.290277
 20
-0.772887
 30
0.0
 11
1.295187
 21
-0.772432
 31
0.0
  0
LINE
  5
6B7
330
1F
100
AcDbEntity
  8
0
100
AcDbLine
 10
1.090568
 20
-0.74968
 30
0.0
 11
1.093231
 21
-0.749068
 31
0.0
  0
LINE
  5
6B8
330
1F
100
AcDbEntity
  8
0
100
AcDbLine
 10
1.093231
 20
-0.749068
 30
0.0
 11
1.099216
 21
-0.744683
 31
0.0
  0
LINE
  5
6B9
330
1F
100
AcDbEntity
  8
0
100
AcDbLine
 10
1.157351
 20
-0.745014
 30
0.0
 11
1.16058
 21
-0.744633
 31
0.0
  0
LINE
  5
6BA
330
1F
100
AcDbEntity
  8
0
100
AcDbLine
 10
1.325675
 20
-0.728797
 30
0.0
 11
1.321343
 21
-0.728194
 31
0.0
  0
LINE
  5
6BB
330
1F
100
AcDbEntity
  8
0
100
AcDbLine
 10
1.15135
 20
-0.712581
 30
0.0
 11
1.160605
 21
-0.711947
 31
0.0
  0
LINE
  5
6BC
330
1F
100
AcDbEntity
  8
0
100
AcDbLine
 10
1.290282
 20
-0.707513
 30
0.0
 11
1.295167
 21
-0.707058
 31
0.0
  0
LINE
  5
6BD
330
1F
100
AcDbEntity
  8
0
100
AcDbLine
 10
1.096935
 20
-0.683188
 30
0.0
 11
1.099124
 21
-0.679464
 31
0.0
  0
LINE
  5
6BE
330
1F
100
AcDbEntity
  8
0
100
AcDbLine
 10
1.157327
 20
-0.679642
 30
0.0
 11
1.160615
 21
-0.67926
 31
0.0
  0
LINE
  5
6BF
330
1F
100
AcDbEntity
  8
0
100
AcDbLine
 10
1.313304
 20
-0.662918
 30
0.0
 11
1.307823
 21
-0.663482
 31
0.0
  0
LINE
  5
6C0
330
1F
100
AcDbEntity
  8
0
100
AcDbLine
 10
1.307823
 20
-0.663482
 30
0.0
 11
1.30312
 21
-0.662523
 31
0.0
  0
LINE
  5
6C1
330
1F
100
AcDbEntity
  8
0
100
AcDbLine
 10
1.316339
 20
-0.663072
 30
0.0
 11
1.313304
 21
-0.662918
 31
0.0
  0
LINE
  5
6C2
330
1F
100
AcDbEntity
  8
0
100
AcDbLine
 10
1.094908
 20
-0.650755
 30
0.0
 11
1.099113
 21
-0.646855
 31
0.0
  0
LINE
  5
6C3
330
1F
100
AcDbEntity
  8
0
100
AcDbLine
 10
1.290287
 20
-0.64214
 30
0.0
 11
1.295176
 21
-0.641685
 31
0.0
  0
LINE
  5
6C4
330
1F
100
AcDbEntity
  8
0
100
AcDbLine
 10
1.309498
 20
-0.630716
 30
0.0
 11
1.306836
 21
-0.629977
 31
0.0
  0
LINE
  5
6C5
330
1F
100
AcDbEntity
  8
0
100
AcDbLine
 10
1.096937
 20
-0.617815
 30
0.0
 11
1.100005
 21
-0.613551
 31
0.0
  0
LINE
  5
6C6
330
1F
100
AcDbEntity
  8
0
100
AcDbLine
 10
1.09491
 20
-0.585382
 30
0.0
 11
1.099794
 21
-0.580941
 31
0.0
  0
LINE
  5
6C7
330
1F
100
AcDbEntity
  8
0
100
AcDbLine
 10
1.151331
 20
-0.581835
 30
0.0
 11
1.16056
 21
-0.5812
 31
0.0
  0
LINE
  5
6C8
330
1F
100
AcDbEntity
  8
0
100
AcDbLine
 10
1.29026
 20
-0.576767
 30
0.0
 11
1.295203
 21
-0.576313
 31
0.0
  0
LINE
  5
6C9
330
1F
100
AcDbEntity
  8
0
100
AcDbLine
 10
1.389495
 20
-0.569981
 30
0.0
 11
1.38515
 21
-0.5717
 31
0.0
  0
LINE
  5
6CA
330
1F
100
AcDbEntity
  8
0
100
AcDbLine
 10
1.38515
 20
-0.5717
 30
0.0
 11
1.380841
 21
-0.564984
 31
0.0
  0
LINE
  5
6CB
330
1F
100
AcDbEntity
  8
0
100
AcDbLine
 10
1.352856
 20
-0.566632
 30
0.0
 11
1.348567
 21
-0.563137
 31
0.0
  0
LINE
  5
6CC
330
1F
100
AcDbEntity
  8
0
100
AcDbLine
 10
1.348567
 20
-0.563137
 30
0.0
 11
1.344388
 21
-0.566209
 31
0.0
  0
LINE
  5
6CD
330
1F
100
AcDbEntity
  8
0
100
AcDbLine
 10
1.3128
 20
-0.565185
 30
0.0
 11
1.307768
 21
-0.564641
 31
0.0
  0
LINE
  5
6CE
330
1F
100
AcDbEntity
  8
0
100
AcDbLine
 10
1.307768
 20
-0.564641
 30
0.0
 11
1.304098
 21
-0.565595
 31
0.0
  0
LINE
  5
6CF
330
1F
100
AcDbEntity
  8
0
100
AcDbLine
 10
1.304098
 20
-0.565595
 30
0.0
 11
1.299771
 21
-0.564336
 31
0.0
  0
LINE
  5
6D0
330
1F
100
AcDbEntity
  8
0
100
AcDbLine
 10
1.096928
 20
-0.552443
 30
0.0
 11
1.099605
 21
-0.548332
 31
0.0
  0
LINE
  5
6D1
330
1F
100
AcDbEntity
  8
0
100
AcDbLine
 10
1.157336
 20
-0.548895
 30
0.0
 11
1.160548
 21
-0.548511
 31
0.0
  0
LINE
  5
6D2
330
1F
100
AcDbEntity
  8
0
100
AcDbLine
 10
1.305807
 20
-0.532829
 30
0.0
 11
1.300266
 21
-0.531666
 31
0.0
  0
LINE
  5
6D3
330
1F
100
AcDbEntity
  8
0
100
AcDbLine
 10
1.094902
 20
-0.52001
 30
0.0
 11
1.099439
 21
-0.515722
 31
0.0
  0
LINE
  5
6D4
330
1F
100
AcDbEntity
  8
0
100
AcDbLine
 10
1.151335
 20
-0.516462
 30
0.0
 11
1.160551
 21
-0.515824
 31
0.0
  0
LINE
  5
6D5
330
1F
100
AcDbEntity
  8
0
100
AcDbLine
 10
1.290232
 20
-0.511395
 30
0.0
 11
1.295206
 21
-0.51094
 31
0.0
  0
LINE
  5
6D6
330
1F
100
AcDbEntity
  8
0
100
AcDbLine
 10
1.384794
 20
-0.506375
 30
0.0
 11
1.380879
 21
-0.499764
 31
0.0
  0
LINE
  5
6D7
330
1F
100
AcDbEntity
  8
0
100
AcDbLine
 10
1.319614
 20
-0.499739
 30
0.0
 11
1.316035
 21
-0.499654
 31
0.0
  0
LINE
  5
6D8
330
1F
100
AcDbEntity
  8
0
100
AcDbLine
 10
1.324096
 20
-0.499244
 30
0.0
 11
1.319614
 21
-0.499739
 31
0.0
  0
LINE
  5
6D9
330
1F
100
AcDbEntity
  8
0
100
AcDbLine
 10
1.090681
 20
-0.48811
 30
0.0
 11
1.096919
 21
-0.48707
 31
0.0
  0
LINE
  5
6DA
330
1F
100
AcDbEntity
  8
0
100
AcDbLine
 10
1.096919
 20
-0.48707
 30
0.0
 11
1.09932
 21
-0.483113
 31
0.0
  0
LINE
  5
6DB
330
1F
100
AcDbEntity
  8
0
100
AcDbLine
 10
1.157312
 20
-0.483522
 30
0.0
 11
1.160572
 21
-0.483139
 31
0.0
  0
LINE
  5
6DC
330
1F
100
AcDbEntity
  8
0
100
AcDbLine
 10
1.094895
 20
-0.454637
 30
0.0
 11
1.099224
 21
-0.450503
 31
0.0
  0
LINE
  5
6DD
330
1F
100
AcDbEntity
  8
0
100
AcDbLine
 10
1.290237
 20
-0.446022
 30
0.0
 11
1.295174
 21
-0.445565
 31
0.0
  0
LINE
  5
6DE
330
1F
100
AcDbEntity
  8
0
100
AcDbLine
 10
1.310841
 20
-0.434532
 30
0.0
 11
1.306883
 21
-0.433859
 31
0.0
  0
LINE
  5
6DF
330
1F
100
AcDbEntity
  8
0
100
AcDbLine
 10
1.157287
 20
-0.41815
 30
0.0
 11
1.160584
 21
-0.417768
 31
0.0
  0
LINE
  5
6E0
330
1F
100
AcDbEntity
  8
0
100
AcDbLine
 10
1.29707
 20
-0.413081
 30
0.0
 11
1.300313
 21
-0.4125
 31
0.0
  0
LINE
  5
6E1
330
1F
100
AcDbEntity
  8
0
100
AcDbLine
 10
1.192815
 20
-0.876867
 30
0.0
 11
1.197414
 21
-0.8775
 31
0.0
  0
LINE
  5
6E2
330
1F
100
AcDbEntity
  8
0
100
AcDbLine
 10
1.197414
 20
-0.8775
 30
0.0
 11
1.202493
 21
-0.877277
 31
0.0
  0
LINE
  5
6E3
330
1F
100
AcDbEntity
  8
0
100
AcDbLine
 10
1.165767
 20
-0.875639
 30
0.0
 11
1.169953
 21
-0.875252
 31
0.0
  0
LINE
  5
6E4
330
1F
100
AcDbEntity
  8
0
100
AcDbLine
 10
1.17027
 20
-0.8654
 30
0.0
 11
1.166788
 21
-0.865877
 31
0.0
  0
LINE
  5
6E5
330
1F
100
AcDbEntity
  8
0
100
AcDbLine
 10
1.197894
 20
-0.864171
 30
0.0
 11
1.191284
 21
-0.866808
 31
0.0
  0
LINE
  5
6E6
330
1F
100
AcDbEntity
  8
0
100
AcDbLine
 10
1.191284
 20
-0.866808
 30
0.0
 11
1.188346
 21
-0.86458
 31
0.0
  0
LINE
  5
6E7
330
1F
100
AcDbEntity
  8
0
100
AcDbLine
 10
1.207702
 20
-0.863761
 30
0.0
 11
1.203844
 21
-0.867262
 31
0.0
  0
LINE
  5
6E8
330
1F
100
AcDbEntity
  8
0
100
AcDbLine
 10
1.203844
 20
-0.867262
 30
0.0
 11
1.197894
 21
-0.864171
 31
0.0
  0
LINE
  5
6E9
330
1F
100
AcDbEntity
  8
0
100
AcDbLine
 10
1.301166
 20
-0.858567
 30
0.0
 11
1.296124
 21
-0.858379
 31
0.0
  0
LINE
  5
6EA
330
1F
100
AcDbEntity
  8
0
100
AcDbLine
 10
1.163438
 20
-0.833044
 30
0.0
 11
1.160491
 21
-0.832937
 31
0.0
  0
LINE
  5
6EB
330
1F
100
AcDbEntity
  8
0
100
AcDbLine
 10
1.160491
 20
-0.832937
 30
0.0
 11
1.155406
 21
-0.833453
 31
0.0
  0
LINE
  5
6EC
330
1F
100
AcDbEntity
  8
0
100
AcDbLine
 10
1.180868
 20
-0.832224
 30
0.0
 11
1.177095
 21
-0.83359
 31
0.0
  0
LINE
  5
6ED
330
1F
100
AcDbEntity
  8
0
100
AcDbLine
 10
1.199765
 20
-0.831405
 30
0.0
 11
1.19564
 21
-0.83428
 31
0.0
  0
LINE
  5
6EE
330
1F
100
AcDbEntity
  8
0
100
AcDbLine
 10
1.19564
 20
-0.83428
 30
0.0
 11
1.190162
 21
-0.831815
 31
0.0
  0
LINE
  5
6EF
330
1F
100
AcDbEntity
  8
0
100
AcDbLine
 10
1.282906
 20
-0.825205
 30
0.0
 11
1.28033
 21
-0.828129
 31
0.0
  0
LINE
  5
6F0
330
1F
100
AcDbEntity
  8
0
100
AcDbLine
 10
1.299221
 20
-0.82731
 30
0.0
 11
1.296687
 21
-0.825713
 31
0.0
  0
LINE
  5
6F1
330
1F
100
AcDbEntity
  8
0
100
AcDbLine
 10
1.31015
 20
-0.826229
 30
0.0
 11
1.30181
 21
-0.825907
 31
0.0
  0
LINE
  5
6F2
330
1F
100
AcDbEntity
  8
0
100
AcDbLine
 10
1.30181
 20
-0.825907
 30
0.0
 11
1.299221
 21
-0.82731
 31
0.0
  0
LINE
  5
6F3
330
1F
100
AcDbEntity
  8
0
100
AcDbLine
 10
1.182632
 20
-0.799459
 30
0.0
 11
1.179879
 21
-0.801011
 31
0.0
  0
LINE
  5
6F4
330
1F
100
AcDbEntity
  8
0
100
AcDbLine
 10
1.272395
 20
-0.795773
 30
0.0
 11
1.268142
 21
-0.791991
 31
0.0
  0
LINE
  5
6F5
330
1F
100
AcDbEntity
  8
0
100
AcDbLine
 10
1.268142
 20
-0.791991
 30
0.0
 11
1.262389
 21
-0.796182
 31
0.0
  0
LINE
  5
6F6
330
1F
100
AcDbEntity
  8
0
100
AcDbLine
 10
1.291745
 20
-0.794954
 30
0.0
 11
1.286263
 21
-0.792639
 31
0.0
  0
LINE
  5
6F7
330
1F
100
AcDbEntity
  8
0
100
AcDbLine
 10
1.286263
 20
-0.792639
 30
0.0
 11
1.2822
 21
-0.795363
 31
0.0
  0
LINE
  5
6F8
330
1F
100
AcDbEntity
  8
0
100
AcDbLine
 10
1.297091
 20
-0.793041
 30
0.0
 11
1.291745
 21
-0.794954
 31
0.0
  0
LINE
  5
6F9
330
1F
100
AcDbEntity
  8
0
100
AcDbLine
 10
1.305486
 20
-0.793361
 30
0.0
 11
1.300223
 21
-0.793157
 31
0.0
  0
LINE
  5
6FA
330
1F
100
AcDbEntity
  8
0
100
AcDbLine
 10
1.333554
 20
-0.792906
 30
0.0
 11
1.328481
 21
-0.794294
 31
0.0
  0
LINE
  5
6FB
330
1F
100
AcDbEntity
  8
0
100
AcDbLine
 10
1.184409
 20
-0.766693
 30
0.0
 11
1.178371
 21
-0.768265
 31
0.0
  0
LINE
  5
6FC
330
1F
100
AcDbEntity
  8
0
100
AcDbLine
 10
1.274301
 20
-0.763007
 30
0.0
 11
1.270958
 21
-0.759404
 31
0.0
  0
LINE
  5
6FD
330
1F
100
AcDbEntity
  8
0
100
AcDbLine
 10
1.286119
 20
-0.759949
 30
0.0
 11
1.284061
 21
-0.762598
 31
0.0
  0
LINE
  5
6FE
330
1F
100
AcDbEntity
  8
0
100
AcDbLine
 10
1.182906
 20
-0.73575
 30
0.0
 11
1.177054
 21
-0.734337
 31
0.0
  0
LINE
  5
6FF
330
1F
100
AcDbEntity
  8
0
100
AcDbLine
 10
1.205432
 20
-0.733109
 30
0.0
 11
1.201541
 21
-0.736433
 31
0.0
  0
LINE
  5
700
330
1F
100
AcDbEntity
  8
0
100
AcDbLine
 10
1.201541
 20
-0.736433
 30
0.0
 11
1.195678
 21
-0.733518
 31
0.0
  0
LINE
  5
701
330
1F
100
AcDbEntity
  8
0
100
AcDbLine
 10
1.285912
 20
-0.729832
 30
0.0
 11
1.282014
 21
-0.727113
 31
0.0
  0
LINE
  5
702
330
1F
100
AcDbEntity
  8
0
100
AcDbLine
 10
1.282014
 20
-0.727113
 30
0.0
 11
1.2762
 21
-0.730242
 31
0.0
  0
LINE
  5
703
330
1F
100
AcDbEntity
  8
0
100
AcDbLine
 10
1.304426
 20
-0.729013
 30
0.0
 11
1.298001
 21
-0.727702
 31
0.0
  0
LINE
  5
704
330
1F
100
AcDbEntity
  8
0
100
AcDbLine
 10
1.298001
 20
-0.727702
 30
0.0
 11
1.29534
 21
-0.729422
 31
0.0
  0
LINE
  5
705
330
1F
100
AcDbEntity
  8
0
100
AcDbLine
 10
1.307093
 20
-0.72805
 30
0.0
 11
1.304426
 21
-0.729013
 31
0.0
  0
LINE
  5
706
330
1F
100
AcDbEntity
  8
0
100
AcDbLine
 10
1.178787
 20
-0.701572
 30
0.0
 11
1.173275
 21
-0.702699
 31
0.0
  0
LINE
  5
707
330
1F
100
AcDbEntity
  8
0
100
AcDbLine
 10
1.188
 20
-0.701162
 30
0.0
 11
1.183328
 21
-0.703079
 31
0.0
  0
LINE
  5
708
330
1F
100
AcDbEntity
  8
0
100
AcDbLine
 10
1.197537
 20
-0.700753
 30
0.0
 11
1.194616
 21
-0.703496
 31
0.0
  0
LINE
  5
709
330
1F
100
AcDbEntity
  8
0
100
AcDbLine
 10
1.194616
 20
-0.703496
 30
0.0
 11
1.188
 21
-0.701162
 31
0.0
  0
LINE
  5
70A
330
1F
100
AcDbEntity
  8
0
100
AcDbLine
 10
1.217339
 20
-0.699933
 30
0.0
 11
1.213179
 21
-0.704161
 31
0.0
  0
LINE
  5
70B
330
1F
100
AcDbEntity
  8
0
100
AcDbLine
 10
1.213179
 20
-0.704161
 30
0.0
 11
1.207337
 21
-0.700343
 31
0.0
  0
LINE
  5
70C
330
1F
100
AcDbEntity
  8
0
100
AcDbLine
 10
1.293447
 20
-0.694844
 30
0.0
 11
1.287752
 21
-0.697066
 31
0.0
  0
LINE
  5
70D
330
1F
100
AcDbEntity
  8
0
100
AcDbLine
 10
1.171622
 20
-0.669216
 30
0.0
 11
1.166834
 21
-0.669759
 31
0.0
  0
LINE
  5
70E
330
1F
100
AcDbEntity
  8
0
100
AcDbLine
 10
1.166834
 20
-0.669759
 30
0.0
 11
1.163132
 21
-0.669625
 31
0.0
  0
LINE
  5
70F
330
1F
100
AcDbEntity
  8
0
100
AcDbLine
 10
1.184058
 20
-0.67042
 30
0.0
 11
1.180534
 21
-0.668806
 31
0.0
  0
LINE
  5
710
330
1F
100
AcDbEntity
  8
0
100
AcDbLine
 10
1.199406
 20
-0.667987
 30
0.0
 11
1.194435
 21
-0.670804
 31
0.0
  0
LINE
  5
711
330
1F
100
AcDbEntity
  8
0
100
AcDbLine
 10
1.194435
 20
-0.670804
 30
0.0
 11
1.189814
 21
-0.668397
 31
0.0
  0
LINE
  5
712
330
1F
100
AcDbEntity
  8
0
100
AcDbLine
 10
1.298884
 20
-0.663891
 30
0.0
 11
1.293635
 21
-0.662166
 31
0.0
  0
LINE
  5
713
330
1F
100
AcDbEntity
  8
0
100
AcDbLine
 10
1.30312
 20
-0.662523
 30
0.0
 11
1.298884
 21
-0.663891
 31
0.0
  0
LINE
  5
714
330
1F
100
AcDbEntity
  8
0
100
AcDbLine
 10
1.179138
 20
-0.637547
 30
0.0
 11
1.173308
 21
-0.63645
 31
0.0
  0
LINE
  5
715
330
1F
100
AcDbEntity
  8
0
100
AcDbLine
 10
1.21117
 20
-0.634812
 30
0.0
 11
1.204637
 21
-0.638484
 31
0.0
  0
LINE
  5
716
330
1F
100
AcDbEntity
  8
0
100
AcDbLine
 10
1.204637
 20
-0.638484
 30
0.0
 11
1.201285
 21
-0.635221
 31
0.0
  0
LINE
  5
717
330
1F
100
AcDbEntity
  8
0
100
AcDbLine
 10
1.281844
 20
-0.631945
 30
0.0
 11
1.274751
 21
-0.628792
 31
0.0
  0
LINE
  5
718
330
1F
100
AcDbEntity
  8
0
100
AcDbLine
 10
1.274751
 20
-0.628792
 30
0.0
 11
1.272031
 21
-0.632354
 31
0.0
  0
LINE
  5
719
330
1F
100
AcDbEntity
  8
0
100
AcDbLine
 10
1.306836
 20
-0.629977
 30
0.0
 11
1.299726
 21
-0.629708
 31
0.0
  0
LINE
  5
71A
330
1F
100
AcDbEntity
  8
0
100
AcDbLine
 10
1.34013
 20
-0.629078
 30
0.0
 11
1.336909
 21
-0.631234
 31
0.0
  0
LINE
  5
71B
330
1F
100
AcDbEntity
  8
0
100
AcDbLine
 10
1.158146
 20
-0.604504
 30
0.0
 11
1.154426
 21
-0.603878
 31
0.0
  0
LINE
  5
71C
330
1F
100
AcDbEntity
  8
0
100
AcDbLine
 10
1.18407
 20
-0.603275
 30
0.0
 11
1.179725
 21
-0.604885
 31
0.0
  0
LINE
  5
71D
330
1F
100
AcDbEntity
  8
0
100
AcDbLine
 10
1.179725
 20
-0.604885
 30
0.0
 11
1.175009
 21
-0.603685
 31
0.0
  0
LINE
  5
71E
330
1F
100
AcDbEntity
  8
0
100
AcDbLine
 10
1.193476
 20
-0.602865
 30
0.0
 11
1.190111
 21
-0.605271
 31
0.0
  0
LINE
  5
71F
330
1F
100
AcDbEntity
  8
0
100
AcDbLine
 10
1.203172
 20
-0.602456
 30
0.0
 11
1.20009
 21
-0.605634
 31
0.0
  0
LINE
  5
720
330
1F
100
AcDbEntity
  8
0
100
AcDbLine
 10
1.20009
 20
-0.605634
 30
0.0
 11
1.193476
 21
-0.602865
 31
0.0
  0
LINE
  5
721
330
1F
100
AcDbEntity
  8
0
100
AcDbLine
 10
1.283707
 20
-0.599179
 30
0.0
 11
1.276696
 21
-0.596175
 31
0.0
  0
LINE
  5
722
330
1F
100
AcDbEntity
  8
0
100
AcDbLine
 10
1.276696
 20
-0.596175
 30
0.0
 11
1.273939
 21
-0.599589
 31
0.0
  0
LINE
  5
723
330
1F
100
AcDbEntity
  8
0
100
AcDbLine
 10
1.286609
 20
-0.596532
 30
0.0
 11
1.283707
 21
-0.599179
 31
0.0
  0
LINE
  5
724
330
1F
100
AcDbEntity
  8
0
100
AcDbLine
 10
1.275839
 20
-0.566823
 30
0.0
 11
1.271182
 21
-0.563292
 31
0.0
  0
LINE
  5
725
330
1F
100
AcDbEntity
  8
0
100
AcDbLine
 10
1.271182
 20
-0.563292
 30
0.0
 11
1.265895
 21
-0.567233
 31
0.0
  0
LINE
  5
726
330
1F
100
AcDbEntity
  8
0
100
AcDbLine
 10
1.294998
 20
-0.566004
 30
0.0
 11
1.289475
 21
-0.563952
 31
0.0
  0
LINE
  5
727
330
1F
100
AcDbEntity
  8
0
100
AcDbLine
 10
1.289475
 20
-0.563952
 30
0.0
 11
1.285559
 21
-0.566414
 31
0.0
  0
LINE
  5
728
330
1F
100
AcDbEntity
  8
0
100
AcDbLine
 10
1.299771
 20
-0.564336
 30
0.0
 11
1.294998
 21
-0.566004
 31
0.0
  0
LINE
  5
729
330
1F
100
AcDbEntity
  8
0
100
AcDbLine
 10
1.169634
 20
-0.538563
 30
0.0
 11
1.166824
 21
-0.539012
 31
0.0
  0
LINE
  5
72A
330
1F
100
AcDbEntity
  8
0
100
AcDbLine
 10
1.289519
 20
-0.531267
 30
0.0
 11
1.287402
 21
-0.533648
 31
0.0
  0
LINE
  5
72B
330
1F
100
AcDbEntity
  8
0
100
AcDbLine
 10
1.1802
 20
-0.505388
 30
0.0
 11
1.176358
 21
-0.506695
 31
0.0
  0
LINE
  5
72C
330
1F
100
AcDbEntity
  8
0
100
AcDbLine
 10
1.199048
 20
-0.504569
 30
0.0
 11
1.194009
 21
-0.507354
 31
0.0
  0
LINE
  5
72D
330
1F
100
AcDbEntity
  8
0
100
AcDbLine
 10
1.194009
 20
-0.507354
 30
0.0
 11
1.189468
 21
-0.504978
 31
0.0
  0
LINE
  5
72E
330
1F
100
AcDbEntity
  8
0
100
AcDbLine
 10
1.208884
 20
-0.504159
 30
0.0
 11
1.204429
 21
-0.50773
 31
0.0
  0
LINE
  5
72F
330
1F
100
AcDbEntity
  8
0
100
AcDbLine
 10
1.204429
 20
-0.50773
 30
0.0
 11
1.199048
 21
-0.504569
 31
0.0
  0
LINE
  5
730
330
1F
100
AcDbEntity
  8
0
100
AcDbLine
 10
1.281818
 20
-0.498299
 30
0.0
 11
1.279614
 21
-0.501292
 31
0.0
  0
LINE
  5
731
330
1F
100
AcDbEntity
  8
0
100
AcDbLine
 10
1.298547
 20
-0.500473
 30
0.0
 11
1.29584
 21
-0.498814
 31
0.0
  0
LINE
  5
732
330
1F
100
AcDbEntity
  8
0
100
AcDbLine
 10
1.309551
 20
-0.499339
 30
0.0
 11
1.30095
 21
-0.499008
 31
0.0
  0
LINE
  5
733
330
1F
100
AcDbEntity
  8
0
100
AcDbLine
 10
1.30095
 20
-0.499008
 30
0.0
 11
1.298547
 21
-0.500473
 31
0.0
  0
LINE
  5
734
330
1F
100
AcDbEntity
  8
0
100
AcDbLine
 10
1.181958
 20
-0.472622
 30
0.0
 11
1.177042
 21
-0.474035
 31
0.0
  0
LINE
  5
735
330
1F
100
AcDbEntity
  8
0
100
AcDbLine
 10
1.191291
 20
-0.472213
 30
0.0
 11
1.186182
 21
-0.474379
 31
0.0
  0
LINE
  5
736
330
1F
100
AcDbEntity
  8
0
100
AcDbLine
 10
1.291053
 20
-0.468117
 30
0.0
 11
1.286599
 21
-0.465785
 31
0.0
  0
LINE
  5
737
330
1F
100
AcDbEntity
  8
0
100
AcDbLine
 10
1.286599
 20
-0.465785
 30
0.0
 11
1.281488
 21
-0.468527
 31
0.0
  0
LINE
  5
738
330
1F
100
AcDbEntity
  8
0
100
AcDbLine
 10
1.296205
 20
-0.466142
 30
0.0
 11
1.291053
 21
-0.468117
 31
0.0
  0
LINE
  5
739
330
1F
100
AcDbEntity
  8
0
100
AcDbLine
 10
1.166039
 20
-0.440676
 30
0.0
 11
1.16058
 21
-0.440701
 31
0.0
  0
LINE
  5
73A
330
1F
100
AcDbEntity
  8
0
100
AcDbLine
 10
1.193126
 20
-0.439447
 30
0.0
 11
1.188239
 21
-0.44177
 31
0.0
  0
LINE
  5
73B
330
1F
100
AcDbEntity
  8
0
100
AcDbLine
 10
1.188239
 20
-0.44177
 30
0.0
 11
1.18373
 21
-0.439857
 31
0.0
  0
LINE
  5
73C
330
1F
100
AcDbEntity
  8
0
100
AcDbLine
 10
1.202811
 20
-0.439038
 30
0.0
 11
1.197681
 21
-0.442114
 31
0.0
  0
LINE
  5
73D
330
1F
100
AcDbEntity
  8
0
100
AcDbLine
 10
1.197681
 20
-0.442114
 30
0.0
 11
1.193126
 21
-0.439447
 31
0.0
  0
LINE
  5
73E
330
1F
100
AcDbEntity
  8
0
100
AcDbLine
 10
1.273575
 20
-0.436171
 30
0.0
 11
1.269074
 21
-0.432471
 31
0.0
  0
LINE
  5
73F
330
1F
100
AcDbEntity
  8
0
100
AcDbLine
 10
1.269074
 20
-0.432471
 30
0.0
 11
1.263588
 21
-0.43658
 31
0.0
  0
LINE
  5
740
330
1F
100
AcDbEntity
  8
0
100
AcDbLine
 10
1.302042
 20
-0.434942
 30
0.0
 11
1.2966
 21
-0.43347
 31
0.0
  0
LINE
  5
741
330
1F
100
AcDbEntity
  8
0
100
AcDbLine
 10
1.306883
 20
-0.433859
 30
0.0
 11
1.302042
 21
-0.434942
 31
0.0
  0
LINE
  5
742
330
1F
100
AcDbEntity
  8
0
100
AcDbLine
 10
1.099151
 20
-0.417893
 30
0.0
 11
1.102236
 21
-0.4125
 31
0.0
  0
LINE
  5
743
330
1F
100
AcDbEntity
  8
0
100
AcDbLine
 10
1.379997
 20
-0.849864
 30
0.0
 11
1.383033
 21
-0.845607
 31
0.0
  0
LINE
  5
744
330
1F
100
AcDbEntity
  8
0
100
AcDbLine
 10
1.099315
 20
-0.833212
 30
0.0
 11
1.094818
 21
-0.82635
 31
0.0
  0
LINE
  5
745
330
1F
100
AcDbEntity
  8
0
100
AcDbLine
 10
1.379748
 20
-0.817254
 30
0.0
 11
1.380662
 21
-0.813174
 31
0.0
  0
LINE
  5
746
330
1F
100
AcDbEntity
  8
0
100
AcDbLine
 10
1.367009
 20
-0.790039
 30
0.0
 11
1.369429
 21
-0.7884
 31
0.0
  0
LINE
  5
747
330
1F
100
AcDbEntity
  8
0
100
AcDbLine
 10
1.379477
 20
-0.784644
 30
0.0
 11
1.383035
 21
-0.780233
 31
0.0
  0
LINE
  5
748
330
1F
100
AcDbEntity
  8
0
100
AcDbLine
 10
1.380851
 20
-0.751341
 30
0.0
 11
1.385059
 21
-0.747294
 31
0.0
  0
LINE
  5
749
330
1F
100
AcDbEntity
  8
0
100
AcDbLine
 10
1.38078
 20
-0.718731
 30
0.0
 11
1.383026
 21
-0.714861
 31
0.0
  0
LINE
  5
74A
330
1F
100
AcDbEntity
  8
0
100
AcDbLine
 10
1.383026
 20
-0.714861
 30
0.0
 11
1.389428
 21
-0.713734
 31
0.0
  0
LINE
  5
74B
330
1F
100
AcDbEntity
  8
0
100
AcDbLine
 10
1.380567
 20
-0.653512
 30
0.0
 11
1.383017
 21
-0.649489
 31
0.0
  0
LINE
  5
74C
330
1F
100
AcDbEntity
  8
0
100
AcDbLine
 10
1.10053
 20
-0.637554
 30
0.0
 11
1.094813
 21
-0.63023
 31
0.0
  0
LINE
  5
74D
330
1F
100
AcDbEntity
  8
0
100
AcDbLine
 10
1.380403
 20
-0.620903
 30
0.0
 11
1.385053
 21
-0.616548
 31
0.0
  0
LINE
  5
74E
330
1F
100
AcDbEntity
  8
0
100
AcDbLine
 10
1.385053
 20
-0.616548
 30
0.0
 11
1.389021
 21
-0.615906
 31
0.0
  0
LINE
  5
74F
330
1F
100
AcDbEntity
  8
0
100
AcDbLine
 10
1.380216
 20
-0.588293
 30
0.0
 11
1.383019
 21
-0.584115
 31
0.0
  0
LINE
  5
750
330
1F
100
AcDbEntity
  8
0
100
AcDbLine
 10
1.383019
 20
-0.584115
 30
0.0
 11
1.38882
 21
-0.583296
 31
0.0
  0
LINE
  5
751
330
1F
100
AcDbEntity
  8
0
100
AcDbLine
 10
1.09922
 20
-0.571641
 30
0.0
 11
1.094806
 21
-0.564858
 31
0.0
  0
LINE
  5
752
330
1F
100
AcDbEntity
  8
0
100
AcDbLine
 10
1.380006
 20
-0.555683
 30
0.0
 11
1.380645
 21
-0.551682
 31
0.0
  0
LINE
  5
753
330
1F
100
AcDbEntity
  8
0
100
AcDbLine
 10
1.37975
 20
-0.523074
 30
0.0
 11
1.383021
 21
-0.518742
 31
0.0
  0
LINE
  5
754
330
1F
100
AcDbEntity
  8
0
100
AcDbLine
 10
1.380876
 20
-0.48977
 30
0.0
 11
1.385047
 21
-0.485802
 31
0.0
  0
LINE
  5
755
330
1F
100
AcDbEntity
  8
0
100
AcDbLine
 10
1.380844
 20
-0.457161
 30
0.0
 11
1.383012
 21
-0.453369
 31
0.0
  0
LINE
  5
756
330
1F
100
AcDbEntity
  8
0
100
AcDbLine
 10
1.383012
 20
-0.453369
 30
0.0
 11
1.389498
 21
-0.452164
 31
0.0
  0
LINE
  5
757
330
1F
100
AcDbEntity
  8
0
100
AcDbLine
 10
1.380788
 20
-0.424551
 30
0.0
 11
1.385039
 21
-0.42043
 31
0.0
  0
LINE
  5
758
330
1F
100
AcDbEntity
  8
0
100
AcDbLine
 10
1.181198
 20
-0.854283
 30
0.0
 11
1.16959
 21
-0.854729
 31
0.0
  0
LINE
  5
759
330
1F
100
AcDbEntity
  8
0
100
AcDbLine
 10
1.181195
 20
-0.821598
 30
0.0
 11
1.176101
 21
-0.821789
 31
0.0
  0
LINE
  5
75A
330
1F
100
AcDbEntity
  8
0
100
AcDbLine
 10
1.328565
 20
-0.816214
 30
0.0
 11
1.319391
 21
-0.816845
 31
0.0
  0
LINE
  5
75B
330
1F
100
AcDbEntity
  8
0
100
AcDbLine
 10
1.181198
 20
-0.78891
 30
0.0
 11
1.169564
 21
-0.789356
 31
0.0
  0
LINE
  5
75C
330
1F
100
AcDbEntity
  8
0
100
AcDbLine
 10
1.322561
 20
-0.783781
 30
0.0
 11
1.31664
 21
-0.78402
 31
0.0
  0
LINE
  5
75D
330
1F
100
AcDbEntity
  8
0
100
AcDbLine
 10
1.31664
 20
-0.78402
 30
0.0
 11
1.310005
 21
-0.784287
 31
0.0
  0
LINE
  5
75E
330
1F
100
AcDbEntity
  8
0
100
AcDbLine
 10
1.189624
 20
-0.755908
 30
0.0
 11
1.18483
 21
-0.75636
 31
0.0
  0
LINE
  5
75F
330
1F
100
AcDbEntity
  8
0
100
AcDbLine
 10
1.328542
 20
-0.750842
 30
0.0
 11
1.319408
 21
-0.751471
 31
0.0
  0
LINE
  5
760
330
1F
100
AcDbEntity
  8
0
100
AcDbLine
 10
1.181198
 20
-0.723537
 30
0.0
 11
1.169569
 21
-0.723983
 31
0.0
  0
LINE
  5
761
330
1F
100
AcDbEntity
  8
0
100
AcDbLine
 10
1.322537
 20
-0.718409
 30
0.0
 11
1.316641
 21
-0.718647
 31
0.0
  0
LINE
  5
762
330
1F
100
AcDbEntity
  8
0
100
AcDbLine
 10
1.316641
 20
-0.718647
 30
0.0
 11
1.309979
 21
-0.718915
 31
0.0
  0
LINE
  5
763
330
1F
100
AcDbEntity
  8
0
100
AcDbLine
 10
1.189597
 20
-0.690536
 30
0.0
 11
1.184814
 21
-0.690986
 31
0.0
  0
LINE
  5
764
330
1F
100
AcDbEntity
  8
0
100
AcDbLine
 10
1.142841
 20
-0.668745
 30
0.0
 11
1.147634
 21
-0.670444
 31
0.0
  0
LINE
  5
765
330
1F
100
AcDbEntity
  8
0
100
AcDbLine
 10
1.181198
 20
-0.658163
 30
0.0
 11
1.169574
 21
-0.658609
 31
0.0
  0
LINE
  5
766
330
1F
100
AcDbEntity
  8
0
100
AcDbLine
 10
1.31666
 20
-0.653272
 30
0.0
 11
1.309954
 21
-0.653543
 31
0.0
  0
LINE
  5
767
330
1F
100
AcDbEntity
  8
0
100
AcDbLine
 10
1.181195
 20
-0.625478
 30
0.0
 11
1.176084
 21
-0.62567
 31
0.0
  0
LINE
  5
768
330
1F
100
AcDbEntity
  8
0
100
AcDbLine
 10
1.328551
 20
-0.620095
 30
0.0
 11
1.319452
 21
-0.620728
 31
0.0
  0
LINE
  5
769
330
1F
100
AcDbEntity
  8
0
100
AcDbLine
 10
1.181198
 20
-0.59279
 30
0.0
 11
1.169548
 21
-0.593237
 31
0.0
  0
LINE
  5
76A
330
1F
100
AcDbEntity
  8
0
100
AcDbLine
 10
1.322546
 20
-0.587662
 30
0.0
 11
1.316636
 21
-0.5879
 31
0.0
  0
LINE
  5
76B
330
1F
100
AcDbEntity
  8
0
100
AcDbLine
 10
1.316636
 20
-0.5879
 30
0.0
 11
1.309958
 21
-0.588169
 31
0.0
  0
LINE
  5
76C
330
1F
100
AcDbEntity
  8
0
100
AcDbLine
 10
1.144644
 20
-0.572557
 30
0.0
 11
1.14829
 21
-0.570927
 31
0.0
  0
LINE
  5
76D
330
1F
100
AcDbEntity
  8
0
100
AcDbLine
 10
1.181195
 20
-0.560105
 30
0.0
 11
1.176058
 21
-0.560298
 31
0.0
  0
LINE
  5
76E
330
1F
100
AcDbEntity
  8
0
100
AcDbLine
 10
1.328527
 20
-0.554723
 30
0.0
 11
1.319435
 21
-0.555351
 31
0.0
  0
LINE
  5
76F
330
1F
100
AcDbEntity
  8
0
100
AcDbLine
 10
1.134941
 20
-0.537622
 30
0.0
 11
1.139217
 21
-0.540201
 31
0.0
  0
LINE
  5
770
330
1F
100
AcDbEntity
  8
0
100
AcDbLine
 10
1.139217
 20
-0.540201
 30
0.0
 11
1.142574
 21
-0.537985
 31
0.0
  0
LINE
  5
771
330
1F
100
AcDbEntity
  8
0
100
AcDbLine
 10
1.181198
 20
-0.527417
 30
0.0
 11
1.169523
 21
-0.527865
 31
0.0
  0
LINE
  5
772
330
1F
100
AcDbEntity
  8
0
100
AcDbLine
 10
1.181195
 20
-0.494732
 30
0.0
 11
1.176063
 21
-0.494924
 31
0.0
  0
LINE
  5
773
330
1F
100
AcDbEntity
  8
0
100
AcDbLine
 10
1.328504
 20
-0.48935
 30
0.0
 11
1.31939
 21
-0.489978
 31
0.0
  0
LINE
  5
774
330
1F
100
AcDbEntity
  8
0
100
AcDbLine
 10
1.143654
 20
-0.47266
 30
0.0
 11
1.148765
 21
-0.474261
 31
0.0
  0
LINE
  5
775
330
1F
100
AcDbEntity
  8
0
100
AcDbLine
 10
1.181198
 20
-0.462044
 30
0.0
 11
1.169527
 21
-0.462491
 31
0.0
  0
LINE
  5
776
330
1F
100
AcDbEntity
  8
0
100
AcDbLine
 10
1.322498
 20
-0.456917
 30
0.0
 11
1.316646
 21
-0.457153
 31
0.0
  0
LINE
  5
777
330
1F
100
AcDbEntity
  8
0
100
AcDbLine
 10
1.316646
 20
-0.457153
 30
0.0
 11
1.309937
 21
-0.457423
 31
0.0
  0
LINE
  5
778
330
1F
100
AcDbEntity
  8
0
100
AcDbLine
 10
1.189552
 20
-0.429045
 30
0.0
 11
1.184825
 21
-0.429493
 31
0.0
  0
LINE
  5
779
330
1F
100
AcDbEntity
  8
0
100
AcDbLine
 10
1.328508
 20
-0.423977
 30
0.0
 11
1.319415
 21
-0.424605
 31
0.0
  0
LINE
  5
77A
330
1F
100
AcDbEntity
  8
0
100
AcDbLine
 10
1.287697
 20
-0.4125
 30
0.0
 11
1.293875
 21
-0.412828
 31
0.0
  0
LINE
  5
77B
330
1F
100
AcDbEntity
  8
0
100
AcDbLine
 10
1.38832
 20
-0.518077
 30
0.0
 11
1.38931
 21
-0.514408
 31
0.0
  0
LINE
  5
77C
330
1F
100
AcDbEntity
  8
0
100
AcDbLine
 10
1.093162
 20
-0.8775
 30
0.0
 11
1.099883
 21
-0.879239
 31
0.0
  0
LINE
  5
77D
330
1F
100
AcDbEntity
  8
0
100
AcDbLine
 10
1.293875
 20
-0.412828
 30
0.0
 11
1.300313
 21
-0.4125
 31
0.0
  0
LINE
  5
77E
330
1F
100
AcDbEntity
  8
0
100
AcDbLine
 10
1.24
 20
-0.4125
 30
0.0
 11
1.254668
 21
-0.414602
 31
0.0
  0
LINE
  5
77F
330
1F
100
AcDbEntity
  8
0
100
AcDbLine
 10
-1.426876
 20
-0.916838
 30
0.0
 11
-1.426876
 21
-0.920838
 31
0.0
  0
LINE
  5
780
330
1F
100
AcDbEntity
  8
0
100
AcDbLine
 10
-1.376451
 20
-0.919888
 30
0.0
 11
-1.333861
 21
-0.930113
 31
0.0
  0
LINE
  5
781
330
1F
100
AcDbEntity
  8
0
100
AcDbLine
 10
-1.316538
 20
-0.931476
 30
0.0
 11
-1.312538
 21
-0.931791
 31
0.0
  0
LINE
  5
782
330
1F
100
AcDbEntity
  8
0
100
AcDbLine
 10
-1.069295
 20
-0.911664
 30
0.0
 11
-1.065295
 21
-0.910704
 31
0.0
  0
LINE
  5
783
330
1F
100
AcDbEntity
  8
0
100
AcDbLine
 10
-1.065295
 20
-0.910704
 30
0.0
 11
-1.05459
 21
-0.908134
 31
0.0
  0
LINE
  5
784
330
1F
100
AcDbEntity
  8
0
100
AcDbLine
 10
1.202493
 20
-0.877277
 30
0.0
 11
1.196924
 21
-0.87424
 31
0.0
  0
LINE
  5
785
330
1F
100
AcDbEntity
  8
0
100
AcDbLine
 10
1.298804
 20
-0.83794
 30
0.0
 11
1.303794
 21
-0.837753
 31
0.0
  0
LINE
  5
786
330
1F
100
AcDbEntity
  8
0
100
AcDbLine
 10
1.298804
 20
-0.772567
 30
0.0
 11
1.303799
 21
-0.772379
 31
0.0
  0
LINE
  5
787
330
1F
100
AcDbEntity
  8
0
100
AcDbLine
 10
1.163368
 20
-0.744771
 30
0.0
 11
1.169902
 21
-0.744508
 31
0.0
  0
LINE
  5
788
330
1F
100
AcDbEntity
  8
0
100
AcDbLine
 10
1.298804
 20
-0.707194
 30
0.0
 11
1.303804
 21
-0.707006
 31
0.0
  0
LINE
  5
789
330
1F
100
AcDbEntity
  8
0
100
AcDbLine
 10
1.163351
 20
-0.679399
 30
0.0
 11
1.169907
 21
-0.679134
 31
0.0
  0
LINE
  5
78A
330
1F
100
AcDbEntity
  8
0
100
AcDbLine
 10
1.298804
 20
-0.64182
 30
0.0
 11
1.303777
 21
-0.641634
 31
0.0
  0
LINE
  5
78B
330
1F
100
AcDbEntity
  8
0
100
AcDbLine
 10
1.298804
 20
-0.576447
 30
0.0
 11
1.303751
 21
-0.576261
 31
0.0
  0
LINE
  5
78C
330
1F
100
AcDbEntity
  8
0
100
AcDbLine
 10
1.163365
 20
-0.548652
 30
0.0
 11
1.169886
 21
-0.548389
 31
0.0
  0
LINE
  5
78D
330
1F
100
AcDbEntity
  8
0
100
AcDbLine
 10
1.298804
 20
-0.511074
 30
0.0
 11
1.303756
 21
-0.510888
 31
0.0
  0
LINE
  5
78E
330
1F
100
AcDbEntity
  8
0
100
AcDbLine
 10
1.298804
 20
-0.4457
 30
0.0
 11
1.303761
 21
-0.445514
 31
0.0
  0
LINE
  5
78F
330
1F
100
AcDbEntity
  8
0
100
AcDbLine
 10
1.163366
 20
-0.417905
 30
0.0
 11
1.169865
 21
-0.417643
 31
0.0
  0
LINE
  5
790
330
1F
100
AcDbEntity
  8
0
100
AcDbLine
 10
1.267115
 20
-0.759268
 30
0.0
 11
1.264329
 21
-0.763417
 31
0.0
  0
LINE
  5
791
330
1F
100
AcDbEntity
  8
0
100
AcDbLine
 10
1.189619
 20
-0.821282
 30
0.0
 11
1.184823
 21
-0.821733
 31
0.0
  0
LINE
  5
792
330
1F
100
AcDbEntity
  8
0
100
AcDbLine
 10
1.181195
 20
-0.756225
 30
0.0
 11
1.176106
 21
-0.756416
 31
0.0
  0
LINE
  5
793
330
1F
100
AcDbEntity
  8
0
100
AcDbLine
 10
1.181195
 20
-0.690852
 30
0.0
 11
1.176111
 21
-0.691042
 31
0.0
  0
LINE
  5
794
330
1F
100
AcDbEntity
  8
0
100
AcDbLine
 10
1.18957
 20
-0.625164
 30
0.0
 11
1.184771
 21
-0.625611
 31
0.0
  0
LINE
  5
795
330
1F
100
AcDbEntity
  8
0
100
AcDbLine
 10
1.189575
 20
-0.55979
 30
0.0
 11
1.184811
 21
-0.560239
 31
0.0
  0
LINE
  5
796
330
1F
100
AcDbEntity
  8
0
100
AcDbLine
 10
1.18958
 20
-0.494417
 30
0.0
 11
1.18483
 21
-0.494867
 31
0.0
  0
LINE
  5
797
330
1F
100
AcDbEntity
  8
0
100
AcDbLine
 10
1.181195
 20
-0.429358
 30
0.0
 11
1.176068
 21
-0.429551
 31
0.0
  0
LINE
  5
798
330
1F
100
AcDbEntity
  8
0
100
AcDbLine
 10
-1.3838
 20
-0.920874
 30
0.0
 11
-1.376451
 21
-0.919888
 31
0.0
  0
LINE
  5
799
330
1F
100
AcDbEntity
  8
0
100
AcDbLine
 10
-1.312538
 20
-0.931791
 30
0.0
 11
-1.242
 21
-0.937343
 31
0.0
  0
LINE
  5
79A
330
1F
100
AcDbEntity
  8
0
100
AcDbLine
 10
-1.242
 20
-0.937343
 30
0.0
 11
-1.238
 21
-0.937343
 31
0.0
  0
LINE
  5
79B
330
1F
100
AcDbEntity
  8
0
100
AcDbLine
 10
1.310276
 20
-0.412575
 30
0.0
 11
1.39
 21
-0.4125
 31
0.0
  0
LINE
  5
79C
330
1F
100
AcDbEntity
  8
0
100
AcDbLine
 10
1.39
 20
-0.4125
 30
0.0
 11
1.47
 21
-0.4125
 31
0.0
  0
LINE
  5
79D
330
1F
100
AcDbEntity
  8
0
100
AcDbLine
 10
1.168906
 20
-0.4125
 30
0.0
 11
1.18311
 21
-0.417135
 31
0.0
  0
LINE
  5
79E
330
1F
100
AcDbEntity
  8
0
100
AcDbLine
 10
1.22549
 20
-0.415616
 30
0.0
 11
1.24
 21
-0.4125
 31
0.0
  0
LINE
  5
79F
330
1F
100
AcDbEntity
  8
0
100
AcDbLine
 10
-1.512394
 20
-0.872104
 30
0.0
 11
-1.426876
 21
-0.907527
 31
0.0
  0
LINE
  5
7A0
330
1F
100
AcDbEntity
  8
0
100
AcDbLine
 10
-1.23
 20
-0.3375
 30
0.0
 11
-1.198547
 21
-0.3375
 31
0.0
  0
LINE
  5
7A1
330
1F
100
AcDbEntity
  8
0
100
AcDbLine
 10
1.425
 20
-0.9125
 30
0.0
 11
1.94
 21
-0.9125
 31
0.0
  0
LINE
  5
7A2
330
1F
100
AcDbEntity
  8
0
100
AcDbLine
 10
0.54
 20
-0.9125
 30
0.0
 11
1.053124
 21
-0.9125
 31
0.0
  0
LINE
  5
7A3
330
1F
100
AcDbEntity
  8
0
100
AcDbLine
 10
1.94
 20
-1.0325
 30
0.0
 11
0.54
 21
-1.0325
 31
0.0
  0
LINE
  5
7A4
330
1F
100
AcDbEntity
  8
0
100
AcDbLine
 10
1.283386
 20
-0.871198
 30
0.0
 11
1.225589
 21
-0.873225
 31
0.0
  0
LINE
  5
7A5
330
1F
100
AcDbEntity
  8
0
100
AcDbLine
 10
1.349838
 20
-0.8775
 30
0.0
 11
1.24
 21
-0.8775
 31
0.0
  0
LINE
  5
7A6
330
1F
100
AcDbEntity
  8
0
100
AcDbLine
 10
1.361559
 20
-0.8775
 30
0.0
 11
1.379072
 21
-0.8775
 31
0.0
  0
LINE
  5
7A7
330
1F
100
AcDbEntity
  8
0
100
AcDbLine
 10
1.203982
 20
-0.8413
 30
0.0
 11
1.176473
 21
-0.842313
 31
0.0
  0
LINE
  5
7A8
330
1F
100
AcDbEntity
  8
0
100
AcDbLine
 10
1.290304
 20
-0.838259
 30
0.0
 11
1.203982
 21
-0.8413
 31
0.0
  0
LINE
  5
7A9
330
1F
100
AcDbEntity
  8
0
100
AcDbLine
 10
1.339074
 20
-0.827453
 30
0.0
 11
1.330394
 21
-0.827061
 31
0.0
  0
LINE
  5
7AA
330
1F
100
AcDbEntity
  8
0
100
AcDbLine
 10
1.282906
 20
-0.825205
 30
0.0
 11
1.296687
 21
-0.825713
 31
0.0
  0
LINE
  5
7AB
330
1F
100
AcDbEntity
  8
0
100
AcDbLine
 10
1.283358
 20
-0.805826
 30
0.0
 11
1.183143
 21
-0.809374
 31
0.0
  0
LINE
  5
7AC
330
1F
100
AcDbEntity
  8
0
100
AcDbLine
 10
1.176447
 20
-0.776941
 30
0.0
 11
1.203987
 21
-0.775926
 31
0.0
  0
LINE
  5
7AD
330
1F
100
AcDbEntity
  8
0
100
AcDbLine
 10
1.290277
 20
-0.772887
 30
0.0
 11
1.203987
 21
-0.775926
 31
0.0
  0
LINE
  5
7AE
330
1F
100
AcDbEntity
  8
0
100
AcDbLine
 10
1.319885
 20
-0.761244
 30
0.0
 11
1.33155
 21
-0.761737
 31
0.0
  0
LINE
  5
7AF
330
1F
100
AcDbEntity
  8
0
100
AcDbLine
 10
1.286119
 20
-0.759949
 30
0.0
 11
1.306845
 21
-0.760724
 31
0.0
  0
LINE
  5
7B0
330
1F
100
AcDbEntity
  8
0
100
AcDbLine
 10
1.306845
 20
-0.760724
 30
0.0
 11
1.319885
 21
-0.761244
 31
0.0
  0
LINE
  5
7B1
330
1F
100
AcDbEntity
  8
0
100
AcDbLine
 10
1.283331
 20
-0.740454
 30
0.0
 11
1.183148
 21
-0.744001
 31
0.0
  0
LINE
  5
7B2
330
1F
100
AcDbEntity
  8
0
100
AcDbLine
 10
1.325675
 20
-0.728797
 30
0.0
 11
1.337231
 21
-0.729304
 31
0.0
  0
LINE
  5
7B3
330
1F
100
AcDbEntity
  8
0
100
AcDbLine
 10
1.176452
 20
-0.711567
 30
0.0
 11
1.203959
 21
-0.710554
 31
0.0
  0
LINE
  5
7B4
330
1F
100
AcDbEntity
  8
0
100
AcDbLine
 10
1.290282
 20
-0.707513
 30
0.0
 11
1.203959
 21
-0.710554
 31
0.0
  0
LINE
  5
7B5
330
1F
100
AcDbEntity
  8
0
100
AcDbLine
 10
1.319598
 20
-0.695858
 30
0.0
 11
1.331573
 21
-0.696364
 31
0.0
  0
LINE
  5
7B6
330
1F
100
AcDbEntity
  8
0
100
AcDbLine
 10
1.319598
 20
-0.695858
 30
0.0
 11
1.30684
 21
-0.695351
 31
0.0
  0
LINE
  5
7B7
330
1F
100
AcDbEntity
  8
0
100
AcDbLine
 10
1.293447
 20
-0.694844
 30
0.0
 11
1.30684
 21
-0.695351
 31
0.0
  0
LINE
  5
7B8
330
1F
100
AcDbEntity
  8
0
100
AcDbLine
 10
1.283336
 20
-0.67508
 30
0.0
 11
1.183153
 21
-0.678627
 31
0.0
  0
LINE
  5
7B9
330
1F
100
AcDbEntity
  8
0
100
AcDbLine
 10
1.176457
 20
-0.646194
 30
0.0
 11
1.203931
 21
-0.645182
 31
0.0
  0
LINE
  5
7BA
330
1F
100
AcDbEntity
  8
0
100
AcDbLine
 10
1.290287
 20
-0.64214
 30
0.0
 11
1.203931
 21
-0.645182
 31
0.0
  0
LINE
  5
7BB
330
1F
100
AcDbEntity
  8
0
100
AcDbLine
 10
1.299726
 20
-0.629708
 30
0.0
 11
1.289386
 21
-0.629322
 31
0.0
  0
LINE
  5
7BC
330
1F
100
AcDbEntity
  8
0
100
AcDbLine
 10
1.283341
 20
-0.609707
 30
0.0
 11
1.183126
 21
-0.613255
 31
0.0
  0
LINE
  5
7BD
330
1F
100
AcDbEntity
  8
0
100
AcDbLine
 10
1.325695
 20
-0.598052
 30
0.0
 11
1.337324
 21
-0.598561
 31
0.0
  0
LINE
  5
7BE
330
1F
100
AcDbEntity
  8
0
100
AcDbLine
 10
1.286609
 20
-0.596532
 30
0.0
 11
1.300239
 21
-0.597038
 31
0.0
  0
LINE
  5
7BF
330
1F
100
AcDbEntity
  8
0
100
AcDbLine
 10
1.300239
 20
-0.597038
 30
0.0
 11
1.3133
 21
-0.597544
 31
0.0
  0
LINE
  5
7C0
330
1F
100
AcDbEntity
  8
0
100
AcDbLine
 10
1.203936
 20
-0.579808
 30
0.0
 11
1.176431
 21
-0.580822
 31
0.0
  0
LINE
  5
7C1
330
1F
100
AcDbEntity
  8
0
100
AcDbLine
 10
1.29026
 20
-0.576767
 30
0.0
 11
1.203936
 21
-0.579808
 31
0.0
  0
LINE
  5
7C2
330
1F
100
AcDbEntity
  8
0
100
AcDbLine
 10
1.283313
 20
-0.544334
 30
0.0
 11
1.1831
 21
-0.547882
 31
0.0
  0
LINE
  5
7C3
330
1F
100
AcDbEntity
  8
0
100
AcDbLine
 10
1.337271
 20
-0.533186
 30
0.0
 11
1.329054
 21
-0.532826
 31
0.0
  0
LINE
  5
7C4
330
1F
100
AcDbEntity
  8
0
100
AcDbLine
 10
1.300266
 20
-0.531666
 30
0.0
 11
1.289519
 21
-0.531267
 31
0.0
  0
LINE
  5
7C5
330
1F
100
AcDbEntity
  8
0
100
AcDbLine
 10
1.176404
 20
-0.515449
 30
0.0
 11
1.203941
 21
-0.514435
 31
0.0
  0
LINE
  5
7C6
330
1F
100
AcDbEntity
  8
0
100
AcDbLine
 10
1.290232
 20
-0.511395
 30
0.0
 11
1.203941
 21
-0.514435
 31
0.0
  0
LINE
  5
7C7
330
1F
100
AcDbEntity
  8
0
100
AcDbLine
 10
1.281818
 20
-0.498299
 30
0.0
 11
1.29584
 21
-0.498814
 31
0.0
  0
LINE
  5
7C8
330
1F
100
AcDbEntity
  8
0
100
AcDbLine
 10
1.183105
 20
-0.482509
 30
0.0
 11
1.163167
 21
-0.483271
 31
0.0
  0
LINE
  5
7C9
330
1F
100
AcDbEntity
  8
0
100
AcDbLine
 10
1.283286
 20
-0.478962
 30
0.0
 11
1.183105
 21
-0.482509
 31
0.0
  0
LINE
  5
7CA
330
1F
100
AcDbEntity
  8
0
100
AcDbLine
 10
1.325714
 20
-0.467306
 30
0.0
 11
1.310558
 21
-0.466691
 31
0.0
  0
LINE
  5
7CB
330
1F
100
AcDbEntity
  8
0
100
AcDbLine
 10
1.310558
 20
-0.466691
 30
0.0
 11
1.300261
 21
-0.466292
 31
0.0
  0
LINE
  5
7CC
330
1F
100
AcDbEntity
  8
0
100
AcDbLine
 10
1.176409
 20
-0.450076
 30
0.0
 11
1.203913
 21
-0.449062
 31
0.0
  0
LINE
  5
7CD
330
1F
100
AcDbEntity
  8
0
100
AcDbLine
 10
1.290237
 20
-0.446022
 30
0.0
 11
1.203913
 21
-0.449062
 31
0.0
  0
LINE
  5
7CE
330
1F
100
AcDbEntity
  8
0
100
AcDbLine
 10
1.319638
 20
-0.434367
 30
0.0
 11
1.328602
 21
-0.434746
 31
0.0
  0
LINE
  5
7CF
330
1F
100
AcDbEntity
  8
0
100
AcDbLine
 10
1.22549
 20
-0.415616
 30
0.0
 11
1.18311
 21
-0.417135
 31
0.0
  0
LINE
  5
7D0
330
1F
100
AcDbEntity
  8
0
100
AcDbLine
 10
1.254668
 20
-0.414602
 30
0.0
 11
1.22549
 21
-0.415616
 31
0.0
  0
LINE
  5
7D1
330
1F
100
AcDbEntity
  8
0
100
AcDbLine
 10
1.254668
 20
-0.414602
 30
0.0
 11
1.283291
 21
-0.413589
 31
0.0
  0
LINE
  5
7D2
330
1F
100
AcDbEntity
  8
0
100
AcDbLine
 10
1.27845
 20
-0.860894
 30
0.0
 11
1.207702
 21
-0.863761
 31
0.0
  0
LINE
  5
7D3
330
1F
100
AcDbEntity
  8
0
100
AcDbLine
 10
1.28033
 20
-0.828129
 30
0.0
 11
1.199765
 21
-0.831405
 31
0.0
  0
LINE
  5
7D4
330
1F
100
AcDbEntity
  8
0
100
AcDbLine
 10
1.182632
 20
-0.799459
 30
0.0
 11
1.201645
 21
-0.79864
 31
0.0
  0
LINE
  5
7D5
330
1F
100
AcDbEntity
  8
0
100
AcDbLine
 10
1.262389
 20
-0.796182
 30
0.0
 11
1.201645
 21
-0.79864
 31
0.0
  0
LINE
  5
7D6
330
1F
100
AcDbEntity
  8
0
100
AcDbLine
 10
1.184409
 20
-0.766693
 30
0.0
 11
1.203535
 21
-0.765874
 31
0.0
  0
LINE
  5
7D7
330
1F
100
AcDbEntity
  8
0
100
AcDbLine
 10
1.264329
 20
-0.763417
 30
0.0
 11
1.203535
 21
-0.765874
 31
0.0
  0
LINE
  5
7D8
330
1F
100
AcDbEntity
  8
0
100
AcDbLine
 10
1.2762
 20
-0.730242
 30
0.0
 11
1.205432
 21
-0.733109
 31
0.0
  0
LINE
  5
7D9
330
1F
100
AcDbEntity
  8
0
100
AcDbLine
 10
1.27809
 20
-0.697476
 30
0.0
 11
1.217339
 21
-0.699933
 31
0.0
  0
LINE
  5
7DA
330
1F
100
AcDbEntity
  8
0
100
AcDbLine
 10
1.279972
 20
-0.66471
 30
0.0
 11
1.199406
 21
-0.667987
 31
0.0
  0
LINE
  5
7DB
330
1F
100
AcDbEntity
  8
0
100
AcDbLine
 10
1.182295
 20
-0.636041
 30
0.0
 11
1.201285
 21
-0.635221
 31
0.0
  0
LINE
  5
7DC
330
1F
100
AcDbEntity
  8
0
100
AcDbLine
 10
1.272031
 20
-0.632354
 30
0.0
 11
1.21117
 21
-0.634812
 31
0.0
  0
LINE
  5
7DD
330
1F
100
AcDbEntity
  8
0
100
AcDbLine
 10
1.273939
 20
-0.599589
 30
0.0
 11
1.203172
 21
-0.602456
 31
0.0
  0
LINE
  5
7DE
330
1F
100
AcDbEntity
  8
0
100
AcDbLine
 10
1.185857
 20
-0.570509
 30
0.0
 11
1.205068
 21
-0.56969
 31
0.0
  0
LINE
  5
7DF
330
1F
100
AcDbEntity
  8
0
100
AcDbLine
 10
1.265895
 20
-0.567233
 30
0.0
 11
1.205068
 21
-0.56969
 31
0.0
  0
LINE
  5
7E0
330
1F
100
AcDbEntity
  8
0
100
AcDbLine
 10
1.187656
 20
-0.537744
 30
0.0
 11
1.206972
 21
-0.536925
 31
0.0
  0
LINE
  5
7E1
330
1F
100
AcDbEntity
  8
0
100
AcDbLine
 10
1.277731
 20
-0.534058
 30
0.0
 11
1.206972
 21
-0.536925
 31
0.0
  0
LINE
  5
7E2
330
1F
100
AcDbEntity
  8
0
100
AcDbLine
 10
1.279614
 20
-0.501292
 30
0.0
 11
1.208884
 21
-0.504159
 31
0.0
  0
LINE
  5
7E3
330
1F
100
AcDbEntity
  8
0
100
AcDbLine
 10
1.281488
 20
-0.468527
 30
0.0
 11
1.191291
 21
-0.472213
 31
0.0
  0
LINE
  5
7E4
330
1F
100
AcDbEntity
  8
0
100
AcDbLine
 10
1.263588
 20
-0.43658
 30
0.0
 11
1.202811
 21
-0.439038
 31
0.0
  0
LINE
  5
7E5
330
1F
100
AcDbEntity
  8
0
100
AcDbLine
 10
1.282992
 20
-0.850674
 30
0.0
 11
1.196563
 21
-0.853715
 31
0.0
  0
LINE
  5
7E6
330
1F
100
AcDbEntity
  8
0
100
AcDbLine
 10
1.289916
 20
-0.817735
 30
0.0
 11
1.189619
 21
-0.821282
 31
0.0
  0
LINE
  5
7E7
330
1F
100
AcDbEntity
  8
0
100
AcDbLine
 10
1.282965
 20
-0.785302
 30
0.0
 11
1.196568
 21
-0.788342
 31
0.0
  0
LINE
  5
7E8
330
1F
100
AcDbEntity
  8
0
100
AcDbLine
 10
1.289921
 20
-0.752362
 30
0.0
 11
1.189624
 21
-0.755908
 31
0.0
  0
LINE
  5
7E9
330
1F
100
AcDbEntity
  8
0
100
AcDbLine
 10
1.28297
 20
-0.719929
 30
0.0
 11
1.196541
 21
-0.722969
 31
0.0
  0
LINE
  5
7EA
330
1F
100
AcDbEntity
  8
0
100
AcDbLine
 10
1.289926
 20
-0.686988
 30
0.0
 11
1.189597
 21
-0.690536
 31
0.0
  0
LINE
  5
7EB
330
1F
100
AcDbEntity
  8
0
100
AcDbLine
 10
1.282975
 20
-0.654555
 30
0.0
 11
1.196513
 21
-0.657597
 31
0.0
  0
LINE
  5
7EC
330
1F
100
AcDbEntity
  8
0
100
AcDbLine
 10
1.289899
 20
-0.621616
 30
0.0
 11
1.18957
 21
-0.625164
 31
0.0
  0
LINE
  5
7ED
330
1F
100
AcDbEntity
  8
0
100
AcDbLine
 10
1.282947
 20
-0.589183
 30
0.0
 11
1.196518
 21
-0.592223
 31
0.0
  0
LINE
  5
7EE
330
1F
100
AcDbEntity
  8
0
100
AcDbLine
 10
1.289872
 20
-0.556244
 30
0.0
 11
1.189575
 21
-0.55979
 31
0.0
  0
LINE
  5
7EF
330
1F
100
AcDbEntity
  8
0
100
AcDbLine
 10
1.282919
 20
-0.523811
 30
0.0
 11
1.196523
 21
-0.52685
 31
0.0
  0
LINE
  5
7F0
330
1F
100
AcDbEntity
  8
0
100
AcDbLine
 10
1.204429
 20
-0.50773
 30
0.0
 11
1.194009
 21
-0.507354
 31
0.0
  0
LINE
  5
7F1
330
1F
100
AcDbEntity
  8
0
100
AcDbLine
 10
1.289877
 20
-0.49087
 30
0.0
 11
1.18958
 21
-0.494417
 31
0.0
  0
LINE
  5
7F2
330
1F
100
AcDbEntity
  8
0
100
AcDbLine
 10
1.282925
 20
-0.458437
 30
0.0
 11
1.196496
 21
-0.461478
 31
0.0
  0
LINE
  5
7F3
330
1F
100
AcDbEntity
  8
0
100
AcDbLine
 10
1.289882
 20
-0.425497
 30
0.0
 11
1.189552
 21
-0.429045
 31
0.0
  0
LINE
  5
7F4
330
1F
100
AcDbEntity
  8
0
100
AcDbLine
 10
1.5365
 20
0.7875
 30
0.0
 11
0.9435
 21
0.7875
 31
0.0
  0
LINE
  5
7F5
330
1F
100
AcDbEntity
  8
0
100
AcDbLine
 10
1.84
 20
0.7875
 30
0.0
 11
1.5365
 21
0.7875
 31
0.0
  0
LINE
  5
7F6
330
1F
100
AcDbEntity
  8
0
100
AcDbLine
 10
0.9435
 20
0.7875
 30
0.0
 11
0.64
 21
0.7875
 31
0.0
  0
LINE
  5
7F7
330
1F
100
AcDbEntity
  8
0
100
AcDbLine
 10
1.281453
 20
0.9075
 30
0.0
 11
1.84
 21
0.9075
 31
0.0
  0
LINE
  5
7F8
330
1F
100
AcDbEntity
  8
0
100
AcDbLine
 10
1.198547
 20
0.9075
 30
0.0
 11
1.281453
 21
0.9075
 31
0.0
  0
LINE
  5
7F9
330
1F
100
AcDbEntity
  8
0
100
AcDbLine
 10
0.64
 20
0.9075
 30
0.0
 11
1.198547
 21
0.9075
 31
0.0
  0
LINE
  5
7FA
330
1F
100
AcDbEntity
  8
0
100
AcDbLine
 10
1.247071
 20
1.0375
 30
0.0
 11
1.232929
 21
1.0375
 31
0.0
  0
LINE
  5
7FB
330
1F
100
AcDbEntity
  8
0
100
AcDbLine
 10
1.198547
 20
0.9075
 30
0.0
 11
1.219516
 21
0.994167
 31
0.0
  0
LINE
  5
7FC
330
1F
100
AcDbEntity
  8
0
100
AcDbLine
 10
1.25
 20
1.0375
 30
0.0
 11
1.281453
 21
0.9075
 31
0.0
  0
LINE
  5
7FD
330
1F
100
AcDbEntity
  8
0
100
AcDbLine
 10
1.47
 20
0.3675
 30
0.0
 11
1.5365
 21
0.3675
 31
0.0
  0
LINE
  5
7FE
330
1F
100
AcDbEntity
  8
0
100
AcDbLine
 10
1.24
 20
0.3675
 30
0.0
 11
1.47
 21
0.3675
 31
0.0
  0
LINE
  5
7FF
330
1F
100
AcDbEntity
  8
0
100
AcDbLine
 10
1.01
 20
0.3675
 30
0.0
 11
1.24
 21
0.3675
 31
0.0
  0
LINE
  5
800
330
1F
100
AcDbEntity
  8
0
100
AcDbLine
 10
0.9435
 20
0.3675
 30
0.0
 11
1.01
 21
0.3675
 31
0.0
  0
LINE
  5
801
330
1F
100
AcDbEntity
  8
0
100
AcDbLine
 10
1.102236
 20
-0.4125
 30
0.0
 11
1.01
 21
-0.4125
 31
0.0
  0
LINE
  5
802
330
1F
100
AcDbEntity
  8
0
100
AcDbLine
 10
1.168906
 20
-0.4125
 30
0.0
 11
1.102236
 21
-0.4125
 31
0.0
  0
LINE
  5
803
330
1F
100
AcDbEntity
  8
0
100
AcDbLine
 10
1.147186
 20
-0.876196
 30
0.0
 11
1.13689
 21
-0.8775
 31
0.0
  0
LINE
  5
804
330
1F
100
AcDbEntity
  8
0
100
AcDbLine
 10
1.175976
 20
-0.8775
 30
0.0
 11
1.18317
 21
-0.874746
 31
0.0
  0
LINE
  5
805
330
1F
100
AcDbEntity
  8
0
100
AcDbLine
 10
1.425
 20
-0.9125
 30
0.0
 11
1.053124
 21
-0.9125
 31
0.0
  0
ENDSEC
  0
SECTION
  2
OBJECTS
  0
DICTIONARY
  5
C
330
0
100
AcDbDictionary
  3
ACAD_GROUP
350
D
  3
ACAD_IMAGE_DICT
350
84E
  3
ACAD_LAYOUT
350
1A
  3
ACAD_MATERIAL
350
43
  3
ACAD_MLEADERSTYLE
350
6B
  3
ACAD_MLINESTYLE
350
17
  3
ACAD_PLOTSETTINGS
350
19
  3
ACAD_SCALELIST
350
47
  3
ACAD_VISUALSTYLE
350
2A
  3
ACDBHEADERROUNDTRIPXREC
350
851
  3
ACDBVARIABLEDICTIONARY
350
827
  3
HOST_DOC_SETTINGS
350
845
  3
MCS_STREAM_DICT
350
841
  0
DICTIONARY
  5
871
330
8
100
AcDbDictionary
280
     1
  3
ACAD_XREC_ROUNDTRIP
360
872
  0
DICTIONARY
  5
847
330
1F
100
AcDbDictionary
280
     1
  3
ACAD_SORTENTS
360
848
  0
DICTIONARY
  5
D
102
{ACAD_REACTORS
330
C
102
}
330
C
100
AcDbDictionary
  0
DICTIONARY
  5
84E
102
{ACAD_REACTORS
330
C
102
}
330
C
100
AcDbDictionary
  0
DICTIONARY
  5
1A
102
{ACAD_REACTORS
330
C
102
}
330
C
100
AcDbDictionary
  0
DICTIONARY
  5
43
102
{ACAD_REACTORS
330
C
102
}
330
C
100
AcDbDictionary
  3
BYBLOCK
350
45
  3
BYLAYER
350
44
  3
GLOBAL
350
46
  0
DICTIONARY
  5
6B
102
{ACAD_REACTORS
330
C
102
}
330
C
100
AcDbDictionary
  3
STANDARD
350
6C
  0
DICTIONARY
  5
17
102
{ACAD_REACTORS
330
C
102
}
330
C
100
AcDbDictionary
  3
STANDARD
350
18
  0
DICTIONARY
  5
19
102
{ACAD_REACTORS
330
C
102
}
330
C
100
AcDbDictionary
  0
DICTIONARY
  5
47
102
{ACAD_REACTORS
330
C
102
}
330
C
100
AcDbDictionary
  3
A0
350
48
  3
A1
350
49
  3
A2
350
4A
  3
A3
350
4B
  3
A4
350
4C
  3
A5
350
4D
  3
A6
350
4E
  3
A7
350
4F
  3
A8
350
50
  3
A9
350
51
  3
B0
350
52
  3
B1
350
53
  3
B2
350
54
  3
B3
350
55
  3
B4
350
56
  3
B5
350
57
  3
B6
350
58
  3
B7
350
59
  3
B8
350
5A
  3
B9
350
5B
  3
C0
350
5C
  3
C1
350
5D
  3
C2
350
5E
  3
C3
350
5F
  3
C4
350
60
  3
C5
350
61
  3
C6
350
62
  3
C7
350
63
  3
C8
350
64
  3
C9
350
65
  3
D0
350
66
  3
D1
350
67
  3
D2
350
68
  0
DICTIONARY
  5
2A
102
{ACAD_REACTORS
330
C
102
}
330
C
100
AcDbDictionary
  3
2DWIREFRAME
350
2F
  3
BASIC
350
32
  3
BRIGHTEN
350
36
  3
COLORCHANGE
350
3A
  3
CONCEPTUAL
350
34
  3
DIM
350
35
  3
EDGECOLOROFF
350
3D
  3
FACEPATTERN
350
39
  3
FLAT
350
2B
  3
FLATWITHEDGES
350
2C
  3
GOURAUD
350
2D
  3
GOURAUDWITHEDGES
350
2E
  3
HIDDEN
350
31
  3
JITTEROFF
350
3B
  3
LINEPATTERN
350
38
  3
OVERHANGOFF
350
3C
  3
REALISTIC
350
33
  3
SHADED
350
42
  3
Shaded with edges
350
83E
  3
SHADED_WITH_EDGE0
350
41
  3
Shades of Gray
350
83D
  3
SHADES_OF_GRA0
350
3E
  3
SKETCHY
350
3F
  3
THICKEN
350
37
  3
WIREFRAME
350
30
  3
X-RAY
350
40
  0
DICTIONARY
  5
851
102
{ACAD_REACTORS
330
C
102
}
330
C
100
AcDbDictionary
  3
CEPSNTYPE
350
85A
  3
DIMSTYLEDATA
350
870
  3
FINGERPRINTGUID
350
85B
  3
HYPERLINKBASE
350
854
  3
INSUNITS
350
859
  3
LAYOUTDICT
350
856
  3
LWETCUNION
350
858
  3
PLOTSETDICT
350
857
  3
PSVPSCALE
350
85D
  3
PUCSBASE
350
860
  3
PUCSORGBACK
350
866
  3
PUCSORGBOTTOM
350
862
  3
PUCSORGFRONT
350
865
  3
PUCSORGLEFT
350
863
  3
PUCSORGRIGHT
350
864
  3
PUCSORGTOP
350
861
  3
PUCSORTHOREF
350
85E
  3
PUCSORTHOVIEW
350
85F
  3
STYLESHEET
350
855
  3
TSTACKALIGN
350
852
  3
TSTACKSIZE
350
853
  3
UCSBASE
350
869
  3
UCSORGBACK
350
86F
  3
UCSORGBOTTOM
350
86B
  3
UCSORGFRONT
350
86E
  3
UCSORGLEFT
350
86C
  3
UCSORGRIGHT
350
86D
  3
UCSORGTOP
350
86A
  3
UCSORTHOREF
350
867
  3
UCSORTHOVIEW
350
868
  3
VERSIONGUID
350
85C
  0
DICTIONARY
  5
827
102
{ACAD_REACTORS
330
C
102
}
330
C
100
AcDbDictionary
  3
CANNOSCALE
350
84B
  3
CMLEADERSTYLE
350
829
  3
CTABLESTYLE
350
828
  3
DIMASSOC
350
82C
  3
HIDETEXT
350
82D
  3
MSLTSCALE
350
831
  0
DICTIONARY
  5
845
102
{ACAD_REACTORS
330
C
102
}
330
C
100
AcDbDictionary
  3
NCDOCPARAMETERS
350
846
  0
DICTIONARY
  5
841
102
{ACAD_REACTORS
330
C
102
}
330
C
100
AcDbDictionary
  3
MC_VERSION_DATA
350
849
  3
MCS_DOCUMENT_ID
350
842
  3
MCS_PARAMS_DATA
350
84F
  0
XRECORD
  5
872
102
{ACAD_REACTORS
330
871
102
}
330
871
100
AcDbXrecord
102
VTR_0.000_0.000_1.000_1.000_GRIDDISPLAY
 70
     3
102
VTR_0.000_0.000_1.000_1.000_GRIDMAJOR
 70
     5
102
VTR_0.000_0.000_1.000_1.000_DEFAULTLIGHTING
280
     1
102
VTR_0.000_0.000_1.000_1.000_DEFAULTLIGHTINGTYPE
 70
     1
102
VTR_0.000_0.000_1.000_1.000_BRIGHTNESS
141
0.0
102
VTR_0.000_0.000_1.000_1.000_CONTRAST
142
0.0
  0
SORTENTSTABLE
  5
848
102
{ACAD_REACTORS
330
847
102
}
330
847
100
AcDbSortentsTable
330
1F
  0
MATERIAL
  5
45
102
{ACAD_REACTORS
330
43
102
}
102
{ACAD_XDICTIONARY
360
873
102
}
330
43
100
AcDbMaterial
  1
BYBLOCK
  0
MATERIAL
  5
44
102
{ACAD_REACTORS
330
43
102
}
102
{ACAD_XDICTIONARY
360
875
102
}
330
43
100
AcDbMaterial
  1
BYLAYER
  0
MATERIAL
  5
46
102
{ACAD_REACTORS
330
43
102
}
102
{ACAD_XDICTIONARY
360
877
102
}
330
43
100
AcDbMaterial
  1
GLOBAL
  0
ACAD_PROXY_OBJECT
  5
6C
102
{ACAD_REACTORS
330
6B
102
}
330
6B
100
AcDbProxyObject
 90
      499
 91
      505
 93
      610
310
40901902A4063FBFFFFFE056BD1B81E855B9FC0AD7A3703D0AD73F4214DD185B99185C9900AD7A3703D0AC73F90141901A02B5E8DC0F42B1CFC02B5E8DC0F42B1CFE5764000000000000300FC0
340
14
340
0
340
11
340
0
 94
        0
1001
ACAD_MLEADERVER
1070
     2
  0
MLINESTYLE
  5
18
102
{ACAD_REACTORS
330
17
102
}
330
17
100
AcDbMlineStyle
  2
Standard
 70
     0
  3

 62
   256
 51
90.0
 52
90.0
 71
     2
 49
0.5
 62
   256
  6
BYLAYER
 49
-0.5
 62
   256
  6
BYLAYER
  0
ACAD_PROXY_OBJECT
  5
48
102
{ACAD_REACTORS
330
47
102
}
330
47
100
AcDbProxyObject
 90
      499
 91
      503
 93
       41
310
903313A31580
  0
ACAD_PROXY_OBJECT
  5
49
102
{ACAD_REACTORS
330
47
102
}
330
47
100
AcDbProxyObject
 90
      499
 91
      503
 93
      105
310
903313A324000000000000004000
  0
ACAD_PROXY_OBJECT
  5
4A
102
{ACAD_REACTORS
330
47
102
}
330
47
100
AcDbProxyObject
 90
      499
 91
      503
 93
      105
310
903313A344000000000000104000
  0
ACAD_PROXY_OBJECT
  5
4B
102
{ACAD_REACTORS
330
47
102
}
330
47
100
AcDbProxyObject
 90
      499
 91
      503
 93
      105
310
903313A354000000000000144000
  0
ACAD_PROXY_OBJECT
  5
4C
102
{ACAD_REACTORS
330
47
102
}
330
47
100
AcDbProxyObject
 90
      499
 91
      503
 93
      105
310
903313A384000000000000204000
  0
ACAD_PROXY_OBJECT
  5
4D
102
{ACAD_REACTORS
330
47
102
}
330
47
100
AcDbProxyObject
 90
      499
 91
      503
 93
      113
310
904313A31304000000000000244000
  0
ACAD_PROXY_OBJECT
  5
4E
102
{ACAD_REACTORS
330
47
102
}
330
47
100
AcDbProxyObject
 90
      499
 91
      503
 93
      113
310
904313A31364000000000000304000
  0
ACAD_PROXY_OBJECT
  5
4F
102
{ACAD_REACTORS
330
47
102
}
330
47
100
AcDbProxyObject
 90
      499
 91
      503
 93
      113
310
904313A32304000000000000344000
  0
ACAD_PROXY_OBJECT
  5
50
102
{ACAD_REACTORS
330
47
102
}
330
47
100
AcDbProxyObject
 90
      499
 91
      503
 93
      113
310
904313A333040000000000003E4000
  0
ACAD_PROXY_OBJECT
  5
51
102
{ACAD_REACTORS
330
47
102
}
330
47
100
AcDbProxyObject
 90
      499
 91
      503
 93
      113
310
904313A34304000000000000444000
  0
ACAD_PROXY_OBJECT
  5
52
102
{ACAD_REACTORS
330
47
102
}
330
47
100
AcDbProxyObject
 90
      499
 91
      503
 93
      113
310
904313A35304000000000000494000
  0
ACAD_PROXY_OBJECT
  5
53
102
{ACAD_REACTORS
330
47
102
}
330
47
100
AcDbProxyObject
 90
      499
 91
      503
 93
      121
310
905313A3130304000000000000594000
  0
ACAD_PROXY_OBJECT
  5
54
102
{ACAD_REACTORS
330
47
102
}
330
47
100
AcDbProxyObject
 90
      499
 91
      503
 93
      105
310
903323A310000000000000010100
  0
ACAD_PROXY_OBJECT
  5
55
102
{ACAD_REACTORS
330
47
102
}
330
47
100
AcDbProxyObject
 90
      499
 91
      503
 93
      105
310
903343A310000000000000410100
  0
ACAD_PROXY_OBJECT
  5
56
102
{ACAD_REACTORS
330
47
102
}
330
47
100
AcDbProxyObject
 90
      499
 91
      503
 93
      105
310
903383A310000000000000810100
  0
ACAD_PROXY_OBJECT
  5
57
102
{ACAD_REACTORS
330
47
102
}
330
47
100
AcDbProxyObject
 90
      499
 91
      503
 93
      113
310
90431303A310000000000000910100
  0
ACAD_PROXY_OBJECT
  5
58
102
{ACAD_REACTORS
330
47
102
}
330
47
100
AcDbProxyObject
 90
      499
 91
      503
 93
      121
310
9053130303A310000000000001650100
  0
ACAD_PROXY_OBJECT
  5
59
102
{ACAD_REACTORS
330
47
102
}
330
47
100
AcDbProxyObject
 90
      499
 91
      503
 93
      257
310
90E312F31323822203D2031272D3022000000000000200FC000000000000284000
  0
ACAD_PROXY_OBJECT
  5
5A
102
{ACAD_REACTORS
330
47
102
}
330
47
100
AcDbProxyObject
 90
      499
 91
      503
 93
      249
310
90D312F363422203D2031272D3022000000000000240FC000000000000284000
  0
ACAD_PROXY_OBJECT
  5
5B
102
{ACAD_REACTORS
330
47
102
}
330
47
100
AcDbProxyObject
 90
      499
 91
      503
 93
      249
310
90D312F333222203D2031272D3022000000000000280FC000000000000284000
  0
ACAD_PROXY_OBJECT
  5
5C
102
{ACAD_REACTORS
330
47
102
}
330
47
100
AcDbProxyObject
 90
      499
 91
      503
 93
      249
310
90D312F313622203D2031272D30220000000000002C0FC000000000000284000
  0
ACAD_PROXY_OBJECT
  5
5D
102
{ACAD_REACTORS
330
47
102
}
330
47
100
AcDbProxyObject
 90
      499
 91
      503
 93
      249
310
90D332F333222203D2031272D30220000000000002E0FC000000000000284000
  0
ACAD_PROXY_OBJECT
  5
5E
102
{ACAD_REACTORS
330
47
102
}
330
47
100
AcDbProxyObject
 90
      499
 91
      503
 93
      241
310
90C312F3822203D2031272D3022000000000000300FC000000000000284000
  0
ACAD_PROXY_OBJECT
  5
5F
102
{ACAD_REACTORS
330
47
102
}
330
47
100
AcDbProxyObject
 90
      499
 91
      503
 93
      249
310
90D332F313622203D2031272D3022000000000000320FC000000000000284000
  0
ACAD_PROXY_OBJECT
  5
60
102
{ACAD_REACTORS
330
47
102
}
330
47
100
AcDbProxyObject
 90
      499
 91
      503
 93
      241
310
90C312F3422203D2031272D3022000000000000340FC000000000000284000
  0
ACAD_PROXY_OBJECT
  5
61
102
{ACAD_REACTORS
330
47
102
}
330
47
100
AcDbProxyObject
 90
      499
 91
      503
 93
      241
310
90C332F3822203D2031272D3022000000000000360FC000000000000284000
  0
ACAD_PROXY_OBJECT
  5
62
102
{ACAD_REACTORS
330
47
102
}
330
47
100
AcDbProxyObject
 90
      499
 91
      503
 93
      241
310
90C312F3222203D2031272D3022000000000000380FC000000000000284000
  0
ACAD_PROXY_OBJECT
  5
63
102
{ACAD_REACTORS
330
47
102
}
330
47
100
AcDbProxyObject
 90
      499
 91
      503
 93
      241
310
90C332F3422203D2031272D30220000000000003A0FC000000000000284000
  0
ACAD_PROXY_OBJECT
  5
64
102
{ACAD_REACTORS
330
47
102
}
330
47
100
AcDbProxyObject
 90
      499
 91
      503
 93
      161
310
90A3122203D2031272D30224000000000000284000
  0
ACAD_PROXY_OBJECT
  5
65
102
{ACAD_REACTORS
330
47
102
}
330
47
100
AcDbProxyObject
 90
      499
 91
      503
 93
      257
310
90E312D312F3222203D2031272D30220000000000003E0FC000000000000284000
  0
ACAD_PROXY_OBJECT
  5
66
102
{ACAD_REACTORS
330
47
102
}
330
47
100
AcDbProxyObject
 90
      499
 91
      503
 93
      225
310
90A3322203D2031272D302200000000000002100000000000000284000
  0
ACAD_PROXY_OBJECT
  5
67
102
{ACAD_REACTORS
330
47
102
}
330
47
100
AcDbProxyObject
 90
      499
 91
      503
 93
      225
310
90A3622203D2031272D302200000000000006100000000000000284000
  0
ACAD_PROXY_OBJECT
  5
68
102
{ACAD_REACTORS
330
47
102
}
330
47
100
AcDbProxyObject
 90
      499
 91
      503
 93
      249
310
90D31272D3022203D2031272D30220000000000000A100000000000000284000
  0
ACAD_PROXY_OBJECT
  5
2F
102
{ACAD_REACTORS
330
2A
102
}
330
2A
100
AcDbProxyObject
 90
      499
 91
      501
 93
      436
310
42CC9915DA5C99599C985B595049028333333333333E33F0000000000000F90107901411070040501600405405064090741402480A0340
1001
ACAD
1000
AcDbSavedByObjectVersion
1070
     0
  0
ACAD_PROXY_OBJECT
  5
32
102
{ACAD_REACTORS
330
2A
102
}
330
2A
100
AcDbProxyObject
 90
      499
 91
      501
 93
      388
310
4150985CDA58D07406404333333333333E33F0000000000000F90107A41107004050150841D405064090741402480A0350
1001
ACAD
1000
AcDbSavedByObjectVersion
1070
     0
  0
ACAD_PROXY_OBJECT
  5
36
102
{ACAD_REACTORS
330
2A
102
}
330
2A
100
AcDbProxyObject
 90
      499
 91
      501
 93
      428
310
42109C9A59DA1D195B90C409028333333333333E33F0000000000000F9010790141107004050150841D405064090741402480A029950
1001
ACAD
1000
AcDbSavedByObjectVersion
1070
     0
  0
ACAD_PROXY_OBJECT
  5
3A
102
{ACAD_REACTORS
330
2A
102
}
330
2A
100
AcDbProxyObject
 90
      499
 91
      501
 93
      452
310
42D0DBDB1BDC90DA185B99D95104090240C333333333333E33F0000000000000F90108901411070040501508421405064090741402480A0350
1001
ACAD
1000
AcDbSavedByObjectVersion
1070
     0
  0
ACAD_PROXY_OBJECT
  5
34
102
{ACAD_REACTORS
330
2A
102
}
330
2A
100
AcDbProxyObject
 90
      499
 91
      501
 93
      500
310
4290DBDB98D95C1D1D585B10940D028333333333333E33F0000000000000F90107902409070040501000000000018199010841D405064090740C02480A0340
1001
ACAD
1000
AcDbSavedByObjectVersion
1070
     0
  0
ACAD_PROXY_OBJECT
  5
35
102
{ACAD_REACTORS
330
2A
102
}
330
2A
100
AcDbProxyObject
 90
      499
 91
      501
 93
      412
310
40D11A5B50B409028333333333333E33F0000000000000F9010790141107004050150841D405064090741402480A02677FFFFFD0
1001
ACAD
1000
AcDbSavedByObjectVersion
1070
     0
  0
ACAD_PROXY_OBJECT
  5
3D
102
{ACAD_REACTORS
330
2A
102
}
330
2A
100
AcDbProxyObject
 90
      499
 91
      501
 93
      452
310
43115919D950DBDB1BDC93D999916409028333333333333E33F0000000000000F9010790141107004050150841D405064090741402480A0350
1001
ACAD
1000
AcDbSavedByObjectVersion
1070
     0
  0
ACAD_PROXY_OBJECT
  5
39
102
{ACAD_REACTORS
330
2A
102
}
330
2A
100
AcDbProxyObject
 90
      499
 91
      501
 93
      444
310
42D19858D95C185D1D195C9B90F409028333333333333E33F0000000000000F9010790141107004050150841D405064090741402480A0350
1001
ACAD
1000
AcDbSavedByObjectVersion
1070
     0
  0
ACAD_PROXY_OBJECT
  5
2B
102
{ACAD_REACTORS
330
2A
102
}
330
2A
100
AcDbProxyObject
 90
      499
 91
      501
 93
      380
310
41119B185D240901404333333333333E33F0000000000000F9010740A907004050150841D405064090741402480A1B50
1001
ACAD
1000
AcDbSavedByObjectVersion
1070
     0
  0
ACAD_PROXY_OBJECT
  5
2C
102
{ACAD_REACTORS
330
2A
102
}
330
2A
100
AcDbProxyObject
 90
      499
 91
      501
 93
      468
310
43519B185D15DA5D1A115919D95CD0140901404333333333333E33F0000000000000F90107409019070040501600405405064090741402480A1B50
1001
ACAD
1000
AcDbSavedByObjectVersion
1070
     0
  0
ACAD_PROXY_OBJECT
  5
2D
102
{ACAD_REACTORS
330
2A
102
}
330
2A
100
AcDbProxyObject
 90
      499
 91
      501
 93
      404
310
41D1DBDD5C985D5910240902404333333333333E33F0000000000000F9010740A9070040501641D405064090741402480A1B50
1001
ACAD
1000
AcDbSavedByObjectVersion
1070
     0
  0
ACAD_PROXY_OBJECT
  5
2E
102
{ACAD_REACTORS
330
2A
102
}
330
2A
100
AcDbProxyObject
 90
      499
 91
      501
 93
      492
310
4411DBDD5C985D5915DA5D1A115919D95CD0340902404333333333333E33F0000000000000F90107409019070040501600405405064090741402480A1B50
1001
ACAD
1000
AcDbSavedByObjectVersion
1070
     0
  0
ACAD_PROXY_OBJECT
  5
31
102
{ACAD_REACTORS
330
2A
102
}
330
2A
100
AcDbProxyObject
 90
      499
 91
      501
 93
      476
310
41921A5919195B90640502408333333333333E33F0000000000000F901079024090700405020000000000001110200405405064090740C02480A0340
1001
ACAD
1000
AcDbSavedByObjectVersion
1070
     0
  0
ACAD_PROXY_OBJECT
  5
3B
102
{ACAD_REACTORS
330
2A
102
}
330
2A
100
AcDbProxyObject
 90
      499
 91
      501
 93
      428
310
42529A5D1D195C93D999914409028333333333333E33F0000000000000F9010790141107004050150A41D405064090741402480A0350
1001
ACAD
1000
AcDbSavedByObjectVersion
1070
     0
  0
ACAD_PROXY_OBJECT
  5
38
102
{ACAD_REACTORS
330
2A
102
}
330
2A
100
AcDbProxyObject
 90
      499
 91
      501
 93
      444
310
42D31A5B995C185D1D195C9B90E409028333333333333E33F0000000000000F9010790141107004050750841D405064090741402483A0350
1001
ACAD
1000
AcDbSavedByObjectVersion
1070
     0
  0
ACAD_PROXY_OBJECT
  5
3C
102
{ACAD_REACTORS
330
2A
102
}
330
2A
100
AcDbProxyObject
 90
      499
 91
      501
 93
      444
310
42D3DD995C9A185B99D3D999915409028333333333333E33F0000000000000F9010790141107004050150941D405064090741402480A0350
1001
ACAD
1000
AcDbSavedByObjectVersion
1070
     0
  0
ACAD_PROXY_OBJECT
  5
33
102
{ACAD_REACTORS
330
2A
102
}
330
2A
100
AcDbProxyObject
 90
      499
 91
      501
 93
      428
310
425499585B1A5CDD1A58D08409038333333333333E33F0000000000000F9010740A907004050150800405405064090740C02480A1B40
1001
ACAD
1000
AcDbSavedByObjectVersion
1070
     0
  0
ACAD_PROXY_OBJECT
  5
42
102
{ACAD_REACTORS
330
2A
102
}
330
2A
100
AcDbProxyObject
 90
      499
 91
      501
 93
      420
310
4194DA1859195911B40902404333333333333E33F0000000000000F9010740A41107004050150800405405064090840C02480A0B40
1001
ACAD
1000
AcDbSavedByObjectVersion
1070
     0
  0
ACAD_PROXY_OBJECT
  5
83E
102
{ACAD_REACTORS
330
2A
102
}
330
2A
100
AcDbProxyObject
 90
      499
 91
      501
 93
      516
310
4454DA18591959081DDA5D1A08195919D95CD1A40902404333333333333E33F0000000000000F901074090142907004050250800405405064090740C02480A0B40
1001
ACAD
1000
AcDbSavedByObjectVersion
1070
     0
  0
ACAD_PROXY_OBJECT
  5
41
102
{ACAD_REACTORS
330
2A
102
}
330
2A
100
AcDbProxyObject
 90
      499
 91
      501
 93
      516
310
4454DA18591959081DDA5D1A08195919D95CD1A40902404333333333333E33F0000000000000F901074090142907004050250800405405064090740C02480A0B40
1001
ACAD
1000
AcDbSavedByObjectVersion
1070
     0
  0
ACAD_PROXY_OBJECT
  5
83D
102
{ACAD_REACTORS
330
2A
102
}
330
2A
100
AcDbProxyObject
 90
      499
 91
      501
 93
      532
310
4394DA1859195CC81BD98811DC985E5174090240C333333333333E33F0000000000000F901079024090741D01000000000000111010841D405064090740C02480A0340
1001
ACAD
1000
AcDbSavedByObjectVersion
1070
     0
  0
ACAD_PROXY_OBJECT
  5
3E
102
{ACAD_REACTORS
330
2A
102
}
330
2A
100
AcDbProxyObject
 90
      499
 91
      501
 93
      532
310
4394DA1859195CC81BD98811DC985E5174090240C333333333333E33F0000000000000F901079024090741D01000000000000111010841D405064090740C02480A0340
1001
ACAD
1000
AcDbSavedByObjectVersion
1070
     0
  0
ACAD_PROXY_OBJECT
  5
3F
102
{ACAD_REACTORS
330
2A
102
}
330
2A
100
AcDbProxyObject
 90
      499
 91
      501
 93
      476
310
41D4DAD95D18DA1E51840502408333333333333E33F0000000000000F901079024090741D01000000000000111010B41D405064090741802480A0340
1001
ACAD
1000
AcDbSavedByObjectVersion
1070
     0
  0
ACAD_PROXY_OBJECT
  5
37
102
{ACAD_REACTORS
330
2A
102
}
330
2A
100
AcDbProxyObject
 90
      499
 91
      501
 93
      412
310
41D51A1A58DAD95B90D409028333333333333E33F0000000000000F9010790141107004050150C41D405064090741402480A0350
1001
ACAD
1000
AcDbSavedByObjectVersion
1070
     0
  0
ACAD_PROXY_OBJECT
  5
30
102
{ACAD_REACTORS
330
2A
102
}
330
2A
100
AcDbProxyObject
 90
      499
 91
      501
 93
      420
310
4255DA5C99599C985B595059028333333333333E33F0000000000000F90107901411070040501600405405064090740C02480A0340
1001
ACAD
1000
AcDbSavedByObjectVersion
1070
     0
  0
ACAD_PROXY_OBJECT
  5
40
102
{ACAD_REACTORS
330
2A
102
}
330
2A
100
AcDbProxyObject
 90
      499
 91
      501
 93
      404
310
41560B54985E51940902404000000000000E03F0000000000000F9010740501907004050150841D405064090740C02480A1B40
1001
ACAD
1000
AcDbSavedByObjectVersion
1070
     0
  0
XRECORD
  5
85A
102
{ACAD_REACTORS
330
851
102
}
330
851
100
AcDbXrecord
 90
        0
  0
XRECORD
  5
870
102
{ACAD_REACTORS
330
851
102
}
330
851
100
AcDbXrecord
1000
DSTYLE
1002
{
1070
   171
 70
     2
1070
   143
 40
25.4
1070
   274
 70
     2
1070
    41
 40
0.18
1070
   141
 40
0.09
1070
   271
 70
     4
1070
    43
 40
0.38
1070
   278
 70
    46
1070
    44
 40
0.18
1070
    42
 40
0.0625
1070
   147
 40
0.09
1070
    77
 70
     0
1070
   272
 70
     4
1070
    73
 70
     1
1070
   279
 70
     2
1070
   172
 70
     0
1070
    74
 70
     1
1070
   283
 70
     1
1070
   340
340
11
1070
   140
 40
0.18
1070
   284
 70
     0
1070
    78
 70
     0
1002
}
  0
XRECORD
  5
85B
102
{ACAD_REACTORS
330
851
102
}
330
851
100
AcDbXrecord
  1
{04bb11a3-a854-4d06-a605-72df9fc51d9d}
  0
XRECORD
  5
854
102
{ACAD_REACTORS
330
851
102
}
330
851
100
AcDbXrecord
  1

  0
XRECORD
  5
859
102
{ACAD_REACTORS
330
851
102
}
330
851
100
AcDbXrecord
 90
        5
  0
XRECORD
  5
856
102
{ACAD_REACTORS
330
851
102
}
330
851
100
AcDbXrecord
340
1A
  0
XRECORD
  5
858
102
{ACAD_REACTORS
330
851
102
}
330
851
100
AcDbXrecord
 90
    10781
  0
XRECORD
  5
857
102
{ACAD_REACTORS
330
851
102
}
330
851
100
AcDbXrecord
340
19
  0
XRECORD
  5
85D
102
{ACAD_REACTORS
330
851
102
}
330
851
100
AcDbXrecord
 40
0.0
  0
XRECORD
  5
860
102
{ACAD_REACTORS
330
851
102
}
330
851
100
AcDbXrecord
340
0
  0
XRECORD
  5
866
102
{ACAD_REACTORS
330
851
102
}
330
851
100
AcDbXrecord
 10
0.0
 20
0.0
 30
0.0
  0
XRECORD
  5
862
102
{ACAD_REACTORS
330
851
102
}
330
851
100
AcDbXrecord
 10
0.0
 20
0.0
 30
0.0
  0
XRECORD
  5
865
102
{ACAD_REACTORS
330
851
102
}
330
851
100
AcDbXrecord
 10
0.0
 20
0.0
 30
0.0
  0
XRECORD
  5
863
102
{ACAD_REACTORS
330
851
102
}
330
851
100
AcDbXrecord
 10
0.0
 20
0.0
 30
0.0
  0
XRECORD
  5
864
102
{ACAD_REACTORS
330
851
102
}
330
851
100
AcDbXrecord
 10
0.0
 20
0.0
 30
0.0
  0
XRECORD
  5
861
102
{ACAD_REACTORS
330
851
102
}
330
851
100
AcDbXrecord
 10
0.0
 20
0.0
 30
0.0
  0
XRECORD
  5
85E
102
{ACAD_REACTORS
330
851
102
}
330
851
100
AcDbXrecord
340
0
  0
XRECORD
  5
85F
102
{ACAD_REACTORS
330
851
102
}
330
851
100
AcDbXrecord
 70
     0
  0
XRECORD
  5
855
102
{ACAD_REACTORS
330
851
102
}
330
851
100
AcDbXrecord
  1

  0
XRECORD
  5
852
102
{ACAD_REACTORS
330
851
102
}
330
851
100
AcDbXrecord
 90
        1
  0
XRECORD
  5
853
102
{ACAD_REACTORS
330
851
102
}
330
851
100
AcDbXrecord
 90
       70
  0
XRECORD
  5
869
102
{ACAD_REACTORS
330
851
102
}
330
851
100
AcDbXrecord
340
0
  0
XRECORD
  5
86F
102
{ACAD_REACTORS
330
851
102
}
330
851
100
AcDbXrecord
 10
0.0
 20
0.0
 30
0.0
  0
XRECORD
  5
86B
102
{ACAD_REACTORS
330
851
102
}
330
851
100
AcDbXrecord
 10
0.0
 20
0.0
 30
0.0
  0
XRECORD
  5
86E
102
{ACAD_REACTORS
330
851
102
}
330
851
100
AcDbXrecord
 10
0.0
 20
0.0
 30
0.0
  0
XRECORD
  5
86C
102
{ACAD_REACTORS
330
851
102
}
330
851
100
AcDbXrecord
 10
0.0
 20
0.0
 30
0.0
  0
XRECORD
  5
86D
102
{ACAD_REACTORS
330
851
102
}
330
851
100
AcDbXrecord
 10
0.0
 20
0.0
 30
0.0
  0
XRECORD
  5
86A
102
{ACAD_REACTORS
330
851
102
}
330
851
100
AcDbXrecord
 10
0.0
 20
0.0
 30
0.0
  0
XRECORD
  5
867
102
{ACAD_REACTORS
330
851
102
}
330
851
100
AcDbXrecord
340
0
  0
XRECORD
  5
868
102
{ACAD_REACTORS
330
851
102
}
330
851
100
AcDbXrecord
 70
     0
  0
XRECORD
  5
85C
102
{ACAD_REACTORS
330
851
102
}
330
851
100
AcDbXrecord
  1
{FAEB1C32-E019-11D5-929B-00C0DF256EC4}
  0
DICTIONARYVAR
  5
84B
102
{ACAD_REACTORS
330
827
102
}
330
827
100
DictionaryVariables
280
     0
  1
1:1
  0
DICTIONARYVAR
  5
829
102
{ACAD_REACTORS
330
827
102
}
330
827
100
DictionaryVariables
280
     0
  1
STANDARD
  0
DICTIONARYVAR
  5
828
102
{ACAD_REACTORS
330
827
102
}
330
827
100
DictionaryVariables
280
     0
  1
Standard
  0
DICTIONARYVAR
  5
82C
102
{ACAD_REACTORS
330
827
102
}
330
827
100
DictionaryVariables
280
     0
  1
2
  0
DICTIONARYVAR
  5
82D
102
{ACAD_REACTORS
330
827
102
}
330
827
100
DictionaryVariables
280
     0
  1
1
  0
DICTIONARYVAR
  5
831
102
{ACAD_REACTORS
330
827
102
}
330
827
100
DictionaryVariables
280
     0
  1
1
  0
CSACDOCUMENTOPTIONS
  5
846
102
{ACAD_REACTORS
330
845
102
}
330
845
  0
XRECORD
  5
849
102
{ACAD_REACTORS
330
841
102
}
330
841
100
AcDbXrecord
300
MC_VERSION_DATA
 90
       95
310
0600000002000000570000001C000000E404000000000000000000007801936764E5D8CF7A8393818115C460606066E0646662626666706006F214793899F8DE3171E725E6E53B3BBA2878E6951050AF75FEFFFFFF520032DE0F3057000000
  0
XRECORD
  5
842
102
{ACAD_REACTORS
330
841
102
}
330
841
100
AcDbXrecord
300
MCS_DOCUMENT_ID
 90
       60
310
0600000002000000150000001C000000E404000000000000000000007801E315E696E291DB19EEB65D63CE66B359FF93FF030100498E0A2215000000
  0
XRECORD
  5
84F
102
{ACAD_REACTORS
330
841
102
}
330
841
100
AcDbXrecord
300
MCS_PARAMS_DATA
 90
     3313
310
0600000002000000F64B00001C000000E404000000000000000000007801C55C5B6C5CC519DE9D595FD6B9DF494B53970A1A6F4A58DF92A6426A1A1210527090E23EF0543976A2BA75E25CAC160A6DA92AF5A55255A96AD556551F4A49A0CF15A03EC0438190865E482021147221409310B6900B3826B1FB7F7366CEFC73E6
310
1CAFBDDE3D9B07D8FF3F73CEF7DFE6FB67E6ECBA757EA3143929F767A4FCCE8636299AA49C90529036BB402C105929F279912F89C6DEAF6FD8BC69AB14A46C51EAC2B9898909BA39945F872C1FCD848A834A91A13B1AD51D6D5266E8A9FAF627E9AABE92BD45CA6F03BD81A3CFC24D59D990C96408C7E066656E0232E13A03
310
14B0AB01724443F05CC3F08780DFC8F19B03FC710A073DC8486413411B49060E3311A05C24C45064703B01D7CCE196A818E5C59C9268B967CBD6DED68ED59DC52EEB78BEF08E09F8223D745649346F1DE9DB35D0B777C089FC5FC3C8EB60BF1A286CF47FE3467F17CC59C5CD990B0CD948C1A77FB9F5CA0E4F479188EA541E
310
3C25A2E22BC99C8892456878B2821857F6B05492C2AD881B41409C21325211340605C9C6DC6006EC49AC088A0CCBB25B1159B72248E415019155047D5453031360047082A7405D92B72AB0F03379693EAB50870260AC609E2C6F6510BB3D081DFE4EF5EFECD71494A7B3590EC7F12C5B25CB32539229914732934ECE22AF1D
310
D259AC8B7B7649E437DE7BDFA69EADF76EE95186E95A7ED74C032DBFA66A9BF1CEF341B19B78E45DDED9EF56FE29189043E4814BF734E1FF34659991678231F23A51010DA578E8294D435524988818E84710A7B2643B4F7C134F5CC6936D1E4176D01398C4D0A83AE0A6BDC86B0BB5C3E1E8299D70A5A945AC12322FE697C4
310
9C8DC3BBBE34D2BA77FBEEA1BEFEED79D15C120DF70F0FEE1A093EF60C8FF47F4BCAB3B0ED666EDB17F5733E2B445B5E2C298985C507BB8BEBBA3A3A3774178B1D777FA5B36B9D327BBE1ED84C030BC74C9EDAB5B64D88BC405AEF1E1CD9D73A34B88F70838775AD5DDBD1B9B6BBABBB73A0ABA37F5D7BE0E757F57D1DB80F
310
037BFBB60D6D6F1DDED1DA3B3CB47D6FDF2EF8A0AD5933506CEF2FF6F7ADD9D6B56D5DFF9A60D6A95222FF670B51F8295953F8455019945B7EE9315C7A8AFEC352DE9D4B4A5050256AA6D1B42D5F0C265BEED4473538E9811F770DEFDCDD3732B86D706870E4A1D69DC303E45F6349C807B6EFCB8B8692103DC352AE816545
310
9E9E798813B5E9A692C86DD9B1A355A5424F8E0BF018466AF90D150136590E2905AA568F782650907D5A7180140B84AD0159F8156902B8F63BDA8BE1A72E29AF48322EA98B5F578631B6F5489B26184C63434803DB221A328E6B58DEAED6DB808FEB6DC068BD0DF8A4DE065CABB7018B3045EB390B3EAD7704C6EA6DC07518
310
10B79C17773A0DB6C361F03BDD064B22C8C7303844629E5064B47323116EB9039777E096BB70247238880C6E39831B9F221C81B3E543C57019D4736C30574EE2DD4AD73B12B9771099772B997713E97A974DF4CECD5D9582B938116EC00926492C777A7F676A8F441E4C882C98032C983211AE26DE8974E196022EC7174366
310
F9AE62C95769E105B5C4B012E2E82ED8CD3516C5E34D519CF0D1F6765A8551C6CC0505130A3E8ABEC46EF81CED54DC1DA04AB7BC4DB0CA082453194AB29B82400C2B438BA6322032B88FE093B3E13470C11297490C8EEF78E88158D51A8AD42283A38F61044E78707A57F8BBDFE2DF2167F36975041D1DA7FCF59430C35792
310
05112533A905D5D3CAAB4759DBB4CA160F3E9309466F934A1794E7E1154C402D3088858048DCDF7EA3E7FECD5B7A7B376D5480CBF43A7E5E49CCBE6BEB37D945B2402FC65F52AB73B67E7F3A58AE93F37A04F6B7011D680556EBCCA2819BC8A21C320F385BBDB4EE56E6E32CE2CB18E358AD7676B4C7C096B1674BAF7B1278
310
1E906198B0DF8681EA696AF34D20563061CAB731C0DB01185B8B0DCA46538BD880EB0E2C6FC3120B40E62289BC162112587895C11513E18290E892090EBF46A9321968C513E0BB89A0AE8F2431B88A7DFC9E07A7BD0A8E668E3AF3CDEA083A3A8ECFB770A00AB53712018F2859D8DB3D93C2E4D422CB77A40BB73A5DB807A7
310
0857A5727AC8838BE45965D0D3D5B29CBEEF99145F4E558AC0C3E9C23D922EDC0FD285FBA107E7958EEDE721E98018A3E3AAC64E7F5C166D7ABA81B65C437BB31D766C74A6ED6E1FBC2766B7AFDAD87156F9771BF44A2A724C461AB43EE729AAFB710D63E2111810BBA3ABC9AE6037E09AB9BF3AB40BE8309F8736AB64CAB2
310
BE7E3364E5AC569CA6976081AF5A311628A8EF68C5B3A4609E3E86AC3AA156E3E83562F4B5A292099A878C61EB3B549CF92354989982613F016CE7AD5A4D09AA1F5126387AAD451EE384D9C035A925859E39C1AA865EE9A9B8DA21CEE289167F7CF1D4C4BC7A125EC5AED5D8BB0B5A9D9144D134CFA71BF85A8D44BE568348
310
F6AA55A2F3CAEACF6982FD29118CC249D3CBF852A586F278BA70FBD3853B90085793EDE51E143F0AD06C6B4CB2242BDDBDD1419166C2865E85F9CE1648F3CBF54B2E655D5432557AB8C599EEE6E763403914E55050D879E2BFFA30F366F009F0CB378371CA9B99D05949929DD07465EA8797A3808B6B06B9536E64AF9C844C
310
903AF2F3709D3783A318A078E4F37AEBBCEC2DD1B228B722F785DC2DB9D64C476675A63353CC74E937B1FA39BFA7DB58A6AFC19E49583A4A9B6110A6BA038D3C80418F79D091B18A763C1D8524AA5361F194EC4CC4B23EDBA3192533E95398E41423EB6DCA1C239B4DBF91D13F6D762A6897D7013D496371DC8BECCAA7D45E
310
0C251095ABC98AA38E1B6540CD3DACF829EF15C38D27C2B92DA64A071D13897001094F16523EC1C9E5A99FF465029665AB5B13C49AF8984D174EA40B273D389D33BB29A272F6749622C2719C22AC925104534E7A8CF33714555C6B3CF3BE4BE0AF28994CA9B8353E0F28878DD26D8D2F007FBAAD11BD305CEB4EAB35BE08B8
310
B8D678FEB81BD9134AB6ADF10A644BBEF9C2334A81E4EAA6772450D87DD2AF49C178F020A0EBD3055FF292CC5B8AB3FC4114C86BA708ACDB15F49C43C04EBBE7FCBD0CA8A1CB2AF59CC3897035E1E39713E16AD873FE91085A131FFF19C04DBEDBF8D75406FD3B3A2842E56C8ABE82A171BC3BF89ECB0E0F287926BC7B0450
310
75E4DDA3C09F2EEF56BE2579157071BCBBE7881BD93E255BDE7D04B225A07C61BD5230DE1DBA8C1158736B225E412358525F03747D78F79897E472BCCBAF5BAF2BA0DDE3804E9B765F2F035A65DA3D910857134A7A2311AE52DA8D6E0E9C1341735A873DD47F12A16BE2E99BE9C275792B70532835F1AEDB838B7404B509F7
310
74C449519D9AA19EB28205FF5B08785CE3F9307262735AC933693C270155C7C6730AF8E9359ED3808B6B3CA387DDC6734EC9B6F1C897238DE72006D89713F9C2E58B91C6F3388D608DE70CA0A7DA7866D30F8008DC16BEAA2D26A2AAB848F4108A0CF46D0F54D7A73989E2C56D75B6B8431D2F6EAB64C5CD94644C04869974
310
1626C5B6A280378D1BEE62BCE2C3917700E714386FAA719B1D7E7D464DF7DD444F8317374E8CAA75BEF65E19D0F8F0523EC21D7470DCC60B8CAEF29753FC38EF4760CFDBF99B4673F680D0869F6742513F06849341B61DF57EE3400A02734628D75C0DBC8B68A868B98655ECA330208EA3C6F1B52E3DF1E8849E2433679564
310
431A886148B568E62C4406F75F64308EFD2F9D7039EA6D259B5B2BF91AD8396F72B01004EFC5CD6C88F911E8CCDF849C077E5C64E9488747967101058B73015D99FA9B900B808B63FFB117DCC85E50324556799F2F34BC086EC70CD18A4318C0D9FF2AB6807CDB718046B0A4BE0FE8B4D9FFA207EA504E3D7E65FA014C7226
310
B329B0E8D703AAFEBAA304E869379E693123CD68457958A4FF2F11AE86ECFF6119D078F6E7138AD87FF2370F86D6E1E34789702D76FED2134932CCA824CB8C811832A3160D33426421BD940847AF6F0C11D33DEECB1CFE9B7175D1F926045DE5BD8DBFBDBE9C081764D0049324E6DDB40A8607F34A225C4D16463974B5B836
310
F3B3A32E193EACE499B49986C93A780A6DA631A981D7A6CD34012EAECDFCF23937B23F51B26D337F80CCDBCC36A5C0ECD07DE7E7A7236D663D8D6033A419D0536D33E07F56B8C4CA7C0D48229F9610695A461A0883CE7B494E8DD95B004DF38E8247AB09FE45AC1A52EDAC32A0861DD8DA85D8A76276989D08579353913989
310
700119397510D9BB4CAB9DF096393711B4263ECE4B176E7EBA700B3C389DB3F0B5335AA6A7234288EA142D784A9083AFB414616018456CF64C3293C4CD2F49D3E5A5F0410CEE3E0F2E6A6FEA11580893E29AEE529C2FC11C4DF48D4AA628982DB44A422820F8563073C8F989CF2240392BED74F7768B819FDEDE6E09E0E29A
310
EE0AFA030B3CB273954C91D5916E83CC9BEE074FAB1E6B73B11CFB6CBEB73B4C23589D2D05F4CC9AAE2E4C768646F0614DBB4BD40606BDCC4B726A4DF72640A7DD749797013521AB4ED3C5971C1BF2225712D922FD192CAA82F186C253F467B664EED8B163100EA1787299890C1D4314EEF90B040C236113FD72905624B8F0
310
99FF03A92412CEF64B0000
  0
DICTIONARY
  5
873
330
45
100
AcDbDictionary
280
     1
  3
ACAD_XREC_ROUNDTRIP
360
874
  0
DICTIONARY
  5
875
330
44
100
AcDbDictionary
280
     1
  3
ACAD_XREC_ROUNDTRIP
360
876
  0
DICTIONARY
  5
877
330
46
100
AcDbDictionary
280
     1
  3
ACAD_XREC_ROUNDTRIP
360
878
  0
XRECORD
  5
874
102
{ACAD_REACTORS
330
873
102
}
330
873
100
AcDbXrecord
102
MATERIAL
148
0.0
149
0.0
149
0.0
 93
        0
 94
      127
282
     0
 72
     1
 77
     1
171
     1
175
     1
179
     1
273
     0
  0
XRECORD
  5
876
102
{ACAD_REACTORS
330
875
102
}
330
875
100
AcDbXrecord
102
MATERIAL
148
0.0
149
0.0
149
0.0
 93
        0
 94
      127
282
     0
 72
     1
 77
     1
171
     1
175
     1
179
     1
273
     0
  0
XRECORD
  5
878
102
{ACAD_REACTORS
330
877
102
}
330
877
100
AcDbXrecord
102
MATERIAL
148
0.0
149
0.0
149
0.0
 93
        0
 94
      127
282
     0
 72
     1
 77
     1
171
     1
175
     1
179
     1
273
     0
  0
ENDSEC
  0
EOF
