  0
SECTION
  2
HEADER
  9
$ACADVER
  1
AC1009
  9
$DWGCODEPAGE
  3
ansi_1252
  9
$INSBASE
 10
0.0
 20
0.0
 30
0.0
  9
$EXTMIN
 10
1.000000000000000E+20
 20
1.000000000000000E+20
 30
1.000000000000000E+20
  9
$EXTMAX
 10
-1.000000000000000E+20
 20
-1.000000000000000E+20
 30
-1.000000000000000E+20
  9
$LIMMIN
 10
0.0
 20
0.0
  9
$LIMMAX
 10
12.0
 20
9.0
  9
$ORTHOMODE
 70
     0
  9
$REGENMODE
 70
     1
  9
$FILLMODE
 70
     1
  9
$QTEXTMODE
 70
     0
  9
$MIRRTEXT
 70
     1
  9
$DRAGMODE
 70
     2
  9
$LTSCALE
 40
1.0
  9
$OSMODE
 70
    37
  9
$ATTMODE
 70
     1
  9
$TEXTSIZE
 40
0.2
  9
$TRACEWID
 40
0.05
  9
$TEXTSTYLE
  7
STANDARD
  9
$CLAYER
  8
0
  9
$CELTYPE
  6
BYLAYER
  9
$CECOLOR
 62
   256
  9
$DIMSCALE
 40
1.0
  9
$DIMASZ
 40
0.18
  9
$DIMEXO
 40
0.0625
  9
$DIMDLI
 40
0.38
  9
$DIMRND
 40
0.0
  9
$DIMDLE
 40
0.0
  9
$DIMEXE
 40
0.18
  9
$DIMTP
 40
0.0
  9
$DIMTM
 40
0.0
  9
$DIMTXT
 40
0.18
  9
$DIMCEN
 40
0.09
  9
$DIMTSZ
 40
0.0
  9
$DIMTOL
 70
     0
  9
$DIMLIM
 70
     0
  9
$DIMTIH
 70
     1
  9
$DIMTOH
 70
     1
  9
$DIMSE1
 70
     0
  9
$DIMSE2
 70
     0
  9
$DIMTAD
 70
     0
  9
$DIMZIN
 70
     0
  9
$DIMBLK
  1

  9
$DIMASO
 70
     1
  9
$DIMSHO
 70
     1
  9
$DIMPOST
  1

  9
$DIMAPOST
  1

  9
$DIMALT
 70
     0
  9
$DIMALTD
 70
     2
  9
$DIMALTF
 40
25.4
  9
$DIMLFAC
 40
1.0
  9
$DIMTOFL
 70
     0
  9
$DIMTVP
 40
0.0
  9
$DIMTIX
 70
     0
  9
$DIMSOXD
 70
     0
  9
$DIMSAH
 70
     0
  9
$DIMBLK1
  1

  9
$DIMBLK2
  1

  9
$DIMSTYLE
  2
STANDARD
  9
$DIMCLRD
 70
     0
  9
$DIMCLRE
 70
     0
  9
$DIMCLRT
 70
     0
  9
$DIMTFAC
 40
1.0
  9
$DIMGAP
 40
0.09
  9
$LUNITS
 70
     2
  9
$LUPREC
 70
     4
  9
$SKETCHINC
 40
0.1
  9
$FILLETRAD
 40
0.0
  9
$AUNITS
 70
     0
  9
$AUPREC
 70
     0
  9
$MENU
  1
.
  9
$ELEVATION
 40
0.0
  9
$PELEVATION
 40
0.0
  9
$THICKNESS
 40
0.0
  9
$LIMCHECK
 70
     0
  9
$CHAMFERA
 40
0.0
  9
$CHAMFERB
 40
0.0
  9
$SKPOLY
 70
     0
  9
$TDCREATE
 40
2460273.365405509
  9
$TDUPDATE
 40
2460273.365405741
  9
$TDINDWG
 40
0.0000000116
  9
$TDUSRTIMER
 40
0.0000000116
  9
$USRTIMER
 70
     1
  9
$ANGBASE
 50
0.0
  9
$ANGDIR
 70
     0
  9
$PDMODE
 70
     0
  9
$PDSIZE
 40
0.0
  9
$PLINEWID
 40
0.0
  9
$COORDS
 70
     1
  9
$SPLFRAME
 70
     0
  9
$SPLINETYPE
 70
     6
  9
$SPLINESEGS
 70
     8
  9
$ATTDIA
 70
     0
  9
$ATTREQ
 70
     1
  9
$HANDLING
 70
     1
  9
$HANDSEED
  5
491
  9
$SURFTAB1
 70
     6
  9
$SURFTAB2
 70
     6
  9
$SURFTYPE
 70
     6
  9
$SURFU
 70
     6
  9
$SURFV
 70
     6
  9
$UCSNAME
  2

  9
$UCSORG
 10
0.0
 20
0.0
 30
0.0
  9
$UCSXDIR
 10
1.0
 20
0.0
 30
0.0
  9
$UCSYDIR
 10
0.0
 20
1.0
 30
0.0
  9
$PUCSNAME
  2

  9
$PUCSORG
 10
0.0
 20
0.0
 30
0.0
  9
$PUCSXDIR
 10
1.0
 20
0.0
 30
0.0
  9
$PUCSYDIR
 10
0.0
 20
1.0
 30
0.0
  9
$USERI1
 70
     0
  9
$USERI2
 70
     0
  9
$USERI3
 70
     0
  9
$USERI4
 70
     0
  9
$USERI5
 70
     0
  9
$USERR1
 40
0.0
  9
$USERR2
 40
0.0
  9
$USERR3
 40
0.0
  9
$USERR4
 40
0.0
  9
$USERR5
 40
0.0
  9
$WORLDVIEW
 70
     1
  9
$SHADEDGE
 70
     3
  9
$SHADEDIF
 70
    70
  9
$TILEMODE
 70
     1
  9
$MAXACTVP
 70
    64
  9
$PLIMCHECK
 70
     0
  9
$PEXTMIN
 10
1.000000000000000E+20
 20
1.000000000000000E+20
 30
1.000000000000000E+20
  9
$PEXTMAX
 10
-1.000000000000000E+20
 20
-1.000000000000000E+20
 30
-1.000000000000000E+20
  9
$PLIMMIN
 10
0.0
 20
0.0
  9
$PLIMMAX
 10
12.0
 20
9.0
  9
$UNITMODE
 70
     0
  9
$VISRETAIN
 70
     1
  9
$PLINEGEN
 70
     0
  9
$PSLTSCALE
 70
     1
  0
ENDSEC
  0
SECTION
  2
TABLES
  0
TABLE
  2
VPORT
 70
     1
  0
VPORT
  2
*ACTIVE
 70
     0
 10
0.0
 20
0.0
 11
1.0
 21
1.0
 12
0.0
 22
0.0
 13
0.0
 23
0.0
 14
0.5
 24
0.5
 15
0.5
 25
0.5
 16
0.0
 26
0.0
 36
1.0
 17
0.0
 27
0.0
 37
-1000.0
 40
536.3051291106026
 41
1.658454647256439
 42
50.0
 43
500.313182546591
 44
979.6919073208982
 50
0.0
 51
0.0
 71
     0
 72
   100
 73
     1
 74
     3
 75
     0
 76
     0
 77
     0
 78
     0
  0
ENDTAB
  0
TABLE
  2
LTYPE
 70
     1
  0
LTYPE
  2
CONTINUOUS
 70
     0
  3
Solid line
 72
    65
 73
     0
 40
0.0
  0
ENDTAB
  0
TABLE
  2
LAYER
 70
     3
  0
LAYER
  2
0
 70
     0
 62
     7
  6
CONTINUOUS
  0
LAYER
  2
PROFILEEDGES
 70
     0
 62
     7
  6
CONTINUOUS
  0
LAYER
  2
SECTIONCUTEDGES
 70
     0
 62
     7
  6
CONTINUOUS
  0
ENDTAB
  0
TABLE
  2
STYLE
 70
     1
  0
STYLE
  2
STANDARD
 70
     0
 40
0.0
 41
1.0
 50
0.0
 71
     0
 42
0.2
  3
txt
  4

  0
ENDTAB
  0
TABLE
  2
VIEW
 70
     0
  0
ENDTAB
  0
TABLE
  2
UCS
 70
     0
  0
ENDTAB
  0
TABLE
  2
APPID
 70
     1
  0
APPID
  2
ACAD
 70
     0
  0
ENDTAB
  0
TABLE
  2
DIMSTYLE
 70
     1
  0
DIMSTYLE
  2
STANDARD
 70
     0
  3

  4

  5

  6

  7

 40
1.0
 41
0.18
 42
0.0625
 43
0.38
 44
0.18
 45
0.0
 46
0.0
 47
0.0
 48
0.0
140
0.18
141
0.09
142
0.0
143
25.4
144
1.0
145
0.0
146
1.0
147
0.09
 71
     0
 72
     0
 73
     1
 74
     1
 75
     0
 76
     0
 77
     0
 78
     0
170
     0
171
     2
172
     0
173
     0
174
     0
175
     0
176
     0
177
     0
178
     0
  0
ENDTAB
  0
ENDSEC
  0
SECTION
  2
BLOCKS
  0
BLOCK
  8
0
  2
$MODEL_SPACE
 70
     0
 10
0.0
 20
0.0
 30
0.0
  3
$MODEL_SPACE
  1

  0
ENDBLK
  5
21
  8
0
  0
BLOCK
 67
     1
  8
0
  2
$PAPER_SPACE
 70
     0
 10
0.0
 20
0.0
 30
0.0
  3
$PAPER_SPACE
  1

  0
ENDBLK
  5
1D
 67
     1
  8
0
  0
ENDSEC
  0
SECTION
  2
ENTITIES
  0
POLYLINE
  5
60
  8
PROFILEEDGES
 66
     1
 10
0.0
 20
0.0
 30
0.0
  0
VERTEX
  5
1B8
  8
PROFILEEDGES
 10
-73.6946899090289
 20
138.4528621077353
 30
0.0
 40
1.201131308198438
 41
1.201131308198438
  0
VERTEX
  5
1B9
  8
PROFILEEDGES
 10
-74.00652845799173
 20
139.7109352885649
 30
0.0
 40
1.201131308198438
 41
1.201131308198438
  0
SEQEND
  5
39E
  8
PROFILEEDGES
  0
POLYLINE
  5
61
  8
PROFILEEDGES
 66
     1
 10
0.0
 20
0.0
 30
0.0
  0
VERTEX
  5
1BA
  8
PROFILEEDGES
 10
-86.70966725768294
 20
143.8384352885651
 30
0.0
 40
1.201131308198438
 41
1.201131308198438
  0
VERTEX
  5
1BB
  8
PROFILEEDGES
 10
-87.69466647870304
 20
142.9971664786949
 30
0.0
 40
1.201131308198438
 41
1.201131308198438
  0
SEQEND
  5
39F
  8
PROFILEEDGES
  0
LINE
  5
62
  8
0
 10
-66.9594520485933
 20
-147.9840654209659
 30
0.0
 11
-65.44961485707934
 21
-145.5202350527038
 31
0.0
  0
LINE
  5
63
  8
0
 10
-68.83612862445781
 20
-150.1813713755503
 30
0.0
 11
-66.9594520485933
 21
-147.9840654209659
 31
0.0
  0
POLYLINE
  5
64
  8
PROFILEEDGES
 66
     1
 10
0.0
 20
0.0
 30
0.0
  0
VERTEX
  5
1BC
  8
PROFILEEDGES
 10
-88.52732222652719
 20
132.2995245891936
 30
0.0
 40
1.201131308198438
 41
1.201131308198438
  0
VERTEX
  5
1BD
  8
PROFILEEDGES
 10
-87.69466647870304
 20
131.322833521305
 30
0.0
 40
1.201131308198438
 41
1.201131308198438
  0
SEQEND
  5
3A0
  8
PROFILEEDGES
  0
LINE
  5
65
  8
0
 10
-78.97675932629265
 20
-155.3482807920596
 30
0.0
 11
-76.16695204859359
 21
-154.6737057475754
 31
0.0
  0
LINE
  5
66
  8
0
 10
-63.66921920794863
 20
-134.2792593262841
 30
0.0
 11
-64.34379425243289
 21
-131.4694520485852
 31
0.0
  0
LINE
  5
67
  8
0
 10
-63.44250000000841
 20
-137.1599999999999
 30
0.0
 11
-63.66921920794863
 21
-134.2792593262841
 31
0.0
  0
LINE
  5
68
  8
0
 10
-64.34379425243289
 20
-131.4694520485852
 30
0.0
 11
-65.44961485707934
 21
-128.7997649472961
 31
0.0
  0
LINE
  5
69
  8
0
 10
-63.66921920794863
 20
-140.0407406737158
 30
0.0
 11
-63.44250000000841
 21
-137.1599999999999
 31
0.0
  0
POLYLINE
  5
6A
  8
PROFILEEDGES
 66
     1
 10
0.0
 20
0.0
 30
0.0
  0
VERTEX
  5
1BE
  8
PROFILEEDGES
 10
-74.00652845799179
 20
-139.7109352885651
 30
0.0
 40
1.201131308198438
 41
1.201131308198438
  0
VERTEX
  5
1BF
  8
PROFILEEDGES
 10
-73.70413274839585
 20
-138.4513665089071
 30
0.0
 40
1.201131308198438
 41
1.201131308198438
  0
SEQEND
  5
3A1
  8
PROFILEEDGES
  0
LINE
  5
6B
  8
0
 10
-64.34379425243289
 20
-142.8505479514147
 30
0.0
 11
-63.66921920794863
 21
-140.0407406737158
 31
0.0
  0
LINE
  5
6C
  8
0
 10
-71.03343457904246
 20
-152.0580479514147
 30
0.0
 11
-68.83612862445781
 21
-150.1813713755503
 31
0.0
  0
POLYLINE
  5
6D
  8
PROFILEEDGES
 66
     1
 10
0.0
 20
0.0
 30
0.0
  0
VERTEX
  5
1C0
  8
PROFILEEDGES
 10
-77.00533274233432
 20
-143.8384352885651
 30
0.0
 40
1.201131308198438
 41
1.201131308198438
  0
VERTEX
  5
1C1
  8
PROFILEEDGES
 10
-76.02033352131349
 20
-142.9971664786949
 30
0.0
 40
1.201131308198438
 41
1.201131308198438
  0
SEQEND
  5
3A2
  8
PROFILEEDGES
  0
LINE
  5
6E
  8
0
 10
-73.49726494730486
 20
-153.5678851429289
 30
0.0
 11
-71.03343457904246
 21
-152.0580479514147
 31
0.0
  0
POLYLINE
  5
6F
  8
PROFILEEDGES
 66
     1
 10
0.0
 20
0.0
 30
0.0
  0
VERTEX
  5
1C2
  8
PROFILEEDGES
 10
-89.70847154202474
 20
139.7109352885651
 30
0.0
 40
1.201131308198438
 41
1.201131308198438
  0
VERTEX
  5
1C3
  8
PROFILEEDGES
 10
-90.0108672516214
 20
138.4513665089071
 30
0.0
 40
1.201131308198438
 41
1.201131308198438
  0
SEQEND
  5
3A3
  8
PROFILEEDGES
  0
POLYLINE
  5
70
  8
PROFILEEDGES
 66
     1
 10
0.0
 20
0.0
 30
0.0
  0
VERTEX
  5
1C4
  8
PROFILEEDGES
 10
-89.2127588571835
 20
133.41230842465
 30
0.0
 40
1.201131308198438
 41
1.201131308198438
  0
VERTEX
  5
1C5
  8
PROFILEEDGES
 10
-88.52732222652719
 20
132.2995245891936
 30
0.0
 40
1.201131308198438
 41
1.201131308198438
  0
SEQEND
  5
3A4
  8
PROFILEEDGES
  0
POLYLINE
  5
71
  8
PROFILEEDGES
 66
     1
 10
0.0
 20
0.0
 30
0.0
  0
VERTEX
  5
1C6
  8
PROFILEEDGES
 10
-81.85750000000827
 20
-145.4149999999999
 30
0.0
 40
1.201131308198438
 41
1.201131308198438
  0
VERTEX
  5
1C7
  8
PROFILEEDGES
 10
-80.5661334911013
 20
-145.3133672516128
 30
0.0
 40
1.201131308198438
 41
1.201131308198438
  0
SEQEND
  5
3A5
  8
PROFILEEDGES
  0
LINE
  5
72
  8
0
 10
-81.85750000000827
 20
-155.5750000000001
 30
0.0
 11
-81.85750000000827
 21
-145.4149999999999
 31
0.0
  0
LINE
  5
73
  8
0
 10
-81.85750000000827
 20
-155.5750000000001
 30
0.0
 11
-78.97675932629265
 21
-155.3482807920596
 31
0.0
  0
LINE
  5
74
  8
0
 10
-76.16695204859359
 20
-154.6737057475754
 30
0.0
 11
-73.49726494730486
 21
-153.5678851429289
 31
0.0
  0
LINE
  5
75
  8
0
 10
-65.44961485707934
 20
-145.5202350527038
 30
0.0
 11
-64.34379425243289
 21
-142.8505479514147
 31
0.0
  0
POLYLINE
  5
76
  8
PROFILEEDGES
 66
     1
 10
0.0
 20
0.0
 30
0.0
  0
VERTEX
  5
1C8
  8
PROFILEEDGES
 10
-83.14886650891523
 20
145.3133672516128
 30
0.0
 40
1.201131308198438
 41
1.201131308198438
  0
VERTEX
  5
1C9
  8
PROFILEEDGES
 10
-81.85750000000827
 20
145.415
 30
0.0
 40
1.201131308198438
 41
1.201131308198438
  0
SEQEND
  5
3A6
  8
PROFILEEDGES
  0
POLYLINE
  5
77
  8
PROFILEEDGES
 66
     1
 10
0.0
 20
0.0
 30
0.0
  0
VERTEX
  5
1CA
  8
PROFILEEDGES
 10
-81.85750000000827
 20
128.905
 30
0.0
 40
1.201131308198438
 41
1.201131308198438
  0
VERTEX
  5
1CB
  8
PROFILEEDGES
 10
-80.5661334911013
 20
129.0066327483871
 30
0.0
 40
1.201131308198438
 41
1.201131308198438
  0
SEQEND
  5
3A7
  8
PROFILEEDGES
  0
POLYLINE
  5
78
  8
PROFILEEDGES
 66
     1
 10
0.0
 20
0.0
 30
0.0
  0
VERTEX
  5
1CC
  8
PROFILEEDGES
 10
-75.18767777349007
 20
132.2995245891936
 30
0.0
 40
1.201131308198438
 41
1.201131308198438
  0
VERTEX
  5
1CD
  8
PROFILEEDGES
 10
-74.50224114283375
 20
133.41230842465
 30
0.0
 40
1.201131308198438
 41
1.201131308198438
  0
SEQEND
  5
3A8
  8
PROFILEEDGES
  0
POLYLINE
  5
79
  8
PROFILEEDGES
 66
     1
 10
0.0
 20
0.0
 30
0.0
  0
VERTEX
  5
1CE
  8
PROFILEEDGES
 10
-76.02033352131349
 20
131.322833521305
 30
0.0
 40
1.201131308198438
 41
1.201131308198438
  0
VERTEX
  5
1CF
  8
PROFILEEDGES
 10
-75.18767777349007
 20
132.2995245891936
 30
0.0
 40
1.201131308198438
 41
1.201131308198438
  0
SEQEND
  5
3A9
  8
PROFILEEDGES
  0
POLYLINE
  5
7A
  8
PROFILEEDGES
 66
     1
 10
0.0
 20
0.0
 30
0.0
  0
VERTEX
  5
1D0
  8
PROFILEEDGES
 10
-76.02033352131349
 20
142.9971664786949
 30
0.0
 40
1.201131308198438
 41
1.201131308198438
  0
VERTEX
  5
1D1
  8
PROFILEEDGES
 10
-77.00533274233432
 20
143.8384352885651
 30
0.0
 40
1.201131308198438
 41
1.201131308198438
  0
SEQEND
  5
3AA
  8
PROFILEEDGES
  0
POLYLINE
  5
7B
  8
PROFILEEDGES
 66
     1
 10
0.0
 20
0.0
 30
0.0
  0
VERTEX
  5
1D2
  8
PROFILEEDGES
 10
-83.14886650891523
 20
129.0066327483871
 30
0.0
 40
1.201131308198438
 41
1.201131308198438
  0
VERTEX
  5
1D3
  8
PROFILEEDGES
 10
-81.85750000000827
 20
128.905
 30
0.0
 40
1.201131308198438
 41
1.201131308198438
  0
SEQEND
  5
3AB
  8
PROFILEEDGES
  0
POLYLINE
  5
7C
  8
PROFILEEDGES
 66
     1
 10
0.0
 20
0.0
 30
0.0
  0
VERTEX
  5
1D4
  8
PROFILEEDGES
 10
-80.5661334911013
 20
145.3133672516128
 30
0.0
 40
1.201131308198438
 41
1.201131308198438
  0
VERTEX
  5
1D5
  8
PROFILEEDGES
 10
-81.85750000000827
 20
145.415
 30
0.0
 40
1.201131308198438
 41
1.201131308198438
  0
SEQEND
  5
3AC
  8
PROFILEEDGES
  0
LINE
  5
7D
  8
0
 10
-81.85750000000827
 20
145.415
 30
0.0
 11
-81.85750000000827
 21
155.5749999999999
 31
0.0
  0
LINE
  5
7E
  8
0
 10
-81.85750000000827
 20
155.5749999999999
 30
0.0
 11
-84.7382406737246
 21
155.3482807920594
 31
0.0
  0
LINE
  5
7F
  8
0
 10
-84.7382406737246
 20
155.3482807920594
 30
0.0
 11
-87.54804795142294
 21
154.6737057475752
 31
0.0
  0
POLYLINE
  5
80
  8
PROFILEEDGES
 66
     1
 10
0.0
 20
0.0
 30
0.0
  0
VERTEX
  5
1D6
  8
PROFILEEDGES
 10
-79.95208389128257
 20
145.1659469856746
 30
0.0
 40
1.201131308198438
 41
1.201131308198438
  0
VERTEX
  5
1D7
  8
PROFILEEDGES
 10
-78.84470060712309
 20
144.8196611660336
 30
0.0
 40
1.201131308198438
 41
1.201131308198438
  0
SEQEND
  5
3AD
  8
PROFILEEDGES
  0
LINE
  5
81
  8
0
 10
-87.54804795142294
 20
154.6737057475752
 30
0.0
 11
-90.2177350527124
 21
153.5678851429287
 31
0.0
  0
LINE
  5
82
  8
0
 10
-90.2177350527124
 20
153.5678851429287
 30
0.0
 11
-92.68156542097407
 21
152.0580479514146
 31
0.0
  0
LINE
  5
83
  8
0
 10
-92.68156542097407
 20
152.0580479514146
 30
0.0
 11
-94.87887137555872
 21
150.1813713755502
 31
0.0
  0
LINE
  5
84
  8
0
 10
-94.87887137555872
 20
150.1813713755502
 30
0.0
 11
-96.75554795142322
 21
147.9840654209658
 31
0.0
  0
LINE
  5
85
  8
0
 10
-96.75554795142322
 20
147.9840654209658
 30
0.0
 11
-98.26538514293719
 21
145.5202350527037
 31
0.0
  0
LINE
  5
86
  8
0
 10
-84.7382406737246
 20
-118.9717192079403
 30
0.0
 11
-87.54804795142294
 21
-119.6462942524245
 31
0.0
  0
LINE
  5
87
  8
0
 10
-87.54804795142294
 20
-119.6462942524245
 30
0.0
 11
-90.2177350527124
 21
-120.752114857071
 31
0.0
  0
LINE
  5
88
  8
0
 10
-90.2177350527124
 20
-120.752114857071
 30
0.0
 11
-92.68156542097479
 21
-122.2619520485852
 31
0.0
  0
LINE
  5
89
  8
0
 10
-73.49726494730486
 20
-120.752114857071
 30
0.0
 11
-76.16695204859359
 21
-119.6462942524245
 31
0.0
  0
LINE
  5
8A
  8
0
 10
-81.85750000000827
 20
-118.7449999999998
 30
0.0
 11
-84.7382406737246
 21
-118.9717192079403
 31
0.0
  0
LINE
  5
8B
  8
0
 10
-68.83612862445781
 20
-124.1386286244495
 30
0.0
 11
-71.03343457904246
 21
-122.2619520485852
 31
0.0
  0
LINE
  5
8C
  8
0
 10
-66.9594520485933
 20
-126.3359345790339
 30
0.0
 11
-68.83612862445781
 21
-124.1386286244495
 31
0.0
  0
LINE
  5
8D
  8
0
 10
-71.03343457904246
 20
-122.2619520485852
 30
0.0
 11
-73.49726494730486
 21
-120.752114857071
 31
0.0
  0
LINE
  5
8E
  8
0
 10
-78.97675932629265
 20
-118.9717192079403
 30
0.0
 11
-81.85750000000827
 21
-118.7449999999998
 31
0.0
  0
LINE
  5
8F
  8
0
 10
-76.16695204859359
 20
-119.6462942524245
 30
0.0
 11
-78.97675932629265
 21
-118.9717192079403
 31
0.0
  0
LINE
  5
90
  8
0
 10
-92.68156542097479
 20
-152.0580479514147
 30
0.0
 11
-90.2177350527124
 21
-153.5678851429289
 31
0.0
  0
LINE
  5
91
  8
0
 10
-96.75554795142322
 20
-147.9840654209659
 30
0.0
 11
-94.87887137555872
 21
-150.1813713755504
 31
0.0
  0
LINE
  5
92
  8
0
 10
-98.26538514293719
 20
-128.7997649472961
 30
0.0
 11
-99.37120574758364
 21
-131.4694520485852
 31
0.0
  0
POLYLINE
  5
93
  8
PROFILEEDGES
 66
     1
 10
0.0
 20
0.0
 30
0.0
  0
VERTEX
  5
1D8
  8
PROFILEEDGES
 10
-87.69466647870304
 20
-142.9971664786949
 30
0.0
 40
1.201131308198438
 41
1.201131308198438
  0
VERTEX
  5
1D9
  8
PROFILEEDGES
 10
-86.70966725768294
 20
-143.8384352885651
 30
0.0
 40
1.201131308198438
 41
1.201131308198438
  0
SEQEND
  5
3AE
  8
PROFILEEDGES
  0
LINE
  5
94
  8
0
 10
-94.87887137555872
 20
-150.1813713755504
 30
0.0
 11
-92.68156542097479
 21
-152.0580479514147
 31
0.0
  0
LINE
  5
95
  8
0
 10
-100.0457807920679
 20
-140.0407406737158
 30
0.0
 11
-99.37120574758364
 21
-142.8505479514147
 31
0.0
  0
POLYLINE
  5
96
  8
PROFILEEDGES
 66
     1
 10
0.0
 20
0.0
 30
0.0
  0
VERTEX
  5
1DA
  8
PROFILEEDGES
 10
-90.0108672516214
 20
-138.4513665089071
 30
0.0
 40
1.201131308198438
 41
1.201131308198438
  0
VERTEX
  5
1DB
  8
PROFILEEDGES
 10
-89.70847154202474
 20
-139.7109352885651
 30
0.0
 40
1.201131308198438
 41
1.201131308198438
  0
SEQEND
  5
3AF
  8
PROFILEEDGES
  0
LINE
  5
97
  8
0
 10
-100.2725000000088
 20
-137.1599999999999
 30
0.0
 11
-100.0457807920679
 21
-140.0407406737158
 31
0.0
  0
LINE
  5
98
  8
0
 10
-87.54804795142294
 20
-154.6737057475754
 30
0.0
 11
-84.7382406737246
 21
-155.3482807920596
 31
0.0
  0
LINE
  5
99
  8
0
 10
-84.7382406737246
 20
-155.3482807920596
 30
0.0
 11
-81.85750000000827
 21
-155.5750000000001
 31
0.0
  0
POLYLINE
  5
9A
  8
PROFILEEDGES
 66
     1
 10
0.0
 20
0.0
 30
0.0
  0
VERTEX
  5
1DC
  8
PROFILEEDGES
 10
-83.14886650891523
 20
-145.3133672516128
 30
0.0
 40
1.201131308198438
 41
1.201131308198438
  0
VERTEX
  5
1DD
  8
PROFILEEDGES
 10
-81.85750000000827
 20
-145.4149999999999
 30
0.0
 40
1.201131308198438
 41
1.201131308198438
  0
SEQEND
  5
3B0
  8
PROFILEEDGES
  0
LINE
  5
9B
  8
0
 10
-98.26538514293719
 20
-145.5202350527038
 30
0.0
 11
-96.75554795142322
 21
-147.9840654209659
 31
0.0
  0
LINE
  5
9C
  8
0
 10
-99.37120574758364
 20
-142.8505479514147
 30
0.0
 11
-98.26538514293719
 21
-145.5202350527038
 31
0.0
  0
LINE
  5
9D
  8
0
 10
-100.0457807920679
 20
-134.2792593262841
 30
0.0
 11
-100.2725000000088
 21
-137.1599999999999
 31
0.0
  0
LINE
  5
9E
  8
0
 10
-96.75554795142322
 20
-126.335934579034
 30
0.0
 11
-98.26538514293719
 21
-128.7997649472961
 31
0.0
  0
POLYLINE
  5
9F
  8
PROFILEEDGES
 66
     1
 10
0.0
 20
0.0
 30
0.0
  0
VERTEX
  5
1DE
  8
PROFILEEDGES
 10
-88.53593528857351
 20
-132.3078327423256
 30
0.0
 40
1.201131308198438
 41
1.201131308198438
  0
VERTEX
  5
1DF
  8
PROFILEEDGES
 10
-89.2127588571835
 20
-133.41230842465
 30
0.0
 40
1.201131308198438
 41
1.201131308198438
  0
SEQEND
  5
3B1
  8
PROFILEEDGES
  0
POLYLINE
  5
A0
  8
PROFILEEDGES
 66
     1
 10
0.0
 20
0.0
 30
0.0
  0
VERTEX
  5
1E0
  8
PROFILEEDGES
 10
-81.85750000000827
 20
-128.905
 30
0.0
 40
1.201131308198438
 41
1.201131308198438
  0
VERTEX
  5
1E1
  8
PROFILEEDGES
 10
-83.14886650891523
 20
-129.0066327483871
 30
0.0
 40
1.201131308198438
 41
1.201131308198438
  0
SEQEND
  5
3B2
  8
PROFILEEDGES
  0
LINE
  5
A1
  8
0
 10
-90.2177350527124
 20
-153.5678851429289
 30
0.0
 11
-87.54804795142294
 21
-154.6737057475754
 31
0.0
  0
POLYLINE
  5
A2
  8
PROFILEEDGES
 66
     1
 10
0.0
 20
0.0
 30
0.0
  0
VERTEX
  5
1E2
  8
PROFILEEDGES
 10
-75.17906471144302
 20
-132.3078327423256
 30
0.0
 40
1.201131308198438
 41
1.201131308198438
  0
VERTEX
  5
1E3
  8
PROFILEEDGES
 10
-76.02033352131349
 20
-131.322833521305
 30
0.0
 40
1.201131308198438
 41
1.201131308198438
  0
SEQEND
  5
3B3
  8
PROFILEEDGES
  0
POLYLINE
  5
A3
  8
PROFILEEDGES
 66
     1
 10
0.0
 20
0.0
 30
0.0
  0
VERTEX
  5
1E4
  8
PROFILEEDGES
 10
-87.69466647870304
 20
-131.322833521305
 30
0.0
 40
1.201131308198438
 41
1.201131308198438
  0
VERTEX
  5
1E5
  8
PROFILEEDGES
 10
-88.53593528857351
 20
-132.3078327423256
 30
0.0
 40
1.201131308198438
 41
1.201131308198438
  0
SEQEND
  5
3B4
  8
PROFILEEDGES
  0
LINE
  5
A4
  8
0
 10
-94.87887137555872
 20
-124.1386286244496
 30
0.0
 11
-96.75554795142322
 21
-126.335934579034
 31
0.0
  0
POLYLINE
  5
A5
  8
PROFILEEDGES
 66
     1
 10
0.0
 20
0.0
 30
0.0
  0
VERTEX
  5
1E6
  8
PROFILEEDGES
 10
-74.50224114283375
 20
-133.41230842465
 30
0.0
 40
1.201131308198438
 41
1.201131308198438
  0
VERTEX
  5
1E7
  8
PROFILEEDGES
 10
-75.17906471144302
 20
-132.3078327423256
 30
0.0
 40
1.201131308198438
 41
1.201131308198438
  0
SEQEND
  5
3B5
  8
PROFILEEDGES
  0
LINE
  5
A6
  8
0
 10
-65.44961485707934
 20
-128.7997649472961
 30
0.0
 11
-66.9594520485933
 21
-126.3359345790339
 31
0.0
  0
LINE
  5
A7
  8
0
 10
-92.68156542097479
 20
-122.2619520485852
 30
0.0
 11
-94.87887137555872
 21
-124.1386286244496
 31
0.0
  0
LINE
  5
A8
  8
0
 10
-99.37120574758364
 20
-131.4694520485852
 30
0.0
 11
-100.0457807920679
 21
-134.2792593262841
 31
0.0
  0
POLYLINE
  5
A9
  8
PROFILEEDGES
 66
     1
 10
0.0
 20
0.0
 30
0.0
  0
VERTEX
  5
1E8
  8
PROFILEEDGES
 10
-80.5661334911013
 20
-129.0066327483871
 30
0.0
 40
1.201131308198438
 41
1.201131308198438
  0
VERTEX
  5
1E9
  8
PROFILEEDGES
 10
-81.85750000000827
 20
-128.905
 30
0.0
 40
1.201131308198438
 41
1.201131308198438
  0
SEQEND
  5
3B6
  8
PROFILEEDGES
  0
POLYLINE
  5
AA
  8
PROFILEEDGES
 66
     1
 10
0.0
 20
0.0
 30
0.0
  0
VERTEX
  5
1EA
  8
PROFILEEDGES
 10
-78.84470060712474
 20
-144.8196611660343
 30
0.0
 40
1.201131308198438
 41
1.201131308198438
  0
VERTEX
  5
1EB
  8
PROFILEEDGES
 10
-79.9520838912824
 20
-145.1659469856746
 30
0.0
 40
1.201131308198438
 41
1.201131308198438
  0
SEQEND
  5
3B7
  8
PROFILEEDGES
  0
POLYLINE
  5
AB
  8
PROFILEEDGES
 66
     1
 10
0.0
 20
0.0
 30
0.0
  0
VERTEX
  5
1EC
  8
PROFILEEDGES
 10
-78.57941578509067
 20
-20.69700917717112
 30
0.0
 40
1.201131308198438
 41
1.201131308198438
  0
VERTEX
  5
1ED
  8
PROFILEEDGES
 10
-75.38204888288128
 20
-19.92938929896495
 30
0.0
 40
1.201131308198438
 41
1.201131308198438
  0
SEQEND
  5
3B8
  8
PROFILEEDGES
  0
POLYLINE
  5
AC
  8
PROFILEEDGES
 66
     1
 10
0.0
 20
0.0
 30
0.0
  0
VERTEX
  5
1EE
  8
PROFILEEDGES
 10
-75.38204888288128
 20
-19.92938929896495
 30
0.0
 40
1.201131308198438
 41
1.201131308198438
  0
VERTEX
  5
1EF
  8
PROFILEEDGES
 10
-72.34412907796649
 20
-18.67104171436724
 30
0.0
 40
1.201131308198438
 41
1.201131308198438
  0
SEQEND
  5
3B9
  8
PROFILEEDGES
  0
POLYLINE
  5
AD
  8
PROFILEEDGES
 66
     1
 10
0.0
 20
0.0
 30
0.0
  0
VERTEX
  5
1F0
  8
PROFILEEDGES
 10
-72.34412907796649
 20
-18.67104171436724
 30
0.0
 40
1.201131308198438
 41
1.201131308198438
  0
VERTEX
  5
1F1
  8
PROFILEEDGES
 10
-69.54046003821931
 20
-16.95295111712703
 30
0.0
 40
1.201131308198438
 41
1.201131308198438
  0
SEQEND
  5
3BA
  8
PROFILEEDGES
  0
POLYLINE
  5
AE
  8
PROFILEEDGES
 66
     1
 10
0.0
 20
0.0
 30
0.0
  0
VERTEX
  5
1F2
  8
PROFILEEDGES
 10
-69.54046003821931
 20
-16.95295111712703
 30
0.0
 40
1.201131308198438
 41
1.201131308198438
  0
VERTEX
  5
1F3
  8
PROFILEEDGES
 10
-67.04007740024426
 20
-14.81742259976412
 30
0.0
 40
1.201131308198438
 41
1.201131308198438
  0
SEQEND
  5
3BB
  8
PROFILEEDGES
  0
POLYLINE
  5
AF
  8
PROFILEEDGES
 66
     1
 10
0.0
 20
0.0
 30
0.0
  0
VERTEX
  5
1F4
  8
PROFILEEDGES
 10
-67.04007740024426
 20
-14.81742259976412
 30
0.0
 40
1.201131308198438
 41
1.201131308198438
  0
VERTEX
  5
1F5
  8
PROFILEEDGES
 10
-64.90454888288141
 20
-12.31703996178877
 30
0.0
 40
1.201131308198438
 41
1.201131308198438
  0
SEQEND
  5
3BC
  8
PROFILEEDGES
  0
POLYLINE
  5
B0
  8
PROFILEEDGES
 66
     1
 10
0.0
 20
0.0
 30
0.0
  0
VERTEX
  5
1F6
  8
PROFILEEDGES
 10
-81.85750000000827
 20
-20.955
 30
0.0
 40
1.201131308198438
 41
1.201131308198438
  0
VERTEX
  5
1F7
  8
PROFILEEDGES
 10
-78.57941578509067
 20
-20.69700917717112
 30
0.0
 40
1.201131308198438
 41
1.201131308198438
  0
SEQEND
  5
3BD
  8
PROFILEEDGES
  0
POLYLINE
  5
B1
  8
PROFILEEDGES
 66
     1
 10
0.0
 20
0.0
 30
0.0
  0
VERTEX
  5
1F8
  8
PROFILEEDGES
 10
82.53475325698086
 20
119.4379632658306
 30
0.0
 40
1.201131308198438
 41
1.201131308198438
  0
VERTEX
  5
1F9
  8
PROFILEEDGES
 10
61.8265979370979
 20
143.6840979371065
 30
0.0
 40
1.201131308198438
 41
1.201131308198438
  0
SEQEND
  5
3BE
  8
PROFILEEDGES
  0
POLYLINE
  5
B2
  8
PROFILEEDGES
 66
     1
 10
0.0
 20
0.0
 30
0.0
  0
VERTEX
  5
1FA
  8
PROFILEEDGES
 10
99.19502571506779
 20
92.25086954707592
 30
0.0
 40
1.201131308198438
 41
1.201131308198438
  0
VERTEX
  5
1FB
  8
PROFILEEDGES
 10
82.53475325698086
 20
119.4379632658306
 30
0.0
 40
1.201131308198438
 41
1.201131308198438
  0
SEQEND
  5
3BF
  8
PROFILEEDGES
  0
POLYLINE
  5
B3
  8
PROFILEEDGES
 66
     1
 10
0.0
 20
0.0
 30
0.0
  0
VERTEX
  5
1FC
  8
PROFILEEDGES
 10
111.397184111167
 20
62.79225325698934
 30
0.0
 40
1.201131308198438
 41
1.201131308198438
  0
VERTEX
  5
1FD
  8
PROFILEEDGES
 10
99.19502571506779
 20
92.25086954707592
 30
0.0
 40
1.201131308198438
 41
1.201131308198438
  0
SEQEND
  5
3C0
  8
PROFILEEDGES
  0
POLYLINE
  5
B4
  8
PROFILEEDGES
 66
     1
 10
0.0
 20
0.0
 30
0.0
  0
VERTEX
  5
1FE
  8
PROFILEEDGES
 10
118.8407708089238
 20
31.7874832961749
 30
0.0
 40
1.201131308198438
 41
1.201131308198438
  0
VERTEX
  5
1FF
  8
PROFILEEDGES
 10
111.397184111167
 20
62.79225325698934
 30
0.0
 40
1.201131308198438
 41
1.201131308198438
  0
SEQEND
  5
3C1
  8
PROFILEEDGES
  0
POLYLINE
  5
B5
  8
PROFILEEDGES
 66
     1
 10
0.0
 20
0.0
 30
0.0
  0
VERTEX
  5
200
  8
PROFILEEDGES
 10
121.3424999999917
 20
-0.0000000000000226
 30
0.0
 40
1.201131308198438
 41
1.201131308198438
  0
VERTEX
  5
201
  8
PROFILEEDGES
 10
118.8407708089238
 20
31.7874832961749
 30
0.0
 40
1.201131308198438
 41
1.201131308198438
  0
SEQEND
  5
3C2
  8
PROFILEEDGES
  0
POLYLINE
  5
B6
  8
PROFILEEDGES
 66
     1
 10
0.0
 20
0.0
 30
0.0
  0
VERTEX
  5
202
  8
PROFILEEDGES
 10
-64.90454888288141
 20
-12.31703996178877
 30
0.0
 40
1.201131308198438
 41
1.201131308198438
  0
VERTEX
  5
203
  8
PROFILEEDGES
 10
-63.18645828564091
 20
-9.513370922042215
 30
0.0
 40
1.201131308198438
 41
1.201131308198438
  0
SEQEND
  5
3C3
  8
PROFILEEDGES
  0
POLYLINE
  5
B7
  8
PROFILEEDGES
 66
     1
 10
0.0
 20
0.0
 30
0.0
  0
VERTEX
  5
204
  8
PROFILEEDGES
 10
-63.18645828564091
 20
-9.513370922042215
 30
0.0
 40
1.201131308198438
 41
1.201131308198438
  0
VERTEX
  5
205
  8
PROFILEEDGES
 10
-61.9281107010437
 20
-6.475451117127016
 30
0.0
 40
1.201131308198438
 41
1.201131308198438
  0
SEQEND
  5
3C4
  8
PROFILEEDGES
  0
POLYLINE
  5
B8
  8
PROFILEEDGES
 66
     1
 10
0.0
 20
0.0
 30
0.0
  0
VERTEX
  5
206
  8
PROFILEEDGES
 10
-61.9281107010437
 20
-6.475451117127016
 30
0.0
 40
1.201131308198438
 41
1.201131308198438
  0
VERTEX
  5
207
  8
PROFILEEDGES
 10
-61.160490822837
 20
-3.278084214918046
 30
0.0
 40
1.201131308198438
 41
1.201131308198438
  0
SEQEND
  5
3C5
  8
PROFILEEDGES
  0
POLYLINE
  5
B9
  8
PROFILEEDGES
 66
     1
 10
0.0
 20
0.0
 30
0.0
  0
VERTEX
  5
208
  8
PROFILEEDGES
 10
-61.160490822837
 20
-3.278084214918046
 30
0.0
 40
1.201131308198438
 41
1.201131308198438
  0
VERTEX
  5
209
  8
PROFILEEDGES
 10
-60.90250000000856
 20
-0.0000000000000226
 30
0.0
 40
1.201131308198438
 41
1.201131308198438
  0
SEQEND
  5
3C6
  8
PROFILEEDGES
  0
POLYLINE
  5
BA
  8
PROFILEEDGES
 66
     1
 10
0.0
 20
0.0
 30
0.0
  0
VERTEX
  5
20A
  8
PROFILEEDGES
 10
-60.90250000000856
 20
-0.0000000000000226
 30
0.0
 40
1.201131308198438
 41
1.201131308198438
  0
VERTEX
  5
20B
  8
PROFILEEDGES
 10
-61.160490822837
 20
3.278084214918024
 30
0.0
 40
1.201131308198438
 41
1.201131308198438
  0
SEQEND
  5
3C7
  8
PROFILEEDGES
  0
POLYLINE
  5
BB
  8
PROFILEEDGES
 66
     1
 10
0.0
 20
0.0
 30
0.0
  0
VERTEX
  5
20C
  8
PROFILEEDGES
 10
-61.160490822837
 20
3.278084214918024
 30
0.0
 40
1.201131308198438
 41
1.201131308198438
  0
VERTEX
  5
20D
  8
PROFILEEDGES
 10
-61.9281107010437
 20
6.475451117127016
 30
0.0
 40
1.201131308198438
 41
1.201131308198438
  0
SEQEND
  5
3C8
  8
PROFILEEDGES
  0
POLYLINE
  5
BC
  8
PROFILEEDGES
 66
     1
 10
0.0
 20
0.0
 30
0.0
  0
VERTEX
  5
20E
  8
PROFILEEDGES
 10
-102.5545091771795
 20
3.278084214918024
 30
0.0
 40
1.201131308198438
 41
1.201131308198438
  0
VERTEX
  5
20F
  8
PROFILEEDGES
 10
-102.8125000000087
 20
-0.0000000000000226
 30
0.0
 40
1.201131308198438
 41
1.201131308198438
  0
SEQEND
  5
3C9
  8
PROFILEEDGES
  0
POLYLINE
  5
BD
  8
PROFILEEDGES
 66
     1
 10
0.0
 20
0.0
 30
0.0
  0
VERTEX
  5
210
  8
PROFILEEDGES
 10
-81.85750000000827
 20
63.50000000000002
 30
0.0
 40
1.201131308198438
 41
1.201131308198438
  0
VERTEX
  5
211
  8
PROFILEEDGES
 10
-71.92391146995372
 20
62.71820962779125
 30
0.0
 40
1.201131308198438
 41
1.201131308198438
  0
SEQEND
  5
3CA
  8
PROFILEEDGES
  0
POLYLINE
  5
BE
  8
PROFILEEDGES
 66
     1
 10
0.0
 20
0.0
 30
0.0
  0
VERTEX
  5
212
  8
PROFILEEDGES
 10
-91.79108853006281
 20
62.71820962779125
 30
0.0
 40
1.201131308198438
 41
1.201131308198438
  0
VERTEX
  5
213
  8
PROFILEEDGES
 10
-81.85750000000827
 20
63.50000000000002
 30
0.0
 40
1.201131308198438
 41
1.201131308198438
  0
SEQEND
  5
3CB
  8
PROFILEEDGES
  0
POLYLINE
  5
BF
  8
PROFILEEDGES
 66
     1
 10
0.0
 20
0.0
 30
0.0
  0
VERTEX
  5
214
  8
PROFILEEDGES
 10
-101.4800791428177
 20
60.39208878474223
 30
0.0
 40
1.201131308198438
 41
1.201131308198438
  0
VERTEX
  5
215
  8
PROFILEEDGES
 10
-91.79108853006281
 20
62.71820962779125
 30
0.0
 40
1.201131308198438
 41
1.201131308198438
  0
SEQEND
  5
3CC
  8
PROFILEEDGES
  0
POLYLINE
  5
C0
  8
PROFILEEDGES
 66
     1
 10
0.0
 20
0.0
 30
0.0
  0
VERTEX
  5
216
  8
PROFILEEDGES
 10
-110.6858967334698
 20
56.57891428596133
 30
0.0
 40
1.201131308198438
 41
1.201131308198438
  0
VERTEX
  5
217
  8
PROFILEEDGES
 10
-101.4800791428177
 20
60.39208878474223
 30
0.0
 40
1.201131308198438
 41
1.201131308198438
  0
SEQEND
  5
3CD
  8
PROFILEEDGES
  0
POLYLINE
  5
C1
  8
PROFILEEDGES
 66
     1
 10
0.0
 20
0.0
 30
0.0
  0
VERTEX
  5
218
  8
PROFILEEDGES
 10
-119.1818635205804
 20
51.37257914280917
 30
0.0
 40
1.201131308198438
 41
1.201131308198438
  0
VERTEX
  5
219
  8
PROFILEEDGES
 10
-110.6858967334698
 20
56.57891428596133
 30
0.0
 40
1.201131308198438
 41
1.201131308198438
  0
SEQEND
  5
3CE
  8
PROFILEEDGES
  0
POLYLINE
  5
C2
  8
PROFILEEDGES
 66
     1
 10
0.0
 20
0.0
 30
0.0
  0
VERTEX
  5
21A
  8
PROFILEEDGES
 10
-126.7587806053544
 20
44.90128060534575
 30
0.0
 40
1.201131308198438
 41
1.201131308198438
  0
VERTEX
  5
21B
  8
PROFILEEDGES
 10
-119.1818635205804
 20
51.37257914280917
 30
0.0
 40
1.201131308198438
 41
1.201131308198438
  0
SEQEND
  5
3CF
  8
PROFILEEDGES
  0
POLYLINE
  5
C3
  8
PROFILEEDGES
 66
     1
 10
0.0
 20
0.0
 30
0.0
  0
VERTEX
  5
21C
  8
PROFILEEDGES
 10
-133.2300791428177
 20
37.32436352057204
 30
0.0
 40
1.201131308198438
 41
1.201131308198438
  0
VERTEX
  5
21D
  8
PROFILEEDGES
 10
-126.7587806053544
 20
44.90128060534575
 30
0.0
 40
1.201131308198438
 41
1.201131308198438
  0
SEQEND
  5
3D0
  8
PROFILEEDGES
  0
POLYLINE
  5
C4
  8
PROFILEEDGES
 66
     1
 10
0.0
 20
0.0
 30
0.0
  0
VERTEX
  5
21E
  8
PROFILEEDGES
 10
-138.4364142859696
 20
28.82839673346119
 30
0.0
 40
1.201131308198438
 41
1.201131308198438
  0
VERTEX
  5
21F
  8
PROFILEEDGES
 10
-133.2300791428177
 20
37.32436352057204
 30
0.0
 40
1.201131308198438
 41
1.201131308198438
  0
SEQEND
  5
3D1
  8
PROFILEEDGES
  0
POLYLINE
  5
C5
  8
PROFILEEDGES
 66
     1
 10
0.0
 20
0.0
 30
0.0
  0
VERTEX
  5
220
  8
PROFILEEDGES
 10
-142.2495887847509
 20
19.62257914280913
 30
0.0
 40
1.201131308198438
 41
1.201131308198438
  0
VERTEX
  5
221
  8
PROFILEEDGES
 10
-138.4364142859696
 20
28.82839673346119
 30
0.0
 40
1.201131308198438
 41
1.201131308198438
  0
SEQEND
  5
3D2
  8
PROFILEEDGES
  0
POLYLINE
  5
C6
  8
PROFILEEDGES
 66
     1
 10
0.0
 20
0.0
 30
0.0
  0
VERTEX
  5
222
  8
PROFILEEDGES
 10
-144.5757096277996
 20
9.933588530054656
 30
0.0
 40
1.201131308198438
 41
1.201131308198438
  0
VERTEX
  5
223
  8
PROFILEEDGES
 10
-142.2495887847509
 20
19.62257914280913
 30
0.0
 40
1.201131308198438
 41
1.201131308198438
  0
SEQEND
  5
3D3
  8
PROFILEEDGES
  0
POLYLINE
  5
C7
  8
PROFILEEDGES
 66
     1
 10
0.0
 20
0.0
 30
0.0
  0
VERTEX
  5
224
  8
PROFILEEDGES
 10
-145.3575000000083
 20
-0.0000000000000226
 30
0.0
 40
1.201131308198438
 41
1.201131308198438
  0
VERTEX
  5
225
  8
PROFILEEDGES
 10
-144.5757096277996
 20
9.933588530054656
 30
0.0
 40
1.201131308198438
 41
1.201131308198438
  0
SEQEND
  5
3D4
  8
PROFILEEDGES
  0
POLYLINE
  5
C8
  8
PROFILEEDGES
 66
     1
 10
0.0
 20
0.0
 30
0.0
  0
VERTEX
  5
226
  8
PROFILEEDGES
 10
-144.5757096277996
 20
-9.93358853005468
 30
0.0
 40
1.201131308198438
 41
1.201131308198438
  0
VERTEX
  5
227
  8
PROFILEEDGES
 10
-145.3575000000083
 20
-0.0000000000000226
 30
0.0
 40
1.201131308198438
 41
1.201131308198438
  0
SEQEND
  5
3D5
  8
PROFILEEDGES
  0
POLYLINE
  5
C9
  8
PROFILEEDGES
 66
     1
 10
0.0
 20
0.0
 30
0.0
  0
VERTEX
  5
228
  8
PROFILEEDGES
 10
-142.2495887847509
 20
-19.62257914280917
 30
0.0
 40
1.201131308198438
 41
1.201131308198438
  0
VERTEX
  5
229
  8
PROFILEEDGES
 10
-144.5757096277996
 20
-9.93358853005468
 30
0.0
 40
1.201131308198438
 41
1.201131308198438
  0
SEQEND
  5
3D6
  8
PROFILEEDGES
  0
POLYLINE
  5
CA
  8
PROFILEEDGES
 66
     1
 10
0.0
 20
0.0
 30
0.0
  0
VERTEX
  5
22A
  8
PROFILEEDGES
 10
-138.4364142859696
 20
-28.82839673346124
 30
0.0
 40
1.201131308198438
 41
1.201131308198438
  0
VERTEX
  5
22B
  8
PROFILEEDGES
 10
-142.2495887847509
 20
-19.62257914280917
 30
0.0
 40
1.201131308198438
 41
1.201131308198438
  0
SEQEND
  5
3D7
  8
PROFILEEDGES
  0
POLYLINE
  5
CB
  8
PROFILEEDGES
 66
     1
 10
0.0
 20
0.0
 30
0.0
  0
VERTEX
  5
22C
  8
PROFILEEDGES
 10
-133.2300791428177
 20
-37.32436352057206
 30
0.0
 40
1.201131308198438
 41
1.201131308198438
  0
VERTEX
  5
22D
  8
PROFILEEDGES
 10
-138.4364142859696
 20
-28.82839673346124
 30
0.0
 40
1.201131308198438
 41
1.201131308198438
  0
SEQEND
  5
3D8
  8
PROFILEEDGES
  0
POLYLINE
  5
CC
  8
PROFILEEDGES
 66
     1
 10
0.0
 20
0.0
 30
0.0
  0
VERTEX
  5
22E
  8
PROFILEEDGES
 10
-126.7587806053544
 20
-44.90128060534577
 30
0.0
 40
1.201131308198438
 41
1.201131308198438
  0
VERTEX
  5
22F
  8
PROFILEEDGES
 10
-133.2300791428177
 20
-37.32436352057206
 30
0.0
 40
1.201131308198438
 41
1.201131308198438
  0
SEQEND
  5
3D9
  8
PROFILEEDGES
  0
POLYLINE
  5
CD
  8
PROFILEEDGES
 66
     1
 10
0.0
 20
0.0
 30
0.0
  0
VERTEX
  5
230
  8
PROFILEEDGES
 10
-119.1818635205804
 20
-51.37257914280915
 30
0.0
 40
1.201131308198438
 41
1.201131308198438
  0
VERTEX
  5
231
  8
PROFILEEDGES
 10
-126.7587806053544
 20
-44.90128060534577
 30
0.0
 40
1.201131308198438
 41
1.201131308198438
  0
SEQEND
  5
3DA
  8
PROFILEEDGES
  0
POLYLINE
  5
CE
  8
PROFILEEDGES
 66
     1
 10
0.0
 20
0.0
 30
0.0
  0
VERTEX
  5
232
  8
PROFILEEDGES
 10
-110.6858967334698
 20
-56.57891428596136
 30
0.0
 40
1.201131308198438
 41
1.201131308198438
  0
VERTEX
  5
233
  8
PROFILEEDGES
 10
-119.1818635205804
 20
-51.37257914280915
 30
0.0
 40
1.201131308198438
 41
1.201131308198438
  0
SEQEND
  5
3DB
  8
PROFILEEDGES
  0
POLYLINE
  5
CF
  8
PROFILEEDGES
 66
     1
 10
0.0
 20
0.0
 30
0.0
  0
VERTEX
  5
234
  8
PROFILEEDGES
 10
-101.4800791428177
 20
-60.39208878474226
 30
0.0
 40
1.201131308198438
 41
1.201131308198438
  0
VERTEX
  5
235
  8
PROFILEEDGES
 10
-110.6858967334698
 20
-56.57891428596136
 30
0.0
 40
1.201131308198438
 41
1.201131308198438
  0
SEQEND
  5
3DC
  8
PROFILEEDGES
  0
POLYLINE
  5
D0
  8
PROFILEEDGES
 66
     1
 10
0.0
 20
0.0
 30
0.0
  0
VERTEX
  5
236
  8
PROFILEEDGES
 10
-91.79108853006281
 20
-62.71820962779125
 30
0.0
 40
1.201131308198438
 41
1.201131308198438
  0
VERTEX
  5
237
  8
PROFILEEDGES
 10
-101.4800791428177
 20
-60.39208878474226
 30
0.0
 40
1.201131308198438
 41
1.201131308198438
  0
SEQEND
  5
3DD
  8
PROFILEEDGES
  0
POLYLINE
  5
D1
  8
PROFILEEDGES
 66
     1
 10
0.0
 20
0.0
 30
0.0
  0
VERTEX
  5
238
  8
PROFILEEDGES
 10
-81.85750000000827
 20
-63.5
 30
0.0
 40
1.201131308198438
 41
1.201131308198438
  0
VERTEX
  5
239
  8
PROFILEEDGES
 10
-91.79108853006281
 20
-62.71820962779125
 30
0.0
 40
1.201131308198438
 41
1.201131308198438
  0
SEQEND
  5
3DE
  8
PROFILEEDGES
  0
POLYLINE
  5
D2
  8
PROFILEEDGES
 66
     1
 10
0.0
 20
0.0
 30
0.0
  0
VERTEX
  5
23A
  8
PROFILEEDGES
 10
-71.92391146995372
 20
-62.71820962779123
 30
0.0
 40
1.201131308198438
 41
1.201131308198438
  0
VERTEX
  5
23B
  8
PROFILEEDGES
 10
-81.85750000000827
 20
-63.5
 30
0.0
 40
1.201131308198438
 41
1.201131308198438
  0
SEQEND
  5
3DF
  8
PROFILEEDGES
  0
POLYLINE
  5
D3
  8
PROFILEEDGES
 66
     1
 10
0.0
 20
0.0
 30
0.0
  0
VERTEX
  5
23C
  8
PROFILEEDGES
 10
-62.23492085719957
 20
-60.39208878474223
 30
0.0
 40
1.201131308198438
 41
1.201131308198438
  0
VERTEX
  5
23D
  8
PROFILEEDGES
 10
-71.92391146995372
 20
-62.71820962779123
 30
0.0
 40
1.201131308198438
 41
1.201131308198438
  0
SEQEND
  5
3E0
  8
PROFILEEDGES
  0
POLYLINE
  5
D4
  8
PROFILEEDGES
 66
     1
 10
0.0
 20
0.0
 30
0.0
  0
VERTEX
  5
23E
  8
PROFILEEDGES
 10
-53.02910326654741
 20
-56.57891428596133
 30
0.0
 40
1.201131308198438
 41
1.201131308198438
  0
VERTEX
  5
23F
  8
PROFILEEDGES
 10
-62.23492085719957
 20
-60.39208878474223
 30
0.0
 40
1.201131308198438
 41
1.201131308198438
  0
SEQEND
  5
3E1
  8
PROFILEEDGES
  0
POLYLINE
  5
D5
  8
PROFILEEDGES
 66
     1
 10
0.0
 20
0.0
 30
0.0
  0
VERTEX
  5
240
  8
PROFILEEDGES
 10
-44.53313647943617
 20
-51.37257914280915
 30
0.0
 40
1.201131308198438
 41
1.201131308198438
  0
VERTEX
  5
241
  8
PROFILEEDGES
 10
-53.02910326654741
 20
-56.57891428596133
 30
0.0
 40
1.201131308198438
 41
1.201131308198438
  0
SEQEND
  5
3E2
  8
PROFILEEDGES
  0
POLYLINE
  5
D6
  8
PROFILEEDGES
 66
     1
 10
0.0
 20
0.0
 30
0.0
  0
VERTEX
  5
242
  8
PROFILEEDGES
 10
-36.95621939466286
 20
-44.90128060534575
 30
0.0
 40
1.201131308198438
 41
1.201131308198438
  0
VERTEX
  5
243
  8
PROFILEEDGES
 10
-44.53313647943617
 20
-51.37257914280915
 30
0.0
 40
1.201131308198438
 41
1.201131308198438
  0
SEQEND
  5
3E3
  8
PROFILEEDGES
  0
POLYLINE
  5
D7
  8
PROFILEEDGES
 66
     1
 10
0.0
 20
0.0
 30
0.0
  0
VERTEX
  5
244
  8
PROFILEEDGES
 10
-30.48492085719957
 20
-37.32436352057204
 30
0.0
 40
1.201131308198438
 41
1.201131308198438
  0
VERTEX
  5
245
  8
PROFILEEDGES
 10
-36.95621939466286
 20
-44.90128060534575
 30
0.0
 40
1.201131308198438
 41
1.201131308198438
  0
SEQEND
  5
3E4
  8
PROFILEEDGES
  0
POLYLINE
  5
D8
  8
PROFILEEDGES
 66
     1
 10
0.0
 20
0.0
 30
0.0
  0
VERTEX
  5
246
  8
PROFILEEDGES
 10
-25.27858571404695
 20
-28.82839673346122
 30
0.0
 40
1.201131308198438
 41
1.201131308198438
  0
VERTEX
  5
247
  8
PROFILEEDGES
 10
-30.48492085719957
 20
-37.32436352057204
 30
0.0
 40
1.201131308198438
 41
1.201131308198438
  0
SEQEND
  5
3E5
  8
PROFILEEDGES
  0
POLYLINE
  5
D9
  8
PROFILEEDGES
 66
     1
 10
0.0
 20
0.0
 30
0.0
  0
VERTEX
  5
248
  8
PROFILEEDGES
 10
-21.46541121526637
 20
-19.62257914280915
 30
0.0
 40
1.201131308198438
 41
1.201131308198438
  0
VERTEX
  5
249
  8
PROFILEEDGES
 10
-25.27858571404695
 20
-28.82839673346122
 30
0.0
 40
1.201131308198438
 41
1.201131308198438
  0
SEQEND
  5
3E6
  8
PROFILEEDGES
  0
POLYLINE
  5
DA
  8
PROFILEEDGES
 66
     1
 10
0.0
 20
0.0
 30
0.0
  0
VERTEX
  5
24A
  8
PROFILEEDGES
 10
-19.13929037221695
 20
-9.933588530054656
 30
0.0
 40
1.201131308198438
 41
1.201131308198438
  0
VERTEX
  5
24B
  8
PROFILEEDGES
 10
-21.46541121526637
 20
-19.62257914280915
 30
0.0
 40
1.201131308198438
 41
1.201131308198438
  0
SEQEND
  5
3E7
  8
PROFILEEDGES
  0
POLYLINE
  5
DB
  8
PROFILEEDGES
 66
     1
 10
0.0
 20
0.0
 30
0.0
  0
VERTEX
  5
24C
  8
PROFILEEDGES
 10
-18.35750000000827
 20
-0.0000000000000226
 30
0.0
 40
1.201131308198438
 41
1.201131308198438
  0
VERTEX
  5
24D
  8
PROFILEEDGES
 10
-19.13929037221695
 20
-9.933588530054656
 30
0.0
 40
1.201131308198438
 41
1.201131308198438
  0
SEQEND
  5
3E8
  8
PROFILEEDGES
  0
POLYLINE
  5
DC
  8
PROFILEEDGES
 66
     1
 10
0.0
 20
0.0
 30
0.0
  0
VERTEX
  5
24E
  8
PROFILEEDGES
 10
-19.13929037221695
 20
9.933588530054656
 30
0.0
 40
1.201131308198438
 41
1.201131308198438
  0
VERTEX
  5
24F
  8
PROFILEEDGES
 10
-18.35750000000827
 20
-0.0000000000000226
 30
0.0
 40
1.201131308198438
 41
1.201131308198438
  0
SEQEND
  5
3E9
  8
PROFILEEDGES
  0
POLYLINE
  5
DD
  8
PROFILEEDGES
 66
     1
 10
0.0
 20
0.0
 30
0.0
  0
VERTEX
  5
250
  8
PROFILEEDGES
 10
-21.46541121526637
 20
19.62257914280917
 30
0.0
 40
1.201131308198438
 41
1.201131308198438
  0
VERTEX
  5
251
  8
PROFILEEDGES
 10
-19.13929037221695
 20
9.933588530054656
 30
0.0
 40
1.201131308198438
 41
1.201131308198438
  0
SEQEND
  5
3EA
  8
PROFILEEDGES
  0
POLYLINE
  5
DE
  8
PROFILEEDGES
 66
     1
 10
0.0
 20
0.0
 30
0.0
  0
VERTEX
  5
252
  8
PROFILEEDGES
 10
-25.27858571404695
 20
28.82839673346124
 30
0.0
 40
1.201131308198438
 41
1.201131308198438
  0
VERTEX
  5
253
  8
PROFILEEDGES
 10
-21.46541121526637
 20
19.62257914280917
 30
0.0
 40
1.201131308198438
 41
1.201131308198438
  0
SEQEND
  5
3EB
  8
PROFILEEDGES
  0
POLYLINE
  5
DF
  8
PROFILEEDGES
 66
     1
 10
0.0
 20
0.0
 30
0.0
  0
VERTEX
  5
254
  8
PROFILEEDGES
 10
-30.48492085719957
 20
37.32436352057204
 30
0.0
 40
1.201131308198438
 41
1.201131308198438
  0
VERTEX
  5
255
  8
PROFILEEDGES
 10
-25.27858571404695
 20
28.82839673346124
 30
0.0
 40
1.201131308198438
 41
1.201131308198438
  0
SEQEND
  5
3EC
  8
PROFILEEDGES
  0
POLYLINE
  5
E0
  8
PROFILEEDGES
 66
     1
 10
0.0
 20
0.0
 30
0.0
  0
VERTEX
  5
256
  8
PROFILEEDGES
 10
-36.95621939466286
 20
44.90128060534575
 30
0.0
 40
1.201131308198438
 41
1.201131308198438
  0
VERTEX
  5
257
  8
PROFILEEDGES
 10
-30.48492085719957
 20
37.32436352057204
 30
0.0
 40
1.201131308198438
 41
1.201131308198438
  0
SEQEND
  5
3ED
  8
PROFILEEDGES
  0
POLYLINE
  5
E1
  8
PROFILEEDGES
 66
     1
 10
0.0
 20
0.0
 30
0.0
  0
VERTEX
  5
258
  8
PROFILEEDGES
 10
-44.53313647943617
 20
51.37257914280917
 30
0.0
 40
1.201131308198438
 41
1.201131308198438
  0
VERTEX
  5
259
  8
PROFILEEDGES
 10
-36.95621939466286
 20
44.90128060534575
 30
0.0
 40
1.201131308198438
 41
1.201131308198438
  0
SEQEND
  5
3EE
  8
PROFILEEDGES
  0
POLYLINE
  5
E2
  8
PROFILEEDGES
 66
     1
 10
0.0
 20
0.0
 30
0.0
  0
VERTEX
  5
25A
  8
PROFILEEDGES
 10
-53.02910326654741
 20
56.57891428596133
 30
0.0
 40
1.201131308198438
 41
1.201131308198438
  0
VERTEX
  5
25B
  8
PROFILEEDGES
 10
-44.53313647943617
 20
51.37257914280917
 30
0.0
 40
1.201131308198438
 41
1.201131308198438
  0
SEQEND
  5
3EF
  8
PROFILEEDGES
  0
POLYLINE
  5
E3
  8
PROFILEEDGES
 66
     1
 10
0.0
 20
0.0
 30
0.0
  0
VERTEX
  5
25C
  8
PROFILEEDGES
 10
-62.23492085719957
 20
60.39208878474223
 30
0.0
 40
1.201131308198438
 41
1.201131308198438
  0
VERTEX
  5
25D
  8
PROFILEEDGES
 10
-53.02910326654741
 20
56.57891428596133
 30
0.0
 40
1.201131308198438
 41
1.201131308198438
  0
SEQEND
  5
3F0
  8
PROFILEEDGES
  0
POLYLINE
  5
E4
  8
PROFILEEDGES
 66
     1
 10
0.0
 20
0.0
 30
0.0
  0
VERTEX
  5
25E
  8
PROFILEEDGES
 10
-69.54046003821931
 20
16.95295111712701
 30
0.0
 40
1.201131308198438
 41
1.201131308198438
  0
VERTEX
  5
25F
  8
PROFILEEDGES
 10
-72.34412907796649
 20
18.67104171436724
 30
0.0
 40
1.201131308198438
 41
1.201131308198438
  0
SEQEND
  5
3F1
  8
PROFILEEDGES
  0
POLYLINE
  5
E5
  8
PROFILEEDGES
 66
     1
 10
0.0
 20
0.0
 30
0.0
  0
VERTEX
  5
260
  8
PROFILEEDGES
 10
-67.04007740024426
 20
14.81742259976412
 30
0.0
 40
1.201131308198438
 41
1.201131308198438
  0
VERTEX
  5
261
  8
PROFILEEDGES
 10
-69.54046003821931
 20
16.95295111712701
 30
0.0
 40
1.201131308198438
 41
1.201131308198438
  0
SEQEND
  5
3F2
  8
PROFILEEDGES
  0
POLYLINE
  5
E6
  8
PROFILEEDGES
 66
     1
 10
0.0
 20
0.0
 30
0.0
  0
VERTEX
  5
262
  8
PROFILEEDGES
 10
-64.90454888288141
 20
12.31703996178879
 30
0.0
 40
1.201131308198438
 41
1.201131308198438
  0
VERTEX
  5
263
  8
PROFILEEDGES
 10
-67.04007740024426
 20
14.81742259976412
 30
0.0
 40
1.201131308198438
 41
1.201131308198438
  0
SEQEND
  5
3F3
  8
PROFILEEDGES
  0
POLYLINE
  5
E7
  8
PROFILEEDGES
 66
     1
 10
0.0
 20
0.0
 30
0.0
  0
VERTEX
  5
264
  8
PROFILEEDGES
 10
-63.18645828564091
 20
9.513370922042215
 30
0.0
 40
1.201131308198438
 41
1.201131308198438
  0
VERTEX
  5
265
  8
PROFILEEDGES
 10
-64.90454888288141
 20
12.31703996178879
 30
0.0
 40
1.201131308198438
 41
1.201131308198438
  0
SEQEND
  5
3F4
  8
PROFILEEDGES
  0
POLYLINE
  5
E8
  8
PROFILEEDGES
 66
     1
 10
0.0
 20
0.0
 30
0.0
  0
VERTEX
  5
266
  8
PROFILEEDGES
 10
-61.9281107010437
 20
6.475451117127016
 30
0.0
 40
1.201131308198438
 41
1.201131308198438
  0
VERTEX
  5
267
  8
PROFILEEDGES
 10
-63.18645828564091
 20
9.513370922042215
 30
0.0
 40
1.201131308198438
 41
1.201131308198438
  0
SEQEND
  5
3F5
  8
PROFILEEDGES
  0
POLYLINE
  5
E9
  8
PROFILEEDGES
 66
     1
 10
0.0
 20
0.0
 30
0.0
  0
VERTEX
  5
268
  8
PROFILEEDGES
 10
-85.13558421492658
 20
-20.69700917717112
 30
0.0
 40
1.201131308198438
 41
1.201131308198438
  0
VERTEX
  5
269
  8
PROFILEEDGES
 10
-81.85750000000827
 20
-20.955
 30
0.0
 40
1.201131308198438
 41
1.201131308198438
  0
SEQEND
  5
3F6
  8
PROFILEEDGES
  0
POLYLINE
  5
EA
  8
PROFILEEDGES
 66
     1
 10
0.0
 20
0.0
 30
0.0
  0
VERTEX
  5
26A
  8
PROFILEEDGES
 10
-88.33295111713525
 20
-19.92938929896495
 30
0.0
 40
1.201131308198438
 41
1.201131308198438
  0
VERTEX
  5
26B
  8
PROFILEEDGES
 10
-85.13558421492658
 20
-20.69700917717112
 30
0.0
 40
1.201131308198438
 41
1.201131308198438
  0
SEQEND
  5
3F7
  8
PROFILEEDGES
  0
POLYLINE
  5
EB
  8
PROFILEEDGES
 66
     1
 10
0.0
 20
0.0
 30
0.0
  0
VERTEX
  5
26C
  8
PROFILEEDGES
 10
-91.37087092205077
 20
-18.67104171436727
 30
0.0
 40
1.201131308198438
 41
1.201131308198438
  0
VERTEX
  5
26D
  8
PROFILEEDGES
 10
-88.33295111713525
 20
-19.92938929896495
 30
0.0
 40
1.201131308198438
 41
1.201131308198438
  0
SEQEND
  5
3F8
  8
PROFILEEDGES
  0
POLYLINE
  5
EC
  8
PROFILEEDGES
 66
     1
 10
0.0
 20
0.0
 30
0.0
  0
VERTEX
  5
26E
  8
PROFILEEDGES
 10
-94.17453996179722
 20
-16.95295111712703
 30
0.0
 40
1.201131308198438
 41
1.201131308198438
  0
VERTEX
  5
26F
  8
PROFILEEDGES
 10
-91.37087092205077
 20
-18.67104171436727
 30
0.0
 40
1.201131308198438
 41
1.201131308198438
  0
SEQEND
  5
3F9
  8
PROFILEEDGES
  0
POLYLINE
  5
ED
  8
PROFILEEDGES
 66
     1
 10
0.0
 20
0.0
 30
0.0
  0
VERTEX
  5
270
  8
PROFILEEDGES
 10
-96.67492259977227
 20
-14.81742259976412
 30
0.0
 40
1.201131308198438
 41
1.201131308198438
  0
VERTEX
  5
271
  8
PROFILEEDGES
 10
-94.17453996179722
 20
-16.95295111712703
 30
0.0
 40
1.201131308198438
 41
1.201131308198438
  0
SEQEND
  5
3FA
  8
PROFILEEDGES
  0
POLYLINE
  5
EE
  8
PROFILEEDGES
 66
     1
 10
0.0
 20
0.0
 30
0.0
  0
VERTEX
  5
272
  8
PROFILEEDGES
 10
-98.81045111713512
 20
-12.31703996178877
 30
0.0
 40
1.201131308198438
 41
1.201131308198438
  0
VERTEX
  5
273
  8
PROFILEEDGES
 10
-96.67492259977227
 20
-14.81742259976412
 30
0.0
 40
1.201131308198438
 41
1.201131308198438
  0
SEQEND
  5
3FB
  8
PROFILEEDGES
  0
POLYLINE
  5
EF
  8
PROFILEEDGES
 66
     1
 10
0.0
 20
0.0
 30
0.0
  0
VERTEX
  5
274
  8
PROFILEEDGES
 10
-100.5285417143756
 20
-9.513370922042215
 30
0.0
 40
1.201131308198438
 41
1.201131308198438
  0
VERTEX
  5
275
  8
PROFILEEDGES
 10
-98.81045111713512
 20
-12.31703996178877
 30
0.0
 40
1.201131308198438
 41
1.201131308198438
  0
SEQEND
  5
3FC
  8
PROFILEEDGES
  0
POLYLINE
  5
F0
  8
PROFILEEDGES
 66
     1
 10
0.0
 20
0.0
 30
0.0
  0
VERTEX
  5
276
  8
PROFILEEDGES
 10
-101.7868892989735
 20
-6.475451117127038
 30
0.0
 40
1.201131308198438
 41
1.201131308198438
  0
VERTEX
  5
277
  8
PROFILEEDGES
 10
-100.5285417143756
 20
-9.513370922042215
 30
0.0
 40
1.201131308198438
 41
1.201131308198438
  0
SEQEND
  5
3FD
  8
PROFILEEDGES
  0
POLYLINE
  5
F1
  8
PROFILEEDGES
 66
     1
 10
0.0
 20
0.0
 30
0.0
  0
VERTEX
  5
278
  8
PROFILEEDGES
 10
-102.5545091771795
 20
-3.278084214918046
 30
0.0
 40
1.201131308198438
 41
1.201131308198438
  0
VERTEX
  5
279
  8
PROFILEEDGES
 10
-101.7868892989735
 20
-6.475451117127038
 30
0.0
 40
1.201131308198438
 41
1.201131308198438
  0
SEQEND
  5
3FE
  8
PROFILEEDGES
  0
POLYLINE
  5
F2
  8
PROFILEEDGES
 66
     1
 10
0.0
 20
0.0
 30
0.0
  0
VERTEX
  5
27A
  8
PROFILEEDGES
 10
-102.8125000000087
 20
-0.0000000000000226
 30
0.0
 40
1.201131308198438
 41
1.201131308198438
  0
VERTEX
  5
27B
  8
PROFILEEDGES
 10
-102.5545091771795
 20
-3.278084214918046
 30
0.0
 40
1.201131308198438
 41
1.201131308198438
  0
SEQEND
  5
3FF
  8
PROFILEEDGES
  0
POLYLINE
  5
F3
  8
PROFILEEDGES
 66
     1
 10
0.0
 20
0.0
 30
0.0
  0
VERTEX
  5
27C
  8
PROFILEEDGES
 10
-101.7868892989735
 20
6.475451117127016
 30
0.0
 40
1.201131308198438
 41
1.201131308198438
  0
VERTEX
  5
27D
  8
PROFILEEDGES
 10
-102.5545091771795
 20
3.278084214918024
 30
0.0
 40
1.201131308198438
 41
1.201131308198438
  0
SEQEND
  5
400
  8
PROFILEEDGES
  0
POLYLINE
  5
F4
  8
PROFILEEDGES
 66
     1
 10
0.0
 20
0.0
 30
0.0
  0
VERTEX
  5
27E
  8
PROFILEEDGES
 10
-100.5285417143756
 20
9.513370922042215
 30
0.0
 40
1.201131308198438
 41
1.201131308198438
  0
VERTEX
  5
27F
  8
PROFILEEDGES
 10
-101.7868892989735
 20
6.475451117127016
 30
0.0
 40
1.201131308198438
 41
1.201131308198438
  0
SEQEND
  5
401
  8
PROFILEEDGES
  0
POLYLINE
  5
F5
  8
PROFILEEDGES
 66
     1
 10
0.0
 20
0.0
 30
0.0
  0
VERTEX
  5
280
  8
PROFILEEDGES
 10
-98.81045111713584
 20
12.31703996178875
 30
0.0
 40
1.201131308198438
 41
1.201131308198438
  0
VERTEX
  5
281
  8
PROFILEEDGES
 10
-100.5285417143756
 20
9.513370922042215
 30
0.0
 40
1.201131308198438
 41
1.201131308198438
  0
SEQEND
  5
402
  8
PROFILEEDGES
  0
POLYLINE
  5
F6
  8
PROFILEEDGES
 66
     1
 10
0.0
 20
0.0
 30
0.0
  0
VERTEX
  5
282
  8
PROFILEEDGES
 10
-96.67492259977227
 20
14.81742259976412
 30
0.0
 40
1.201131308198438
 41
1.201131308198438
  0
VERTEX
  5
283
  8
PROFILEEDGES
 10
-98.81045111713584
 20
12.31703996178875
 30
0.0
 40
1.201131308198438
 41
1.201131308198438
  0
SEQEND
  5
403
  8
PROFILEEDGES
  0
POLYLINE
  5
F7
  8
PROFILEEDGES
 66
     1
 10
0.0
 20
0.0
 30
0.0
  0
VERTEX
  5
284
  8
PROFILEEDGES
 10
-94.17453996179722
 20
16.95295111712701
 30
0.0
 40
1.201131308198438
 41
1.201131308198438
  0
VERTEX
  5
285
  8
PROFILEEDGES
 10
-96.67492259977227
 20
14.81742259976412
 30
0.0
 40
1.201131308198438
 41
1.201131308198438
  0
SEQEND
  5
404
  8
PROFILEEDGES
  0
POLYLINE
  5
F8
  8
PROFILEEDGES
 66
     1
 10
0.0
 20
0.0
 30
0.0
  0
VERTEX
  5
286
  8
PROFILEEDGES
 10
-91.37087092205077
 20
18.67104171436724
 30
0.0
 40
1.201131308198438
 41
1.201131308198438
  0
VERTEX
  5
287
  8
PROFILEEDGES
 10
-94.17453996179722
 20
16.95295111712701
 30
0.0
 40
1.201131308198438
 41
1.201131308198438
  0
SEQEND
  5
405
  8
PROFILEEDGES
  0
POLYLINE
  5
F9
  8
PROFILEEDGES
 66
     1
 10
0.0
 20
0.0
 30
0.0
  0
VERTEX
  5
288
  8
PROFILEEDGES
 10
-88.33295111713525
 20
19.92938929896495
 30
0.0
 40
1.201131308198438
 41
1.201131308198438
  0
VERTEX
  5
289
  8
PROFILEEDGES
 10
-91.37087092205077
 20
18.67104171436724
 30
0.0
 40
1.201131308198438
 41
1.201131308198438
  0
SEQEND
  5
406
  8
PROFILEEDGES
  0
POLYLINE
  5
FA
  8
PROFILEEDGES
 66
     1
 10
0.0
 20
0.0
 30
0.0
  0
VERTEX
  5
28A
  8
PROFILEEDGES
 10
-85.13558421492658
 20
20.6970091771711
 30
0.0
 40
1.201131308198438
 41
1.201131308198438
  0
VERTEX
  5
28B
  8
PROFILEEDGES
 10
-88.33295111713525
 20
19.92938929896495
 30
0.0
 40
1.201131308198438
 41
1.201131308198438
  0
SEQEND
  5
407
  8
PROFILEEDGES
  0
POLYLINE
  5
FB
  8
PROFILEEDGES
 66
     1
 10
0.0
 20
0.0
 30
0.0
  0
VERTEX
  5
28C
  8
PROFILEEDGES
 10
-81.85750000000827
 20
20.955
 30
0.0
 40
1.201131308198438
 41
1.201131308198438
  0
VERTEX
  5
28D
  8
PROFILEEDGES
 10
-85.13558421492658
 20
20.6970091771711
 30
0.0
 40
1.201131308198438
 41
1.201131308198438
  0
SEQEND
  5
408
  8
PROFILEEDGES
  0
POLYLINE
  5
FC
  8
PROFILEEDGES
 66
     1
 10
0.0
 20
0.0
 30
0.0
  0
VERTEX
  5
28E
  8
PROFILEEDGES
 10
-78.57941578509067
 20
20.6970091771711
 30
0.0
 40
1.201131308198438
 41
1.201131308198438
  0
VERTEX
  5
28F
  8
PROFILEEDGES
 10
-81.85750000000827
 20
20.955
 30
0.0
 40
1.201131308198438
 41
1.201131308198438
  0
SEQEND
  5
409
  8
PROFILEEDGES
  0
POLYLINE
  5
FD
  8
PROFILEEDGES
 66
     1
 10
0.0
 20
0.0
 30
0.0
  0
VERTEX
  5
290
  8
PROFILEEDGES
 10
-75.38204888288128
 20
19.92938929896495
 30
0.0
 40
1.201131308198438
 41
1.201131308198438
  0
VERTEX
  5
291
  8
PROFILEEDGES
 10
-78.57941578509067
 20
20.6970091771711
 30
0.0
 40
1.201131308198438
 41
1.201131308198438
  0
SEQEND
  5
40A
  8
PROFILEEDGES
  0
POLYLINE
  5
FE
  8
PROFILEEDGES
 66
     1
 10
0.0
 20
0.0
 30
0.0
  0
VERTEX
  5
292
  8
PROFILEEDGES
 10
-71.92391146995372
 20
62.71820962779125
 30
0.0
 40
1.201131308198438
 41
1.201131308198438
  0
VERTEX
  5
293
  8
PROFILEEDGES
 10
-62.23492085719957
 20
60.39208878474223
 30
0.0
 40
1.201131308198438
 41
1.201131308198438
  0
SEQEND
  5
40B
  8
PROFILEEDGES
  0
POLYLINE
  5
FF
  8
PROFILEEDGES
 66
     1
 10
0.0
 20
0.0
 30
0.0
  0
VERTEX
  5
294
  8
PROFILEEDGES
 10
-72.34412907796649
 20
18.67104171436724
 30
0.0
 40
1.201131308198438
 41
1.201131308198438
  0
VERTEX
  5
295
  8
PROFILEEDGES
 10
-75.38204888288128
 20
19.92938929896495
 30
0.0
 40
1.201131308198438
 41
1.201131308198438
  0
SEQEND
  5
40C
  8
PROFILEEDGES
  0
LINE
  5
100
  8
0
 10
-98.26538514293719
 20
145.5202350527037
 30
0.0
 11
-99.37120574758364
 21
142.8505479514146
 31
0.0
  0
LINE
  5
101
  8
0
 10
-99.37120574758364
 20
142.8505479514146
 30
0.0
 11
-100.0457807920679
 21
140.0407406737158
 31
0.0
  0
LINE
  5
102
  8
0
 10
-100.0457807920679
 20
140.0407406737158
 30
0.0
 11
-100.2725000000081
 21
137.1599999999999
 31
0.0
  0
LINE
  5
103
  8
0
 10
-100.2725000000081
 20
137.1599999999999
 30
0.0
 11
-100.0457807920679
 21
134.2792593262841
 31
0.0
  0
LINE
  5
104
  8
0
 10
-100.0457807920679
 20
134.2792593262841
 30
0.0
 11
-99.37120574758364
 21
131.4694520485853
 31
0.0
  0
LINE
  5
105
  8
0
 10
-99.37120574758364
 20
131.4694520485853
 30
0.0
 11
-98.26538514293719
 21
128.7997649472962
 31
0.0
  0
LINE
  5
106
  8
0
 10
-98.26538514293719
 20
128.7997649472962
 30
0.0
 11
-96.75554795142322
 21
126.3359345790341
 31
0.0
  0
LINE
  5
107
  8
0
 10
-66.95945204859403
 20
126.3359345790341
 30
0.0
 11
-65.44961485707934
 21
128.7997649472962
 31
0.0
  0
LINE
  5
108
  8
0
 10
-81.85750000000827
 20
118.745
 30
0.0
 11
-78.97675932629265
 21
118.9717192079405
 31
0.0
  0
LINE
  5
109
  8
0
 10
-87.54804795142294
 20
119.6462942524247
 30
0.0
 11
-84.7382406737246
 21
118.9717192079405
 31
0.0
  0
LINE
  5
10A
  8
0
 10
-73.49726494730486
 20
120.7521148570712
 30
0.0
 11
-71.03343457904246
 21
122.2619520485853
 31
0.0
  0
LINE
  5
10B
  8
0
 10
-68.83612862445854
 20
124.1386286244497
 30
0.0
 11
-66.95945204859403
 21
126.3359345790341
 31
0.0
  0
LINE
  5
10C
  8
0
 10
-66.95945204859403
 20
147.9840654209658
 30
0.0
 11
-68.83612862445854
 21
150.1813713755502
 31
0.0
  0
LINE
  5
10D
  8
0
 10
-76.16695204859359
 20
154.6737057475752
 30
0.0
 11
-78.97675932629265
 21
155.3482807920594
 31
0.0
  0
LINE
  5
10E
  8
0
 10
-96.75554795142322
 20
126.3359345790341
 30
0.0
 11
-94.87887137555872
 21
124.1386286244497
 31
0.0
  0
LINE
  5
10F
  8
0
 10
-92.68156542097407
 20
122.2619520485853
 30
0.0
 11
-90.2177350527124
 21
120.7521148570712
 31
0.0
  0
LINE
  5
110
  8
0
 10
-71.03343457904246
 20
122.2619520485853
 30
0.0
 11
-68.83612862445854
 21
124.1386286244497
 31
0.0
  0
LINE
  5
111
  8
0
 10
-65.44961485707934
 20
128.7997649472962
 30
0.0
 11
-64.34379425243289
 21
131.4694520485853
 31
0.0
  0
LINE
  5
112
  8
0
 10
-63.44250000000841
 20
137.1599999999999
 30
0.0
 11
-63.66921920794935
 21
140.0407406737158
 31
0.0
  0
LINE
  5
113
  8
0
 10
-64.34379425243289
 20
142.8505479514146
 30
0.0
 11
-65.44961485707934
 21
145.5202350527037
 31
0.0
  0
LINE
  5
114
  8
0
 10
-71.03343457904246
 20
152.0580479514146
 30
0.0
 11
-73.49726494730486
 21
153.5678851429287
 31
0.0
  0
LINE
  5
115
  8
0
 10
-78.97675932629265
 20
155.3482807920594
 30
0.0
 11
-81.85750000000827
 21
155.5749999999999
 31
0.0
  0
LINE
  5
116
  8
0
 10
-73.49726494730486
 20
153.5678851429287
 30
0.0
 11
-76.16695204859359
 21
154.6737057475752
 31
0.0
  0
LINE
  5
117
  8
0
 10
-64.34379425243289
 20
131.4694520485853
 30
0.0
 11
-63.66921920794935
 21
134.2792593262841
 31
0.0
  0
LINE
  5
118
  8
0
 10
-76.16695204859359
 20
119.6462942524247
 30
0.0
 11
-73.49726494730486
 21
120.7521148570712
 31
0.0
  0
LINE
  5
119
  8
0
 10
-63.66921920794935
 20
134.2792593262841
 30
0.0
 11
-63.44250000000841
 21
137.1599999999999
 31
0.0
  0
LINE
  5
11A
  8
0
 10
-68.83612862445854
 20
150.1813713755502
 30
0.0
 11
-71.03343457904246
 21
152.0580479514146
 31
0.0
  0
LINE
  5
11B
  8
0
 10
-94.87887137555872
 20
124.1386286244497
 30
0.0
 11
-92.68156542097407
 21
122.2619520485853
 31
0.0
  0
LINE
  5
11C
  8
0
 10
-90.2177350527124
 20
120.7521148570712
 30
0.0
 11
-87.54804795142294
 21
119.6462942524247
 31
0.0
  0
LINE
  5
11D
  8
0
 10
-84.7382406737246
 20
118.9717192079405
 30
0.0
 11
-81.85750000000827
 21
118.745
 31
0.0
  0
LINE
  5
11E
  8
0
 10
-63.66921920794935
 20
140.0407406737158
 30
0.0
 11
-64.34379425243289
 21
142.8505479514146
 31
0.0
  0
LINE
  5
11F
  8
0
 10
-65.44961485707934
 20
145.5202350527037
 30
0.0
 11
-66.95945204859403
 21
147.9840654209658
 31
0.0
  0
LINE
  5
120
  8
0
 10
-78.97675932629265
 20
118.9717192079405
 30
0.0
 11
-76.16695204859359
 21
119.6462942524247
 31
0.0
  0
POLYLINE
  5
121
  8
PROFILEEDGES
 66
     1
 10
0.0
 20
0.0
 30
0.0
  0
VERTEX
  5
296
  8
PROFILEEDGES
 10
-282.5557708089396
 20
31.78748329617486
 30
0.0
 40
1.201131308198438
 41
1.201131308198438
  0
VERTEX
  5
297
  8
PROFILEEDGES
 10
-285.0575000000075
 20
-0.0000000000000451
 30
0.0
 40
1.201131308198438
 41
1.201131308198438
  0
SEQEND
  5
40D
  8
PROFILEEDGES
  0
POLYLINE
  5
122
  8
PROFILEEDGES
 66
     1
 10
0.0
 20
0.0
 30
0.0
  0
VERTEX
  5
298
  8
PROFILEEDGES
 10
-285.0575000000075
 20
-0.0000000000000451
 30
0.0
 40
1.201131308198438
 41
1.201131308198438
  0
VERTEX
  5
299
  8
PROFILEEDGES
 10
-282.5557708089396
 20
-31.78748329617495
 30
0.0
 40
1.201131308198438
 41
1.201131308198438
  0
SEQEND
  5
40E
  8
PROFILEEDGES
  0
POLYLINE
  5
123
  8
PROFILEEDGES
 66
     1
 10
0.0
 20
0.0
 30
0.0
  0
VERTEX
  5
29A
  8
PROFILEEDGES
 10
-282.5557708089396
 20
-31.78748329617495
 30
0.0
 40
1.201131308198438
 41
1.201131308198438
  0
VERTEX
  5
29B
  8
PROFILEEDGES
 10
-275.1121841111827
 20
-62.79225325698934
 30
0.0
 40
1.201131308198438
 41
1.201131308198438
  0
SEQEND
  5
40F
  8
PROFILEEDGES
  0
POLYLINE
  5
124
  8
PROFILEEDGES
 66
     1
 10
0.0
 20
0.0
 30
0.0
  0
VERTEX
  5
29C
  8
PROFILEEDGES
 10
-201.2954632658388
 20
164.3922532569892
 30
0.0
 40
1.201131308198438
 41
1.201131308198438
  0
VERTEX
  5
29D
  8
PROFILEEDGES
 10
-225.5415979371144
 20
143.6840979371064
 30
0.0
 40
1.201131308198438
 41
1.201131308198438
  0
SEQEND
  5
410
  8
PROFILEEDGES
  0
POLYLINE
  5
125
  8
PROFILEEDGES
 66
     1
 10
0.0
 20
0.0
 30
0.0
  0
VERTEX
  5
29E
  8
PROFILEEDGES
 10
-50.07001670383329
 20
200.698270808932
 30
0.0
 40
1.201131308198438
 41
1.201131308198438
  0
VERTEX
  5
29F
  8
PROFILEEDGES
 10
-81.85750000000827
 20
203.2
 30
0.0
 40
1.201131308198438
 41
1.201131308198438
  0
SEQEND
  5
411
  8
PROFILEEDGES
  0
POLYLINE
  5
126
  8
PROFILEEDGES
 66
     1
 10
0.0
 20
0.0
 30
0.0
  0
VERTEX
  5
2A0
  8
PROFILEEDGES
 10
-275.1121841111827
 20
-62.79225325698934
 30
0.0
 40
1.201131308198438
 41
1.201131308198438
  0
VERTEX
  5
2A1
  8
PROFILEEDGES
 10
-262.9100257150836
 20
-92.25086954707592
 30
0.0
 40
1.201131308198438
 41
1.201131308198438
  0
SEQEND
  5
412
  8
PROFILEEDGES
  0
POLYLINE
  5
127
  8
PROFILEEDGES
 66
     1
 10
0.0
 20
0.0
 30
0.0
  0
VERTEX
  5
2A2
  8
PROFILEEDGES
 10
-262.9100257150836
 20
-92.25086954707592
 30
0.0
 40
1.201131308198438
 41
1.201131308198438
  0
VERTEX
  5
2A3
  8
PROFILEEDGES
 10
-246.2497532569974
 20
-119.4379632658306
 30
0.0
 40
1.201131308198438
 41
1.201131308198438
  0
SEQEND
  5
413
  8
PROFILEEDGES
  0
POLYLINE
  5
128
  8
PROFILEEDGES
 66
     1
 10
0.0
 20
0.0
 30
0.0
  0
VERTEX
  5
2A4
  8
PROFILEEDGES
 10
-246.2497532569974
 20
-119.4379632658306
 30
0.0
 40
1.201131308198438
 41
1.201131308198438
  0
VERTEX
  5
2A5
  8
PROFILEEDGES
 10
-225.5415979371144
 20
-143.6840979371065
 30
0.0
 40
1.201131308198438
 41
1.201131308198438
  0
SEQEND
  5
414
  8
PROFILEEDGES
  0
POLYLINE
  5
129
  8
PROFILEEDGES
 66
     1
 10
0.0
 20
0.0
 30
0.0
  0
VERTEX
  5
2A6
  8
PROFILEEDGES
 10
-225.5415979371144
 20
-143.6840979371065
 30
0.0
 40
1.201131308198438
 41
1.201131308198438
  0
VERTEX
  5
2A7
  8
PROFILEEDGES
 10
-201.2954632658388
 20
-164.3922532569893
 30
0.0
 40
1.201131308198438
 41
1.201131308198438
  0
SEQEND
  5
415
  8
PROFILEEDGES
  0
POLYLINE
  5
12A
  8
PROFILEEDGES
 66
     1
 10
0.0
 20
0.0
 30
0.0
  0
VERTEX
  5
2A8
  8
PROFILEEDGES
 10
-201.2954632658388
 20
-164.3922532569893
 30
0.0
 40
1.201131308198438
 41
1.201131308198438
  0
VERTEX
  5
2A9
  8
PROFILEEDGES
 10
-174.1083695470842
 20
-181.0525257150763
 30
0.0
 40
1.201131308198438
 41
1.201131308198438
  0
SEQEND
  5
416
  8
PROFILEEDGES
  0
POLYLINE
  5
12B
  8
PROFILEEDGES
 66
     1
 10
0.0
 20
0.0
 30
0.0
  0
VERTEX
  5
2AA
  8
PROFILEEDGES
 10
-174.1083695470842
 20
-181.0525257150763
 30
0.0
 40
1.201131308198438
 41
1.201131308198438
  0
VERTEX
  5
2AB
  8
PROFILEEDGES
 10
-144.6497532569981
 20
-193.2546841111752
 30
0.0
 40
1.201131308198438
 41
1.201131308198438
  0
SEQEND
  5
417
  8
PROFILEEDGES
  0
POLYLINE
  5
12C
  8
PROFILEEDGES
 66
     1
 10
0.0
 20
0.0
 30
0.0
  0
VERTEX
  5
2AC
  8
PROFILEEDGES
 10
-246.2497532569974
 20
119.4379632658305
 30
0.0
 40
1.201131308198438
 41
1.201131308198438
  0
VERTEX
  5
2AD
  8
PROFILEEDGES
 10
-262.9100257150836
 20
92.25086954707587
 30
0.0
 40
1.201131308198438
 41
1.201131308198438
  0
SEQEND
  5
418
  8
PROFILEEDGES
  0
POLYLINE
  5
12D
  8
PROFILEEDGES
 66
     1
 10
0.0
 20
0.0
 30
0.0
  0
VERTEX
  5
2AE
  8
PROFILEEDGES
 10
-144.6497532569981
 20
193.2546841111752
 30
0.0
 40
1.201131308198438
 41
1.201131308198438
  0
VERTEX
  5
2AF
  8
PROFILEEDGES
 10
-174.1083695470842
 20
181.0525257150763
 30
0.0
 40
1.201131308198438
 41
1.201131308198438
  0
SEQEND
  5
419
  8
PROFILEEDGES
  0
POLYLINE
  5
12E
  8
PROFILEEDGES
 66
     1
 10
0.0
 20
0.0
 30
0.0
  0
VERTEX
  5
2B0
  8
PROFILEEDGES
 10
-81.85750000000827
 20
203.2
 30
0.0
 40
1.201131308198438
 41
1.201131308198438
  0
VERTEX
  5
2B1
  8
PROFILEEDGES
 10
-113.6449832961832
 20
200.6982708089319
 30
0.0
 40
1.201131308198438
 41
1.201131308198438
  0
SEQEND
  5
41A
  8
PROFILEEDGES
  0
POLYLINE
  5
12F
  8
PROFILEEDGES
 66
     1
 10
0.0
 20
0.0
 30
0.0
  0
VERTEX
  5
2B2
  8
PROFILEEDGES
 10
-113.6449832961832
 20
200.6982708089319
 30
0.0
 40
1.201131308198438
 41
1.201131308198438
  0
VERTEX
  5
2B3
  8
PROFILEEDGES
 10
-144.6497532569981
 20
193.2546841111752
 30
0.0
 40
1.201131308198438
 41
1.201131308198438
  0
SEQEND
  5
41B
  8
PROFILEEDGES
  0
POLYLINE
  5
130
  8
PROFILEEDGES
 66
     1
 10
0.0
 20
0.0
 30
0.0
  0
VERTEX
  5
2B4
  8
PROFILEEDGES
 10
-174.1083695470842
 20
181.0525257150763
 30
0.0
 40
1.201131308198438
 41
1.201131308198438
  0
VERTEX
  5
2B5
  8
PROFILEEDGES
 10
-201.2954632658388
 20
164.3922532569892
 30
0.0
 40
1.201131308198438
 41
1.201131308198438
  0
SEQEND
  5
41C
  8
PROFILEEDGES
  0
POLYLINE
  5
131
  8
PROFILEEDGES
 66
     1
 10
0.0
 20
0.0
 30
0.0
  0
VERTEX
  5
2B6
  8
PROFILEEDGES
 10
-225.5415979371144
 20
143.6840979371064
 30
0.0
 40
1.201131308198438
 41
1.201131308198438
  0
VERTEX
  5
2B7
  8
PROFILEEDGES
 10
-246.2497532569974
 20
119.4379632658305
 30
0.0
 40
1.201131308198438
 41
1.201131308198438
  0
SEQEND
  5
41D
  8
PROFILEEDGES
  0
POLYLINE
  5
132
  8
PROFILEEDGES
 66
     1
 10
0.0
 20
0.0
 30
0.0
  0
VERTEX
  5
2B8
  8
PROFILEEDGES
 10
-262.9100257150836
 20
92.25086954707587
 30
0.0
 40
1.201131308198438
 41
1.201131308198438
  0
VERTEX
  5
2B9
  8
PROFILEEDGES
 10
-275.1121841111827
 20
62.79225325698925
 30
0.0
 40
1.201131308198438
 41
1.201131308198438
  0
SEQEND
  5
41E
  8
PROFILEEDGES
  0
POLYLINE
  5
133
  8
PROFILEEDGES
 66
     1
 10
0.0
 20
0.0
 30
0.0
  0
VERTEX
  5
2BA
  8
PROFILEEDGES
 10
-275.1121841111827
 20
62.79225325698925
 30
0.0
 40
1.201131308198438
 41
1.201131308198438
  0
VERTEX
  5
2BB
  8
PROFILEEDGES
 10
-282.5557708089396
 20
31.78748329617486
 30
0.0
 40
1.201131308198438
 41
1.201131308198438
  0
SEQEND
  5
41F
  8
PROFILEEDGES
  0
POLYLINE
  5
134
  8
PROFILEEDGES
 66
     1
 10
0.0
 20
0.0
 30
0.0
  0
VERTEX
  5
2BC
  8
PROFILEEDGES
 10
-50.07001670383329
 20
-200.6982708089319
 30
0.0
 40
1.201131308198438
 41
1.201131308198438
  0
VERTEX
  5
2BD
  8
PROFILEEDGES
 10
-19.06524674301913
 20
-193.2546841111752
 30
0.0
 40
1.201131308198438
 41
1.201131308198438
  0
SEQEND
  5
420
  8
PROFILEEDGES
  0
POLYLINE
  5
135
  8
PROFILEEDGES
 66
     1
 10
0.0
 20
0.0
 30
0.0
  0
VERTEX
  5
2BE
  8
PROFILEEDGES
 10
99.19502571506779
 20
-92.25086954707587
 30
0.0
 40
1.201131308198438
 41
1.201131308198438
  0
VERTEX
  5
2BF
  8
PROFILEEDGES
 10
108.7829794594402
 20
-70.33098599814655
 30
0.0
 40
1.201131308198438
 41
1.201131308198438
  0
SEQEND
  5
421
  8
PROFILEEDGES
  0
POLYLINE
  5
136
  8
PROFILEEDGES
 66
     1
 10
0.0
 20
0.0
 30
0.0
  0
VERTEX
  5
2C0
  8
PROFILEEDGES
 10
10.39336954706763
 20
-181.0525257150763
 30
0.0
 40
1.201131308198438
 41
1.201131308198438
  0
VERTEX
  5
2C1
  8
PROFILEEDGES
 10
37.58046326582232
 20
-164.3922532569893
 30
0.0
 40
1.201131308198438
 41
1.201131308198438
  0
SEQEND
  5
422
  8
PROFILEEDGES
  0
POLYLINE
  5
137
  8
PROFILEEDGES
 66
     1
 10
0.0
 20
0.0
 30
0.0
  0
VERTEX
  5
2C2
  8
PROFILEEDGES
 10
87.09712521986884
 20
-112.8918713495831
 30
0.0
 40
1.201131308198438
 41
1.201131308198438
  0
VERTEX
  5
2C3
  8
PROFILEEDGES
 10
99.19502571506779
 20
-92.25086954707587
 30
0.0
 40
1.201131308198438
 41
1.201131308198438
  0
SEQEND
  5
423
  8
PROFILEEDGES
  0
POLYLINE
  5
138
  8
PROFILEEDGES
 66
     1
 10
0.0
 20
0.0
 30
0.0
  0
VERTEX
  5
2C4
  8
PROFILEEDGES
 10
10.39336954706763
 20
181.0525257150763
 30
0.0
 40
1.201131308198438
 41
1.201131308198438
  0
VERTEX
  5
2C5
  8
PROFILEEDGES
 10
-19.06524674301913
 20
193.2546841111752
 30
0.0
 40
1.201131308198438
 41
1.201131308198438
  0
SEQEND
  5
424
  8
PROFILEEDGES
  0
POLYLINE
  5
139
  8
PROFILEEDGES
 66
     1
 10
0.0
 20
0.0
 30
0.0
  0
VERTEX
  5
2C6
  8
PROFILEEDGES
 10
-113.6449832961832
 20
-200.698270808932
 30
0.0
 40
1.201131308198438
 41
1.201131308198438
  0
VERTEX
  5
2C7
  8
PROFILEEDGES
 10
-81.85750000000827
 20
-203.2
 30
0.0
 40
1.201131308198438
 41
1.201131308198438
  0
SEQEND
  5
425
  8
PROFILEEDGES
  0
POLYLINE
  5
13A
  8
PROFILEEDGES
 66
     1
 10
0.0
 20
0.0
 30
0.0
  0
VERTEX
  5
2C8
  8
PROFILEEDGES
 10
119.9340104532328
 20
-23.88359916343259
 30
0.0
 40
1.201131308198438
 41
1.201131308198438
  0
VERTEX
  5
2C9
  8
PROFILEEDGES
 10
121.3424999999917
 20
-0.0000000000000226
 30
0.0
 40
1.201131308198438
 41
1.201131308198438
  0
SEQEND
  5
426
  8
PROFILEEDGES
  0
POLYLINE
  5
13B
  8
PROFILEEDGES
 66
     1
 10
0.0
 20
0.0
 30
0.0
  0
VERTEX
  5
2CA
  8
PROFILEEDGES
 10
108.7829794594402
 20
-70.33098599814655
 30
0.0
 40
1.201131308198438
 41
1.201131308198438
  0
VERTEX
  5
2CB
  8
PROFILEEDGES
 10
115.7280678247993
 20
-47.43609793551995
 30
0.0
 40
1.201131308198438
 41
1.201131308198438
  0
SEQEND
  5
427
  8
PROFILEEDGES
  0
POLYLINE
  5
13C
  8
PROFILEEDGES
 66
     1
 10
0.0
 20
0.0
 30
0.0
  0
VERTEX
  5
2CC
  8
PROFILEEDGES
 10
-19.06524674301913
 20
-193.2546841111752
 30
0.0
 40
1.201131308198438
 41
1.201131308198438
  0
VERTEX
  5
2CD
  8
PROFILEEDGES
 10
10.39336954706763
 20
-181.0525257150763
 30
0.0
 40
1.201131308198438
 41
1.201131308198438
  0
SEQEND
  5
428
  8
PROFILEEDGES
  0
POLYLINE
  5
13D
  8
PROFILEEDGES
 66
     1
 10
0.0
 20
0.0
 30
0.0
  0
VERTEX
  5
2CE
  8
PROFILEEDGES
 10
37.58046326582232
 20
-164.3922532569893
 30
0.0
 40
1.201131308198438
 41
1.201131308198438
  0
VERTEX
  5
2CF
  8
PROFILEEDGES
 10
56.07481149228498
 20
-149.2143339173313
 30
0.0
 40
1.201131308198438
 41
1.201131308198438
  0
SEQEND
  5
429
  8
PROFILEEDGES
  0
POLYLINE
  5
13E
  8
PROFILEEDGES
 66
     1
 10
0.0
 20
0.0
 30
0.0
  0
VERTEX
  5
2D0
  8
PROFILEEDGES
 10
72.65699220991758
 20
-131.9678434206933
 30
0.0
 40
1.201131308198438
 41
1.201131308198438
  0
VERTEX
  5
2D1
  8
PROFILEEDGES
 10
87.09712521986884
 20
-112.8918713495831
 30
0.0
 40
1.201131308198438
 41
1.201131308198438
  0
SEQEND
  5
42A
  8
PROFILEEDGES
  0
POLYLINE
  5
13F
  8
PROFILEEDGES
 66
     1
 10
0.0
 20
0.0
 30
0.0
  0
VERTEX
  5
2D2
  8
PROFILEEDGES
 10
-19.06524674301913
 20
193.2546841111752
 30
0.0
 40
1.201131308198438
 41
1.201131308198438
  0
VERTEX
  5
2D3
  8
PROFILEEDGES
 10
-50.07001670383329
 20
200.698270808932
 30
0.0
 40
1.201131308198438
 41
1.201131308198438
  0
SEQEND
  5
42B
  8
PROFILEEDGES
  0
POLYLINE
  5
140
  8
PROFILEEDGES
 66
     1
 10
0.0
 20
0.0
 30
0.0
  0
VERTEX
  5
2D4
  8
PROFILEEDGES
 10
37.58046326582232
 20
164.3922532569893
 30
0.0
 40
1.201131308198438
 41
1.201131308198438
  0
VERTEX
  5
2D5
  8
PROFILEEDGES
 10
10.39336954706763
 20
181.0525257150763
 30
0.0
 40
1.201131308198438
 41
1.201131308198438
  0
SEQEND
  5
42C
  8
PROFILEEDGES
  0
POLYLINE
  5
141
  8
PROFILEEDGES
 66
     1
 10
0.0
 20
0.0
 30
0.0
  0
VERTEX
  5
2D6
  8
PROFILEEDGES
 10
-144.6497532569981
 20
-193.2546841111752
 30
0.0
 40
1.201131308198438
 41
1.201131308198438
  0
VERTEX
  5
2D7
  8
PROFILEEDGES
 10
-113.6449832961832
 20
-200.698270808932
 30
0.0
 40
1.201131308198438
 41
1.201131308198438
  0
SEQEND
  5
42D
  8
PROFILEEDGES
  0
POLYLINE
  5
142
  8
PROFILEEDGES
 66
     1
 10
0.0
 20
0.0
 30
0.0
  0
VERTEX
  5
2D8
  8
PROFILEEDGES
 10
115.7280678247993
 20
-47.43609793551995
 30
0.0
 40
1.201131308198438
 41
1.201131308198438
  0
VERTEX
  5
2D9
  8
PROFILEEDGES
 10
119.9340104532328
 20
-23.88359916343259
 30
0.0
 40
1.201131308198438
 41
1.201131308198438
  0
SEQEND
  5
42E
  8
PROFILEEDGES
  0
POLYLINE
  5
143
  8
PROFILEEDGES
 66
     1
 10
0.0
 20
0.0
 30
0.0
  0
VERTEX
  5
2DA
  8
PROFILEEDGES
 10
-81.85750000000827
 20
-203.2
 30
0.0
 40
1.201131308198438
 41
1.201131308198438
  0
VERTEX
  5
2DB
  8
PROFILEEDGES
 10
-50.07001670383329
 20
-200.6982708089319
 30
0.0
 40
1.201131308198438
 41
1.201131308198438
  0
SEQEND
  5
42F
  8
PROFILEEDGES
  0
POLYLINE
  5
144
  8
PROFILEEDGES
 66
     1
 10
0.0
 20
0.0
 30
0.0
  0
VERTEX
  5
2DC
  8
PROFILEEDGES
 10
61.8265979370979
 20
143.6840979371065
 30
0.0
 40
1.201131308198438
 41
1.201131308198438
  0
VERTEX
  5
2DD
  8
PROFILEEDGES
 10
37.58046326582232
 20
164.3922532569893
 30
0.0
 40
1.201131308198438
 41
1.201131308198438
  0
SEQEND
  5
430
  8
PROFILEEDGES
  0
POLYLINE
  5
145
  8
PROFILEEDGES
 66
     1
 10
0.0
 20
0.0
 30
0.0
  0
VERTEX
  5
2DE
  8
PROFILEEDGES
 10
56.07481149228498
 20
-149.2143339173313
 30
0.0
 40
1.201131308198438
 41
1.201131308198438
  0
VERTEX
  5
2DF
  8
PROFILEEDGES
 10
72.65699220991758
 20
-131.9678434206933
 30
0.0
 40
1.201131308198438
 41
1.201131308198438
  0
SEQEND
  5
431
  8
PROFILEEDGES
  0
POLYLINE
  5
146
  8
PROFILEEDGES
 66
     1
 10
0.0
 20
0.0
 30
0.0
  0
VERTEX
  5
2E0
  8
PROFILEEDGES
 10
285.057499999992
 20
-63.5
 30
0.0
 40
1.201131308198438
 41
1.201131308198438
  0
VERTEX
  5
2E1
  8
PROFILEEDGES
 10
254.577499999992
 20
-63.5
 30
0.0
 40
1.201131308198438
 41
1.201131308198438
  0
SEQEND
  5
432
  8
PROFILEEDGES
  0
POLYLINE
  5
147
  8
PROFILEEDGES
 66
     1
 10
0.0
 20
0.0
 30
0.0
  0
VERTEX
  5
2E2
  8
PROFILEEDGES
 10
225.3054463480871
 20
-199.9867414335721
 30
0.0
 40
1.201131308198438
 41
1.201131308198438
  0
VERTEX
  5
2E3
  8
PROFILEEDGES
 10
197.427499999992
 20
-190.5
 30
0.0
 40
1.201131308198438
 41
1.201131308198438
  0
SEQEND
  5
433
  8
PROFILEEDGES
  0
POLYLINE
  5
148
  8
PROFILEEDGES
 66
     1
 10
0.0
 20
0.0
 30
0.0
  0
VERTEX
  5
2E4
  8
PROFILEEDGES
 10
254.577499999992
 20
-203.2
 30
0.0
 40
1.201131308198438
 41
1.201131308198438
  0
VERTEX
  5
2E5
  8
PROFILEEDGES
 10
225.3054463480871
 20
-199.9867414335721
 30
0.0
 40
1.201131308198438
 41
1.201131308198438
  0
SEQEND
  5
434
  8
PROFILEEDGES
  0
POLYLINE
  5
149
  8
PROFILEEDGES
 66
     1
 10
0.0
 20
0.0
 30
0.0
  0
VERTEX
  5
2E6
  8
PROFILEEDGES
 10
285.057499999992
 20
63.50000000000002
 30
0.0
 40
1.201131308198438
 41
1.201131308198438
  0
VERTEX
  5
2E7
  8
PROFILEEDGES
 10
254.5775000000068
 20
63.50000000000002
 30
0.0
 40
1.201131308198438
 41
1.201131308198438
  0
SEQEND
  5
435
  8
PROFILEEDGES
  0
POLYLINE
  5
14A
  8
PROFILEEDGES
 66
     1
 10
0.0
 20
0.0
 30
0.0
  0
VERTEX
  5
2E8
  8
PROFILEEDGES
 10
225.3054463480871
 20
199.9867414335721
 30
0.0
 40
1.201131308198438
 41
1.201131308198438
  0
VERTEX
  5
2E9
  8
PROFILEEDGES
 10
197.427499999992
 20
190.5
 30
0.0
 40
1.201131308198438
 41
1.201131308198438
  0
SEQEND
  5
436
  8
PROFILEEDGES
  0
POLYLINE
  5
14B
  8
PROFILEEDGES
 66
     1
 10
0.0
 20
0.0
 30
0.0
  0
VERTEX
  5
2EA
  8
PROFILEEDGES
 10
254.577499999992
 20
203.2
 30
0.0
 40
1.201131308198438
 41
1.201131308198438
  0
VERTEX
  5
2EB
  8
PROFILEEDGES
 10
225.3054463480871
 20
199.9867414335721
 30
0.0
 40
1.201131308198438
 41
1.201131308198438
  0
SEQEND
  5
437
  8
PROFILEEDGES
  0
LINE
  5
14C
  8
0
 10
-88.53593528857351
 20
142.0121672576743
 30
0.0
 11
-89.03307857056852
 21
141.1629964559818
 31
0.0
  0
POLYLINE
  5
14D
  8
PROFILEEDGES
 66
     1
 10
0.0
 20
0.0
 30
0.0
  0
VERTEX
  5
2EC
  8
PROFILEEDGES
 10
-89.03307857056852
 20
141.1629964559818
 30
0.0
 40
1.201131308198438
 41
1.201131308198438
  0
VERTEX
  5
2ED
  8
PROFILEEDGES
 10
-89.2127588571835
 20
140.9076915753499
 30
0.0
 40
1.201131308198438
 41
1.201131308198438
  0
SEQEND
  5
438
  8
PROFILEEDGES
  0
POLYLINE
  5
14E
  8
PROFILEEDGES
 66
     1
 10
0.0
 20
0.0
 30
0.0
  0
VERTEX
  5
2EE
  8
PROFILEEDGES
 10
-87.96486334149128
 20
142.6808065991344
 30
0.0
 40
1.201131308198438
 41
1.201131308198438
  0
VERTEX
  5
2EF
  8
PROFILEEDGES
 10
-89.03307857056852
 20
141.1629964559818
 30
0.0
 40
1.201131308198438
 41
1.201131308198438
  0
SEQEND
  5
439
  8
PROFILEEDGES
  0
POLYLINE
  5
14F
  8
PROFILEEDGES
 66
     1
 10
0.0
 20
0.0
 30
0.0
  0
VERTEX
  5
2F0
  8
PROFILEEDGES
 10
-90.05623970794758
 20
136.4451452105555
 30
0.0
 40
1.201131308198438
 41
1.201131308198438
  0
VERTEX
  5
2F1
  8
PROFILEEDGES
 10
-89.75834238892044
 20
134.8723633639059
 30
0.0
 40
1.201131308198438
 41
1.201131308198438
  0
SEQEND
  5
43A
  8
PROFILEEDGES
  0
POLYLINE
  5
150
  8
PROFILEEDGES
 66
     1
 10
0.0
 20
0.0
 30
0.0
  0
VERTEX
  5
2F2
  8
PROFILEEDGES
 10
-89.75834238892044
 20
134.8723633639059
 30
0.0
 40
1.201131308198438
 41
1.201131308198438
  0
VERTEX
  5
2F3
  8
PROFILEEDGES
 10
-89.70847154202474
 20
134.6090647114348
 30
0.0
 40
1.201131308198438
 41
1.201131308198438
  0
SEQEND
  5
43B
  8
PROFILEEDGES
  0
LINE
  5
151
  8
0
 10
-84.40843528857366
 20
145.0109715420164
 30
0.0
 11
-85.4008967119212
 21
144.586402695473
 31
0.0
  0
POLYLINE
  5
152
  8
PROFILEEDGES
 66
     1
 10
0.0
 20
0.0
 30
0.0
  0
VERTEX
  5
2F4
  8
PROFILEEDGES
 10
-85.4008967119212
 20
144.586402695473
 30
0.0
 40
1.201131308198438
 41
1.201131308198438
  0
VERTEX
  5
2F5
  8
PROFILEEDGES
 10
-85.60519157535816
 20
144.5152588571749
 30
0.0
 40
1.201131308198438
 41
1.201131308198438
  0
SEQEND
  5
43C
  8
PROFILEEDGES
  0
POLYLINE
  5
153
  8
PROFILEEDGES
 66
     1
 10
0.0
 20
0.0
 30
0.0
  0
VERTEX
  5
2F6
  8
PROFILEEDGES
 10
-85.4008967119212
 20
144.586402695473
 30
0.0
 40
1.201131308198438
 41
1.201131308198438
  0
VERTEX
  5
2F7
  8
PROFILEEDGES
 10
-83.67848401124297
 20
145.1862173388669
 30
0.0
 40
1.201131308198438
 41
1.201131308198438
  0
SEQEND
  5
43D
  8
PROFILEEDGES
  0
LINE
  5
154
  8
0
 10
-89.70847154202474
 20
134.6090647114348
 30
0.0
 11
-89.25657649092649
 21
133.5295703082139
 31
0.0
  0
POLYLINE
  5
155
  8
PROFILEEDGES
 66
     1
 10
0.0
 20
0.0
 30
0.0
  0
VERTEX
  5
2F8
  8
PROFILEEDGES
 10
-89.25657649092649
 20
133.5295703082139
 30
0.0
 40
1.201131308198438
 41
1.201131308198438
  0
VERTEX
  5
2F9
  8
PROFILEEDGES
 10
-89.2127588571835
 20
133.41230842465
 30
0.0
 40
1.201131308198438
 41
1.201131308198438
  0
SEQEND
  5
43E
  8
PROFILEEDGES
  0
POLYLINE
  5
156
  8
PROFILEEDGES
 66
     1
 10
0.0
 20
0.0
 30
0.0
  0
VERTEX
  5
2FA
  8
PROFILEEDGES
 10
-89.25657649092649
 20
133.5295703082139
 30
0.0
 40
1.201131308198438
 41
1.201131308198438
  0
VERTEX
  5
2FB
  8
PROFILEEDGES
 10
-89.75834238892044
 20
134.8723633639059
 30
0.0
 40
1.201131308198438
 41
1.201131308198438
  0
SEQEND
  5
43F
  8
PROFILEEDGES
  0
POLYLINE
  5
157
  8
PROFILEEDGES
 66
     1
 10
0.0
 20
0.0
 30
0.0
  0
VERTEX
  5
2FC
  8
PROFILEEDGES
 10
-86.12081689236508
 20
130.1207167434716
 30
0.0
 40
1.201131308198438
 41
1.201131308198438
  0
VERTEX
  5
2FD
  8
PROFILEEDGES
 10
-85.60519157535816
 20
129.804741142825
 30
0.0
 40
1.201131308198438
 41
1.201131308198438
  0
SEQEND
  5
440
  8
PROFILEEDGES
  0
LINE
  5
158
  8
0
 10
-89.2127588571835
 20
140.9076915753499
 30
0.0
 11
-89.65521251635087
 21
139.825439534632
 31
0.0
  0
POLYLINE
  5
159
  8
PROFILEEDGES
 66
     1
 10
0.0
 20
0.0
 30
0.0
  0
VERTEX
  5
2FE
  8
PROFILEEDGES
 10
-89.65521251635087
 20
139.825439534632
 30
0.0
 40
1.201131308198438
 41
1.201131308198438
  0
VERTEX
  5
2FF
  8
PROFILEEDGES
 10
-89.70847154202474
 20
139.7109352885651
 30
0.0
 40
1.201131308198438
 41
1.201131308198438
  0
SEQEND
  5
441
  8
PROFILEEDGES
  0
POLYLINE
  5
15A
  8
PROFILEEDGES
 66
     1
 10
0.0
 20
0.0
 30
0.0
  0
VERTEX
  5
300
  8
PROFILEEDGES
 10
-89.65521251635087
 20
139.825439534632
 30
0.0
 40
1.201131308198438
 41
1.201131308198438
  0
VERTEX
  5
301
  8
PROFILEEDGES
 10
-89.03307857056852
 20
141.1629964559818
 30
0.0
 40
1.201131308198438
 41
1.201131308198438
  0
SEQEND
  5
442
  8
PROFILEEDGES
  0
POLYLINE
  5
15B
  8
PROFILEEDGES
 66
     1
 10
0.0
 20
0.0
 30
0.0
  0
VERTEX
  5
302
  8
PROFILEEDGES
 10
-84.40843528857366
 20
129.3090284579835
 30
0.0
 40
1.201131308198438
 41
1.201131308198438
  0
VERTEX
  5
303
  8
PROFILEEDGES
 10
-84.59986160435436
 20
129.3997667009717
 30
0.0
 40
1.201131308198438
 41
1.201131308198438
  0
SEQEND
  5
443
  8
PROFILEEDGES
  0
LINE
  5
15C
  8
0
 10
-85.60519157535816
 20
129.804741142825
 30
0.0
 11
-84.59986160435436
 21
129.3997667009717
 31
0.0
  0
POLYLINE
  5
15D
  8
PROFILEEDGES
 66
     1
 10
0.0
 20
0.0
 30
0.0
  0
VERTEX
  5
304
  8
PROFILEEDGES
 10
-84.59986160435436
 20
129.3997667009717
 30
0.0
 40
1.201131308198438
 41
1.201131308198438
  0
VERTEX
  5
305
  8
PROFILEEDGES
 10
-86.12081689236508
 20
130.1207167434716
 30
0.0
 40
1.201131308198438
 41
1.201131308198438
  0
SEQEND
  5
444
  8
PROFILEEDGES
  0
POLYLINE
  5
15E
  8
PROFILEEDGES
 66
     1
 10
0.0
 20
0.0
 30
0.0
  0
VERTEX
  5
306
  8
PROFILEEDGES
 10
-73.70413274839585
 20
-138.4513665089071
 30
0.0
 40
1.201131308198438
 41
1.201131308198438
  0
VERTEX
  5
307
  8
PROFILEEDGES
 10
-73.70037880613826
 20
-138.3739128154456
 30
0.0
 40
1.201131308198438
 41
1.201131308198438
  0
SEQEND
  5
445
  8
PROFILEEDGES
  0
POLYLINE
  5
15F
  8
PROFILEEDGES
 66
     1
 10
0.0
 20
0.0
 30
0.0
  0
VERTEX
  5
308
  8
PROFILEEDGES
 10
-73.70037880613826
 20
-138.3739128154456
 30
0.0
 40
1.201131308198438
 41
1.201131308198438
  0
VERTEX
  5
309
  8
PROFILEEDGES
 10
-73.60250000000856
 20
-137.1599999999999
 30
0.0
 40
1.201131308198438
 41
1.201131308198438
  0
SEQEND
  5
446
  8
PROFILEEDGES
  0
POLYLINE
  5
160
  8
PROFILEEDGES
 66
     1
 10
0.0
 20
0.0
 30
0.0
  0
VERTEX
  5
30A
  8
PROFILEEDGES
 10
-90.05623970794758
 20
136.4451452105555
 30
0.0
 40
1.201131308198438
 41
1.201131308198438
  0
VERTEX
  5
30B
  8
PROFILEEDGES
 10
-90.0108672516214
 20
135.8686334910928
 30
0.0
 40
1.201131308198438
 41
1.201131308198438
  0
SEQEND
  5
447
  8
PROFILEEDGES
  0
POLYLINE
  5
161
  8
PROFILEEDGES
 66
     1
 10
0.0
 20
0.0
 30
0.0
  0
VERTEX
  5
30C
  8
PROFILEEDGES
 10
-83.67848401124297
 20
145.1862173388669
 30
0.0
 40
1.201131308198438
 41
1.201131308198438
  0
VERTEX
  5
30D
  8
PROFILEEDGES
 10
-84.40843528857366
 20
145.0109715420164
 30
0.0
 40
1.201131308198438
 41
1.201131308198438
  0
SEQEND
  5
448
  8
PROFILEEDGES
  0
LINE
  5
162
  8
0
 10
-90.0108672516214
 20
135.8686334910928
 30
0.0
 11
-89.75834238892044
 21
134.8723633639059
 31
0.0
  0
POLYLINE
  5
163
  8
PROFILEEDGES
 66
     1
 10
0.0
 20
0.0
 30
0.0
  0
VERTEX
  5
30E
  8
PROFILEEDGES
 10
-87.96486334149128
 20
142.6808065991344
 30
0.0
 40
1.201131308198438
 41
1.201131308198438
  0
VERTEX
  5
30F
  8
PROFILEEDGES
 10
-88.53593528857351
 20
142.0121672576743
 30
0.0
 40
1.201131308198438
 41
1.201131308198438
  0
SEQEND
  5
449
  8
PROFILEEDGES
  0
POLYLINE
  5
164
  8
PROFILEEDGES
 66
     1
 10
0.0
 20
0.0
 30
0.0
  0
VERTEX
  5
310
  8
PROFILEEDGES
 10
-76.02033352131349
 20
131.322833521305
 30
0.0
 40
1.201131308198438
 41
1.201131308198438
  0
VERTEX
  5
311
  8
PROFILEEDGES
 10
-76.10984052332105
 20
131.2510250998835
 30
0.0
 40
1.201131308198438
 41
1.201131308198438
  0
SEQEND
  5
44A
  8
PROFILEEDGES
  0
POLYLINE
  5
165
  8
PROFILEEDGES
 66
     1
 10
0.0
 20
0.0
 30
0.0
  0
VERTEX
  5
312
  8
PROFILEEDGES
 10
-78.84470060712309
 20
144.8196611660336
 30
0.0
 40
1.201131308198438
 41
1.201131308198438
  0
VERTEX
  5
313
  8
PROFILEEDGES
 10
-79.30656471144358
 20
145.0109715420164
 30
0.0
 40
1.201131308198438
 41
1.201131308198438
  0
SEQEND
  5
44B
  8
PROFILEEDGES
  0
POLYLINE
  5
166
  8
PROFILEEDGES
 66
     1
 10
0.0
 20
0.0
 30
0.0
  0
VERTEX
  5
314
  8
PROFILEEDGES
 10
-79.30656471144358
 20
145.0109715420164
 30
0.0
 40
1.201131308198438
 41
1.201131308198438
  0
VERTEX
  5
315
  8
PROFILEEDGES
 10
-79.95208389128257
 20
145.1659469856746
 30
0.0
 40
1.201131308198438
 41
1.201131308198438
  0
SEQEND
  5
44C
  8
PROFILEEDGES
  0
POLYLINE
  5
167
  8
PROFILEEDGES
 66
     1
 10
0.0
 20
0.0
 30
0.0
  0
VERTEX
  5
316
  8
PROFILEEDGES
 10
-73.60250000000856
 20
137.1599999999999
 30
0.0
 40
1.201131308198438
 41
1.201131308198438
  0
VERTEX
  5
317
  8
PROFILEEDGES
 10
-73.70037880613825
 20
138.3739128154455
 30
0.0
 40
1.201131308198438
 41
1.201131308198438
  0
SEQEND
  5
44D
  8
PROFILEEDGES
  0
POLYLINE
  5
168
  8
PROFILEEDGES
 66
     1
 10
0.0
 20
0.0
 30
0.0
  0
VERTEX
  5
318
  8
PROFILEEDGES
 10
-73.70037880613825
 20
138.3739128154455
 30
0.0
 40
1.201131308198438
 41
1.201131308198438
  0
VERTEX
  5
319
  8
PROFILEEDGES
 10
-73.6946899090289
 20
138.4528621077353
 30
0.0
 40
1.201131308198438
 41
1.201131308198438
  0
SEQEND
  5
44E
  8
PROFILEEDGES
  0
POLYLINE
  5
169
  8
PROFILEEDGES
 66
     1
 10
0.0
 20
0.0
 30
0.0
  0
VERTEX
  5
31A
  8
PROFILEEDGES
 10
-77.00533274233432
 20
130.4815647114348
 30
0.0
 40
1.201131308198438
 41
1.201131308198438
  0
VERTEX
  5
31B
  8
PROFILEEDGES
 10
-76.10984052332105
 20
131.2510250998835
 30
0.0
 40
1.201131308198438
 41
1.201131308198438
  0
SEQEND
  5
44F
  8
PROFILEEDGES
  0
POLYLINE
  5
16A
  8
PROFILEEDGES
 66
     1
 10
0.0
 20
0.0
 30
0.0
  0
VERTEX
  5
31C
  8
PROFILEEDGES
 10
-88.53593528857351
 20
-142.0121672576743
 30
0.0
 40
1.201131308198438
 41
1.201131308198438
  0
VERTEX
  5
31D
  8
PROFILEEDGES
 10
-87.96486334149137
 20
-142.6808065991343
 30
0.0
 40
1.201131308198438
 41
1.201131308198438
  0
SEQEND
  5
450
  8
PROFILEEDGES
  0
POLYLINE
  5
16B
  8
PROFILEEDGES
 66
     1
 10
0.0
 20
0.0
 30
0.0
  0
VERTEX
  5
31E
  8
PROFILEEDGES
 10
-89.2127588571835
 20
-133.41230842465
 30
0.0
 40
1.201131308198438
 41
1.201131308198438
  0
VERTEX
  5
31F
  8
PROFILEEDGES
 10
-89.25596612053872
 20
-133.5279368749309
 30
0.0
 40
1.201131308198438
 41
1.201131308198438
  0
SEQEND
  5
451
  8
PROFILEEDGES
  0
LINE
  5
16C
  8
0
 10
-89.25596612053872
 20
-133.5279368749309
 30
0.0
 11
-89.70847154202474
 21
-134.6090647114348
 31
0.0
  0
POLYLINE
  5
16D
  8
PROFILEEDGES
 66
     1
 10
0.0
 20
0.0
 30
0.0
  0
VERTEX
  5
320
  8
PROFILEEDGES
 10
-76.02033352131349
 20
-131.322833521305
 30
0.0
 40
1.201131308198438
 41
1.201131308198438
  0
VERTEX
  5
321
  8
PROFILEEDGES
 10
-76.10984052332118
 20
-131.2510250998833
 30
0.0
 40
1.201131308198438
 41
1.201131308198438
  0
SEQEND
  5
452
  8
PROFILEEDGES
  0
POLYLINE
  5
16E
  8
PROFILEEDGES
 66
     1
 10
0.0
 20
0.0
 30
0.0
  0
VERTEX
  5
322
  8
PROFILEEDGES
 10
-76.10984052332118
 20
-131.2510250998833
 30
0.0
 40
1.201131308198438
 41
1.201131308198438
  0
VERTEX
  5
323
  8
PROFILEEDGES
 10
-77.00533274233432
 20
-130.4815647114348
 30
0.0
 40
1.201131308198438
 41
1.201131308198438
  0
SEQEND
  5
453
  8
PROFILEEDGES
  0
POLYLINE
  5
16F
  8
PROFILEEDGES
 66
     1
 10
0.0
 20
0.0
 30
0.0
  0
VERTEX
  5
324
  8
PROFILEEDGES
 10
-89.2127588571835
 20
-140.9076915753499
 30
0.0
 40
1.201131308198438
 41
1.201131308198438
  0
VERTEX
  5
325
  8
PROFILEEDGES
 10
-89.03307857056852
 20
-141.1629964559819
 30
0.0
 40
1.201131308198438
 41
1.201131308198438
  0
SEQEND
  5
454
  8
PROFILEEDGES
  0
LINE
  5
170
  8
0
 10
-89.03307857056852
 20
-141.1629964559819
 30
0.0
 11
-88.53593528857351
 21
-142.0121672576743
 31
0.0
  0
POLYLINE
  5
171
  8
PROFILEEDGES
 66
     1
 10
0.0
 20
0.0
 30
0.0
  0
VERTEX
  5
326
  8
PROFILEEDGES
 10
-89.70847154202474
 20
-139.7109352885651
 30
0.0
 40
1.201131308198438
 41
1.201131308198438
  0
VERTEX
  5
327
  8
PROFILEEDGES
 10
-89.65521251635087
 20
-139.825439534632
 30
0.0
 40
1.201131308198438
 41
1.201131308198438
  0
SEQEND
  5
455
  8
PROFILEEDGES
  0
LINE
  5
172
  8
0
 10
-89.65521251635087
 20
-139.825439534632
 30
0.0
 11
-89.2127588571835
 21
-140.9076915753499
 31
0.0
  0
POLYLINE
  5
173
  8
PROFILEEDGES
 66
     1
 10
0.0
 20
0.0
 30
0.0
  0
VERTEX
  5
328
  8
PROFILEEDGES
 10
-85.60519157535816
 20
-144.5152588571749
 30
0.0
 40
1.201131308198438
 41
1.201131308198438
  0
VERTEX
  5
329
  8
PROFILEEDGES
 10
-85.40089671192109
 20
-144.586402695473
 30
0.0
 40
1.201131308198438
 41
1.201131308198438
  0
SEQEND
  5
456
  8
PROFILEEDGES
  0
LINE
  5
174
  8
0
 10
-85.40089671192109
 20
-144.586402695473
 30
0.0
 11
-84.40843528857366
 21
-145.0109715420164
 31
0.0
  0
POLYLINE
  5
175
  8
PROFILEEDGES
 66
     1
 10
0.0
 20
0.0
 30
0.0
  0
VERTEX
  5
32A
  8
PROFILEEDGES
 10
-89.70847154202474
 20
-134.6090647114348
 30
0.0
 40
1.201131308198438
 41
1.201131308198438
  0
VERTEX
  5
32B
  8
PROFILEEDGES
 10
-89.75834238892043
 20
-134.8723633639058
 30
0.0
 40
1.201131308198438
 41
1.201131308198438
  0
SEQEND
  5
457
  8
PROFILEEDGES
  0
LINE
  5
176
  8
0
 10
-89.75834238892043
 20
-134.8723633639058
 30
0.0
 11
-90.0108672516214
 21
-135.8686334910929
 31
0.0
  0
POLYLINE
  5
177
  8
PROFILEEDGES
 66
     1
 10
0.0
 20
0.0
 30
0.0
  0
VERTEX
  5
32C
  8
PROFILEEDGES
 10
-84.40843528857366
 20
-129.3090284579835
 30
0.0
 40
1.201131308198438
 41
1.201131308198438
  0
VERTEX
  5
32D
  8
PROFILEEDGES
 10
-84.59986160435442
 20
-129.3997667009717
 30
0.0
 40
1.201131308198438
 41
1.201131308198438
  0
SEQEND
  5
458
  8
PROFILEEDGES
  0
LINE
  5
178
  8
0
 10
-84.59986160435442
 20
-129.3997667009717
 30
0.0
 11
-85.60519157535816
 21
-129.804741142825
 31
0.0
  0
POLYLINE
  5
179
  8
PROFILEEDGES
 66
     1
 10
0.0
 20
0.0
 30
0.0
  0
VERTEX
  5
32E
  8
PROFILEEDGES
 10
-89.75834238892043
 20
-134.8723633639058
 30
0.0
 40
1.201131308198438
 41
1.201131308198438
  0
VERTEX
  5
32F
  8
PROFILEEDGES
 10
-90.05623970794758
 20
-136.4451452105555
 30
0.0
 40
1.201131308198438
 41
1.201131308198438
  0
SEQEND
  5
459
  8
PROFILEEDGES
  0
POLYLINE
  5
17A
  8
PROFILEEDGES
 66
     1
 10
0.0
 20
0.0
 30
0.0
  0
VERTEX
  5
330
  8
PROFILEEDGES
 10
-89.03307857056852
 20
-141.1629964559819
 30
0.0
 40
1.201131308198438
 41
1.201131308198438
  0
VERTEX
  5
331
  8
PROFILEEDGES
 10
-87.96486334149137
 20
-142.6808065991343
 30
0.0
 40
1.201131308198438
 41
1.201131308198438
  0
SEQEND
  5
45A
  8
PROFILEEDGES
  0
POLYLINE
  5
17B
  8
PROFILEEDGES
 66
     1
 10
0.0
 20
0.0
 30
0.0
  0
VERTEX
  5
332
  8
PROFILEEDGES
 10
-89.03307857056852
 20
-141.1629964559819
 30
0.0
 40
1.201131308198438
 41
1.201131308198438
  0
VERTEX
  5
333
  8
PROFILEEDGES
 10
-89.65521251635087
 20
-139.825439534632
 30
0.0
 40
1.201131308198438
 41
1.201131308198438
  0
SEQEND
  5
45B
  8
PROFILEEDGES
  0
POLYLINE
  5
17C
  8
PROFILEEDGES
 66
     1
 10
0.0
 20
0.0
 30
0.0
  0
VERTEX
  5
334
  8
PROFILEEDGES
 10
-89.75834238892043
 20
-134.8723633639058
 30
0.0
 40
1.201131308198438
 41
1.201131308198438
  0
VERTEX
  5
335
  8
PROFILEEDGES
 10
-89.25596612053872
 20
-133.5279368749309
 30
0.0
 40
1.201131308198438
 41
1.201131308198438
  0
SEQEND
  5
45C
  8
PROFILEEDGES
  0
POLYLINE
  5
17D
  8
PROFILEEDGES
 66
     1
 10
0.0
 20
0.0
 30
0.0
  0
VERTEX
  5
336
  8
PROFILEEDGES
 10
-86.12081689236514
 20
-130.1207167434717
 30
0.0
 40
1.201131308198438
 41
1.201131308198438
  0
VERTEX
  5
337
  8
PROFILEEDGES
 10
-84.59986160435442
 20
-129.3997667009717
 30
0.0
 40
1.201131308198438
 41
1.201131308198438
  0
SEQEND
  5
45D
  8
PROFILEEDGES
  0
POLYLINE
  5
17E
  8
PROFILEEDGES
 66
     1
 10
0.0
 20
0.0
 30
0.0
  0
VERTEX
  5
338
  8
PROFILEEDGES
 10
-83.67848401124316
 20
-145.1862173388668
 30
0.0
 40
1.201131308198438
 41
1.201131308198438
  0
VERTEX
  5
339
  8
PROFILEEDGES
 10
-85.40089671192109
 20
-144.586402695473
 30
0.0
 40
1.201131308198438
 41
1.201131308198438
  0
SEQEND
  5
45E
  8
PROFILEEDGES
  0
POLYLINE
  5
17F
  8
PROFILEEDGES
 66
     1
 10
0.0
 20
0.0
 30
0.0
  0
VERTEX
  5
33A
  8
PROFILEEDGES
 10
-79.9520838912824
 20
-145.1659469856746
 30
0.0
 40
1.201131308198438
 41
1.201131308198438
  0
VERTEX
  5
33B
  8
PROFILEEDGES
 10
-79.30656471144358
 20
-145.0109715420164
 30
0.0
 40
1.201131308198438
 41
1.201131308198438
  0
SEQEND
  5
45F
  8
PROFILEEDGES
  0
POLYLINE
  5
180
  8
PROFILEEDGES
 66
     1
 10
0.0
 20
0.0
 30
0.0
  0
VERTEX
  5
33C
  8
PROFILEEDGES
 10
-79.30656471144358
 20
-145.0109715420164
 30
0.0
 40
1.201131308198438
 41
1.201131308198438
  0
VERTEX
  5
33D
  8
PROFILEEDGES
 10
-78.84470060712474
 20
-144.8196611660343
 30
0.0
 40
1.201131308198438
 41
1.201131308198438
  0
SEQEND
  5
460
  8
PROFILEEDGES
  0
POLYLINE
  5
181
  8
PROFILEEDGES
 66
     1
 10
0.0
 20
0.0
 30
0.0
  0
VERTEX
  5
33E
  8
PROFILEEDGES
 10
-84.40843528857366
 20
-145.0109715420164
 30
0.0
 40
1.201131308198438
 41
1.201131308198438
  0
VERTEX
  5
33F
  8
PROFILEEDGES
 10
-83.67848401124316
 20
-145.1862173388668
 30
0.0
 40
1.201131308198438
 41
1.201131308198438
  0
SEQEND
  5
461
  8
PROFILEEDGES
  0
POLYLINE
  5
182
  8
PROFILEEDGES
 66
     1
 10
0.0
 20
0.0
 30
0.0
  0
VERTEX
  5
340
  8
PROFILEEDGES
 10
-90.0108672516214
 20
-135.8686334910929
 30
0.0
 40
1.201131308198438
 41
1.201131308198438
  0
VERTEX
  5
341
  8
PROFILEEDGES
 10
-90.05623970794758
 20
-136.4451452105555
 30
0.0
 40
1.201131308198438
 41
1.201131308198438
  0
SEQEND
  5
462
  8
PROFILEEDGES
  0
POLYLINE
  5
183
  8
PROFILEEDGES
 66
     1
 10
0.0
 20
0.0
 30
0.0
  0
VERTEX
  5
342
  8
PROFILEEDGES
 10
-85.60519157535816
 20
-129.804741142825
 30
0.0
 40
1.201131308198438
 41
1.201131308198438
  0
VERTEX
  5
343
  8
PROFILEEDGES
 10
-86.12081689236514
 20
-130.1207167434717
 30
0.0
 40
1.201131308198438
 41
1.201131308198438
  0
SEQEND
  5
463
  8
PROFILEEDGES
  0
POLYLINE
  5
184
  8
PROFILEEDGES
 66
     1
 10
0.0
 20
0.0
 30
0.0
  0
VERTEX
  5
344
  8
PROFILEEDGES
 10
-90.1125000000087
 20
137.1599999999999
 30
0.0
 40
1.201131308198438
 41
1.201131308198438
  0
VERTEX
  5
345
  8
PROFILEEDGES
 10
-90.05623970794758
 20
136.4451452105555
 30
0.0
 40
1.201131308198438
 41
1.201131308198438
  0
SEQEND
  5
464
  8
PROFILEEDGES
  0
POLYLINE
  5
185
  8
PROFILEEDGES
 66
     1
 10
0.0
 20
0.0
 30
0.0
  0
VERTEX
  5
346
  8
PROFILEEDGES
 10
-90.1125000000087
 20
137.1599999999999
 30
0.0
 40
1.201131308198438
 41
1.201131308198438
  0
VERTEX
  5
347
  8
PROFILEEDGES
 10
-90.0108672516214
 20
138.4513665089071
 30
0.0
 40
1.201131308198438
 41
1.201131308198438
  0
SEQEND
  5
465
  8
PROFILEEDGES
  0
POLYLINE
  5
186
  8
PROFILEEDGES
 66
     1
 10
0.0
 20
0.0
 30
0.0
  0
VERTEX
  5
348
  8
PROFILEEDGES
 10
-87.69466647870304
 20
142.9971664786949
 30
0.0
 40
1.201131308198438
 41
1.201131308198438
  0
VERTEX
  5
349
  8
PROFILEEDGES
 10
-87.96486334149128
 20
142.6808065991344
 30
0.0
 40
1.201131308198438
 41
1.201131308198438
  0
SEQEND
  5
466
  8
PROFILEEDGES
  0
POLYLINE
  5
187
  8
PROFILEEDGES
 66
     1
 10
0.0
 20
0.0
 30
0.0
  0
VERTEX
  5
34A
  8
PROFILEEDGES
 10
-86.70966725768294
 20
130.4815647114348
 30
0.0
 40
1.201131308198438
 41
1.201131308198438
  0
VERTEX
  5
34B
  8
PROFILEEDGES
 10
-86.12081689236508
 20
130.1207167434716
 30
0.0
 40
1.201131308198438
 41
1.201131308198438
  0
SEQEND
  5
467
  8
PROFILEEDGES
  0
POLYLINE
  5
188
  8
PROFILEEDGES
 66
     1
 10
0.0
 20
0.0
 30
0.0
  0
VERTEX
  5
34C
  8
PROFILEEDGES
 10
-86.70966725768294
 20
130.4815647114348
 30
0.0
 40
1.201131308198438
 41
1.201131308198438
  0
VERTEX
  5
34D
  8
PROFILEEDGES
 10
-87.69466647870304
 20
131.322833521305
 30
0.0
 40
1.201131308198438
 41
1.201131308198438
  0
SEQEND
  5
468
  8
PROFILEEDGES
  0
POLYLINE
  5
189
  8
PROFILEEDGES
 66
     1
 10
0.0
 20
0.0
 30
0.0
  0
VERTEX
  5
34E
  8
PROFILEEDGES
 10
-85.60519157535816
 20
144.5152588571749
 30
0.0
 40
1.201131308198438
 41
1.201131308198438
  0
VERTEX
  5
34F
  8
PROFILEEDGES
 10
-86.70966725768294
 20
143.8384352885651
 30
0.0
 40
1.201131308198438
 41
1.201131308198438
  0
SEQEND
  5
469
  8
PROFILEEDGES
  0
POLYLINE
  5
18A
  8
PROFILEEDGES
 66
     1
 10
0.0
 20
0.0
 30
0.0
  0
VERTEX
  5
350
  8
PROFILEEDGES
 10
-83.14886650891523
 20
145.3133672516128
 30
0.0
 40
1.201131308198438
 41
1.201131308198438
  0
VERTEX
  5
351
  8
PROFILEEDGES
 10
-83.67848401124297
 20
145.1862173388669
 30
0.0
 40
1.201131308198438
 41
1.201131308198438
  0
SEQEND
  5
46A
  8
PROFILEEDGES
  0
POLYLINE
  5
18B
  8
PROFILEEDGES
 66
     1
 10
0.0
 20
0.0
 30
0.0
  0
VERTEX
  5
352
  8
PROFILEEDGES
 10
-74.00652845799179
 20
134.6090647114348
 30
0.0
 40
1.201131308198438
 41
1.201131308198438
  0
VERTEX
  5
353
  8
PROFILEEDGES
 10
-74.50224114283375
 20
133.41230842465
 30
0.0
 40
1.201131308198438
 41
1.201131308198438
  0
SEQEND
  5
46B
  8
PROFILEEDGES
  0
POLYLINE
  5
18C
  8
PROFILEEDGES
 66
     1
 10
0.0
 20
0.0
 30
0.0
  0
VERTEX
  5
354
  8
PROFILEEDGES
 10
-83.14886650891523
 20
129.0066327483871
 30
0.0
 40
1.201131308198438
 41
1.201131308198438
  0
VERTEX
  5
355
  8
PROFILEEDGES
 10
-84.40843528857366
 20
129.3090284579835
 30
0.0
 40
1.201131308198438
 41
1.201131308198438
  0
SEQEND
  5
46C
  8
PROFILEEDGES
  0
POLYLINE
  5
18D
  8
PROFILEEDGES
 66
     1
 10
0.0
 20
0.0
 30
0.0
  0
VERTEX
  5
356
  8
PROFILEEDGES
 10
-79.30656471144358
 20
129.3090284579835
 30
0.0
 40
1.201131308198438
 41
1.201131308198438
  0
VERTEX
  5
357
  8
PROFILEEDGES
 10
-78.10980842465837
 20
129.804741142825
 30
0.0
 40
1.201131308198438
 41
1.201131308198438
  0
SEQEND
  5
46D
  8
PROFILEEDGES
  0
POLYLINE
  5
18E
  8
PROFILEEDGES
 66
     1
 10
0.0
 20
0.0
 30
0.0
  0
VERTEX
  5
358
  8
PROFILEEDGES
 10
-80.5661334911013
 20
145.3133672516128
 30
0.0
 40
1.201131308198438
 41
1.201131308198438
  0
VERTEX
  5
359
  8
PROFILEEDGES
 10
-79.95208389128257
 20
145.1659469856746
 30
0.0
 40
1.201131308198438
 41
1.201131308198438
  0
SEQEND
  5
46E
  8
PROFILEEDGES
  0
POLYLINE
  5
18F
  8
PROFILEEDGES
 66
     1
 10
0.0
 20
0.0
 30
0.0
  0
VERTEX
  5
35A
  8
PROFILEEDGES
 10
-80.5661334911013
 20
129.0066327483871
 30
0.0
 40
1.201131308198438
 41
1.201131308198438
  0
VERTEX
  5
35B
  8
PROFILEEDGES
 10
-79.30656471144358
 20
129.3090284579835
 30
0.0
 40
1.201131308198438
 41
1.201131308198438
  0
SEQEND
  5
46F
  8
PROFILEEDGES
  0
POLYLINE
  5
190
  8
PROFILEEDGES
 66
     1
 10
0.0
 20
0.0
 30
0.0
  0
VERTEX
  5
35C
  8
PROFILEEDGES
 10
-74.00652845799173
 20
139.7109352885649
 30
0.0
 40
1.201131308198438
 41
1.201131308198438
  0
VERTEX
  5
35D
  8
PROFILEEDGES
 10
-74.50224114283375
 20
140.9076915753499
 30
0.0
 40
1.201131308198438
 41
1.201131308198438
  0
SEQEND
  5
470
  8
PROFILEEDGES
  0
POLYLINE
  5
191
  8
PROFILEEDGES
 66
     1
 10
0.0
 20
0.0
 30
0.0
  0
VERTEX
  5
35E
  8
PROFILEEDGES
 10
-73.70413274839585
 20
135.8686334910928
 30
0.0
 40
1.201131308198438
 41
1.201131308198438
  0
VERTEX
  5
35F
  8
PROFILEEDGES
 10
-73.60250000000856
 20
137.1599999999999
 30
0.0
 40
1.201131308198438
 41
1.201131308198438
  0
SEQEND
  5
471
  8
PROFILEEDGES
  0
POLYLINE
  5
192
  8
PROFILEEDGES
 66
     1
 10
0.0
 20
0.0
 30
0.0
  0
VERTEX
  5
360
  8
PROFILEEDGES
 10
-73.70413274839585
 20
135.8686334910928
 30
0.0
 40
1.201131308198438
 41
1.201131308198438
  0
VERTEX
  5
361
  8
PROFILEEDGES
 10
-74.00652845799179
 20
134.6090647114348
 30
0.0
 40
1.201131308198438
 41
1.201131308198438
  0
SEQEND
  5
472
  8
PROFILEEDGES
  0
POLYLINE
  5
193
  8
PROFILEEDGES
 66
     1
 10
0.0
 20
0.0
 30
0.0
  0
VERTEX
  5
362
  8
PROFILEEDGES
 10
-77.00533274233432
 20
130.4815647114348
 30
0.0
 40
1.201131308198438
 41
1.201131308198438
  0
VERTEX
  5
363
  8
PROFILEEDGES
 10
-78.10980842465837
 20
129.804741142825
 30
0.0
 40
1.201131308198438
 41
1.201131308198438
  0
SEQEND
  5
473
  8
PROFILEEDGES
  0
POLYLINE
  5
194
  8
PROFILEEDGES
 66
     1
 10
0.0
 20
0.0
 30
0.0
  0
VERTEX
  5
364
  8
PROFILEEDGES
 10
-78.10980842465837
 20
144.5152588571749
 30
0.0
 40
1.201131308198438
 41
1.201131308198438
  0
VERTEX
  5
365
  8
PROFILEEDGES
 10
-78.84470060712309
 20
144.8196611660336
 30
0.0
 40
1.201131308198438
 41
1.201131308198438
  0
SEQEND
  5
474
  8
PROFILEEDGES
  0
POLYLINE
  5
195
  8
PROFILEEDGES
 66
     1
 10
0.0
 20
0.0
 30
0.0
  0
VERTEX
  5
366
  8
PROFILEEDGES
 10
-78.10980842465837
 20
144.5152588571749
 30
0.0
 40
1.201131308198438
 41
1.201131308198438
  0
VERTEX
  5
367
  8
PROFILEEDGES
 10
-77.00533274233432
 20
143.8384352885651
 30
0.0
 40
1.201131308198438
 41
1.201131308198438
  0
SEQEND
  5
475
  8
PROFILEEDGES
  0
POLYLINE
  5
196
  8
PROFILEEDGES
 66
     1
 10
0.0
 20
0.0
 30
0.0
  0
VERTEX
  5
368
  8
PROFILEEDGES
 10
-75.17906471144302
 20
142.0121672576743
 30
0.0
 40
1.201131308198438
 41
1.201131308198438
  0
VERTEX
  5
369
  8
PROFILEEDGES
 10
-76.02033352131349
 20
142.9971664786949
 30
0.0
 40
1.201131308198438
 41
1.201131308198438
  0
SEQEND
  5
476
  8
PROFILEEDGES
  0
POLYLINE
  5
197
  8
PROFILEEDGES
 66
     1
 10
0.0
 20
0.0
 30
0.0
  0
VERTEX
  5
36A
  8
PROFILEEDGES
 10
-75.17906471144302
 20
142.0121672576743
 30
0.0
 40
1.201131308198438
 41
1.201131308198438
  0
VERTEX
  5
36B
  8
PROFILEEDGES
 10
-74.50224114283375
 20
140.9076915753499
 30
0.0
 40
1.201131308198438
 41
1.201131308198438
  0
SEQEND
  5
477
  8
PROFILEEDGES
  0
POLYLINE
  5
198
  8
PROFILEEDGES
 66
     1
 10
0.0
 20
0.0
 30
0.0
  0
VERTEX
  5
36C
  8
PROFILEEDGES
 10
-80.5661334911013
 20
-145.3133672516128
 30
0.0
 40
1.201131308198438
 41
1.201131308198438
  0
VERTEX
  5
36D
  8
PROFILEEDGES
 10
-79.9520838912824
 20
-145.1659469856746
 30
0.0
 40
1.201131308198438
 41
1.201131308198438
  0
SEQEND
  5
478
  8
PROFILEEDGES
  0
POLYLINE
  5
199
  8
PROFILEEDGES
 66
     1
 10
0.0
 20
0.0
 30
0.0
  0
VERTEX
  5
36E
  8
PROFILEEDGES
 10
-75.17906471144302
 20
-142.0121672576743
 30
0.0
 40
1.201131308198438
 41
1.201131308198438
  0
VERTEX
  5
36F
  8
PROFILEEDGES
 10
-76.02033352131349
 20
-142.9971664786949
 30
0.0
 40
1.201131308198438
 41
1.201131308198438
  0
SEQEND
  5
479
  8
PROFILEEDGES
  0
POLYLINE
  5
19A
  8
PROFILEEDGES
 66
     1
 10
0.0
 20
0.0
 30
0.0
  0
VERTEX
  5
370
  8
PROFILEEDGES
 10
-78.10980842465837
 20
-144.5152588571749
 30
0.0
 40
1.201131308198438
 41
1.201131308198438
  0
VERTEX
  5
371
  8
PROFILEEDGES
 10
-77.00533274233432
 20
-143.8384352885651
 30
0.0
 40
1.201131308198438
 41
1.201131308198438
  0
SEQEND
  5
47A
  8
PROFILEEDGES
  0
POLYLINE
  5
19B
  8
PROFILEEDGES
 66
     1
 10
0.0
 20
0.0
 30
0.0
  0
VERTEX
  5
372
  8
PROFILEEDGES
 10
-78.10980842465837
 20
-144.5152588571749
 30
0.0
 40
1.201131308198438
 41
1.201131308198438
  0
VERTEX
  5
373
  8
PROFILEEDGES
 10
-78.84470060712474
 20
-144.8196611660343
 30
0.0
 40
1.201131308198438
 41
1.201131308198438
  0
SEQEND
  5
47B
  8
PROFILEEDGES
  0
POLYLINE
  5
19C
  8
PROFILEEDGES
 66
     1
 10
0.0
 20
0.0
 30
0.0
  0
VERTEX
  5
374
  8
PROFILEEDGES
 10
-74.50224114283375
 20
-140.9076915753499
 30
0.0
 40
1.201131308198438
 41
1.201131308198438
  0
VERTEX
  5
375
  8
PROFILEEDGES
 10
-74.00652845799179
 20
-139.7109352885651
 30
0.0
 40
1.201131308198438
 41
1.201131308198438
  0
SEQEND
  5
47C
  8
PROFILEEDGES
  0
POLYLINE
  5
19D
  8
PROFILEEDGES
 66
     1
 10
0.0
 20
0.0
 30
0.0
  0
VERTEX
  5
376
  8
PROFILEEDGES
 10
-74.50224114283375
 20
-140.9076915753499
 30
0.0
 40
1.201131308198438
 41
1.201131308198438
  0
VERTEX
  5
377
  8
PROFILEEDGES
 10
-75.17906471144302
 20
-142.0121672576743
 30
0.0
 40
1.201131308198438
 41
1.201131308198438
  0
SEQEND
  5
47D
  8
PROFILEEDGES
  0
POLYLINE
  5
19E
  8
PROFILEEDGES
 66
     1
 10
0.0
 20
0.0
 30
0.0
  0
VERTEX
  5
378
  8
PROFILEEDGES
 10
-90.1125000000087
 20
-137.1599999999999
 30
0.0
 40
1.201131308198438
 41
1.201131308198438
  0
VERTEX
  5
379
  8
PROFILEEDGES
 10
-90.0108672516214
 20
-138.4513665089071
 30
0.0
 40
1.201131308198438
 41
1.201131308198438
  0
SEQEND
  5
47E
  8
PROFILEEDGES
  0
POLYLINE
  5
19F
  8
PROFILEEDGES
 66
     1
 10
0.0
 20
0.0
 30
0.0
  0
VERTEX
  5
37A
  8
PROFILEEDGES
 10
-90.1125000000087
 20
-137.1599999999999
 30
0.0
 40
1.201131308198438
 41
1.201131308198438
  0
VERTEX
  5
37B
  8
PROFILEEDGES
 10
-90.05623970794758
 20
-136.4451452105555
 30
0.0
 40
1.201131308198438
 41
1.201131308198438
  0
SEQEND
  5
47F
  8
PROFILEEDGES
  0
POLYLINE
  5
1A0
  8
PROFILEEDGES
 66
     1
 10
0.0
 20
0.0
 30
0.0
  0
VERTEX
  5
37C
  8
PROFILEEDGES
 10
-86.70966725768294
 20
-130.4815647114348
 30
0.0
 40
1.201131308198438
 41
1.201131308198438
  0
VERTEX
  5
37D
  8
PROFILEEDGES
 10
-87.69466647870304
 20
-131.322833521305
 30
0.0
 40
1.201131308198438
 41
1.201131308198438
  0
SEQEND
  5
480
  8
PROFILEEDGES
  0
POLYLINE
  5
1A1
  8
PROFILEEDGES
 66
     1
 10
0.0
 20
0.0
 30
0.0
  0
VERTEX
  5
37E
  8
PROFILEEDGES
 10
-86.70966725768294
 20
-130.4815647114348
 30
0.0
 40
1.201131308198438
 41
1.201131308198438
  0
VERTEX
  5
37F
  8
PROFILEEDGES
 10
-86.12081689236514
 20
-130.1207167434717
 30
0.0
 40
1.201131308198438
 41
1.201131308198438
  0
SEQEND
  5
481
  8
PROFILEEDGES
  0
POLYLINE
  5
1A2
  8
PROFILEEDGES
 66
     1
 10
0.0
 20
0.0
 30
0.0
  0
VERTEX
  5
380
  8
PROFILEEDGES
 10
-83.14886650891523
 20
-129.0066327483871
 30
0.0
 40
1.201131308198438
 41
1.201131308198438
  0
VERTEX
  5
381
  8
PROFILEEDGES
 10
-84.40843528857366
 20
-129.3090284579835
 30
0.0
 40
1.201131308198438
 41
1.201131308198438
  0
SEQEND
  5
482
  8
PROFILEEDGES
  0
POLYLINE
  5
1A3
  8
PROFILEEDGES
 66
     1
 10
0.0
 20
0.0
 30
0.0
  0
VERTEX
  5
382
  8
PROFILEEDGES
 10
-73.70413274839585
 20
-135.8686334910929
 30
0.0
 40
1.201131308198438
 41
1.201131308198438
  0
VERTEX
  5
383
  8
PROFILEEDGES
 10
-73.60250000000856
 20
-137.1599999999999
 30
0.0
 40
1.201131308198438
 41
1.201131308198438
  0
SEQEND
  5
483
  8
PROFILEEDGES
  0
POLYLINE
  5
1A4
  8
PROFILEEDGES
 66
     1
 10
0.0
 20
0.0
 30
0.0
  0
VERTEX
  5
384
  8
PROFILEEDGES
 10
-78.10980842465837
 20
-129.804741142825
 30
0.0
 40
1.201131308198438
 41
1.201131308198438
  0
VERTEX
  5
385
  8
PROFILEEDGES
 10
-79.30656471144358
 20
-129.3090284579835
 30
0.0
 40
1.201131308198438
 41
1.201131308198438
  0
SEQEND
  5
484
  8
PROFILEEDGES
  0
POLYLINE
  5
1A5
  8
PROFILEEDGES
 66
     1
 10
0.0
 20
0.0
 30
0.0
  0
VERTEX
  5
386
  8
PROFILEEDGES
 10
-78.10980842465837
 20
-129.804741142825
 30
0.0
 40
1.201131308198438
 41
1.201131308198438
  0
VERTEX
  5
387
  8
PROFILEEDGES
 10
-77.00533274233432
 20
-130.4815647114348
 30
0.0
 40
1.201131308198438
 41
1.201131308198438
  0
SEQEND
  5
485
  8
PROFILEEDGES
  0
POLYLINE
  5
1A6
  8
PROFILEEDGES
 66
     1
 10
0.0
 20
0.0
 30
0.0
  0
VERTEX
  5
388
  8
PROFILEEDGES
 10
-80.5661334911013
 20
-129.0066327483871
 30
0.0
 40
1.201131308198438
 41
1.201131308198438
  0
VERTEX
  5
389
  8
PROFILEEDGES
 10
-79.30656471144358
 20
-129.3090284579835
 30
0.0
 40
1.201131308198438
 41
1.201131308198438
  0
SEQEND
  5
486
  8
PROFILEEDGES
  0
POLYLINE
  5
1A7
  8
PROFILEEDGES
 66
     1
 10
0.0
 20
0.0
 30
0.0
  0
VERTEX
  5
38A
  8
PROFILEEDGES
 10
-74.00652845799179
 20
-134.6090647114348
 30
0.0
 40
1.201131308198438
 41
1.201131308198438
  0
VERTEX
  5
38B
  8
PROFILEEDGES
 10
-74.50224114283375
 20
-133.41230842465
 30
0.0
 40
1.201131308198438
 41
1.201131308198438
  0
SEQEND
  5
487
  8
PROFILEEDGES
  0
POLYLINE
  5
1A8
  8
PROFILEEDGES
 66
     1
 10
0.0
 20
0.0
 30
0.0
  0
VERTEX
  5
38C
  8
PROFILEEDGES
 10
-74.00652845799179
 20
-134.6090647114348
 30
0.0
 40
1.201131308198438
 41
1.201131308198438
  0
VERTEX
  5
38D
  8
PROFILEEDGES
 10
-73.70413274839585
 20
-135.8686334910929
 30
0.0
 40
1.201131308198438
 41
1.201131308198438
  0
SEQEND
  5
488
  8
PROFILEEDGES
  0
POLYLINE
  5
1A9
  8
PROFILEEDGES
 66
     1
 10
0.0
 20
0.0
 30
0.0
  0
VERTEX
  5
38E
  8
PROFILEEDGES
 10
-83.14886650891523
 20
-145.3133672516128
 30
0.0
 40
1.201131308198438
 41
1.201131308198438
  0
VERTEX
  5
38F
  8
PROFILEEDGES
 10
-83.67848401124316
 20
-145.1862173388668
 30
0.0
 40
1.201131308198438
 41
1.201131308198438
  0
SEQEND
  5
489
  8
PROFILEEDGES
  0
POLYLINE
  5
1AA
  8
PROFILEEDGES
 66
     1
 10
0.0
 20
0.0
 30
0.0
  0
VERTEX
  5
390
  8
PROFILEEDGES
 10
-86.70966725768294
 20
-143.8384352885651
 30
0.0
 40
1.201131308198438
 41
1.201131308198438
  0
VERTEX
  5
391
  8
PROFILEEDGES
 10
-85.60519157535816
 20
-144.5152588571749
 30
0.0
 40
1.201131308198438
 41
1.201131308198438
  0
SEQEND
  5
48A
  8
PROFILEEDGES
  0
POLYLINE
  5
1AB
  8
PROFILEEDGES
 66
     1
 10
0.0
 20
0.0
 30
0.0
  0
VERTEX
  5
392
  8
PROFILEEDGES
 10
-87.96486334149137
 20
-142.6808065991343
 30
0.0
 40
1.201131308198438
 41
1.201131308198438
  0
VERTEX
  5
393
  8
PROFILEEDGES
 10
-87.69466647870304
 20
-142.9971664786949
 30
0.0
 40
1.201131308198438
 41
1.201131308198438
  0
SEQEND
  5
48B
  8
PROFILEEDGES
  0
POLYLINE
  5
1AC
  8
PROFILEEDGES
 66
     1
 10
0.0
 20
0.0
 30
0.0
  0
VERTEX
  5
394
  8
PROFILEEDGES
 10
197.427499999992
 20
-190.5
 30
0.0
 40
1.201131308198438
 41
1.201131308198438
  0
VERTEX
  5
395
  8
PROFILEEDGES
 10
197.427499999992
 20
190.5
 30
0.0
 40
1.201131308198438
 41
1.201131308198438
  0
SEQEND
  5
48C
  8
PROFILEEDGES
  0
POLYLINE
  5
1AD
  8
PROFILEEDGES
 66
     1
 10
0.0
 20
0.0
 30
0.0
  0
VERTEX
  5
396
  8
PROFILEEDGES
 10
285.057499999992
 20
-63.5
 30
0.0
 40
1.201131308198438
 41
1.201131308198438
  0
VERTEX
  5
397
  8
PROFILEEDGES
 10
285.057499999992
 20
63.50000000000002
 30
0.0
 40
1.201131308198438
 41
1.201131308198438
  0
SEQEND
  5
48D
  8
PROFILEEDGES
  0
POLYLINE
  5
1AE
  8
PROFILEEDGES
 66
     1
 10
0.0
 20
0.0
 30
0.0
  0
VERTEX
  5
398
  8
PROFILEEDGES
 10
254.5775000000068
 20
63.50000000000002
 30
0.0
 40
1.201131308198438
 41
1.201131308198438
  0
VERTEX
  5
399
  8
PROFILEEDGES
 10
254.577499999992
 20
203.2
 30
0.0
 40
1.201131308198438
 41
1.201131308198438
  0
SEQEND
  5
48E
  8
PROFILEEDGES
  0
POLYLINE
  5
1AF
  8
PROFILEEDGES
 66
     1
 10
0.0
 20
0.0
 30
0.0
  0
VERTEX
  5
39A
  8
PROFILEEDGES
 10
254.5775000000068
 20
63.50000000000002
 30
0.0
 40
1.201131308198438
 41
1.201131308198438
  0
VERTEX
  5
39B
  8
PROFILEEDGES
 10
254.577499999992
 20
-63.5
 30
0.0
 40
1.201131308198438
 41
1.201131308198438
  0
SEQEND
  5
48F
  8
PROFILEEDGES
  0
POLYLINE
  5
1B0
  8
PROFILEEDGES
 66
     1
 10
0.0
 20
0.0
 30
0.0
  0
VERTEX
  5
39C
  8
PROFILEEDGES
 10
254.577499999992
 20
-63.5
 30
0.0
 40
1.201131308198438
 41
1.201131308198438
  0
VERTEX
  5
39D
  8
PROFILEEDGES
 10
254.577499999992
 20
-203.2
 30
0.0
 40
1.201131308198438
 41
1.201131308198438
  0
SEQEND
  5
490
  8
PROFILEEDGES
  0
ENDSEC
  0
EOF
