  0
SECTION
  2
HEADER
  9
$ACADVER
  1
AC1009
  9
$DWGCODEPAGE
  3
ansi_1252
  9
$INSBASE
 10
0.0
 20
0.0
 30
0.0
  9
$EXTMIN
 10
1.000000000000000E+20
 20
1.000000000000000E+20
 30
1.000000000000000E+20
  9
$EXTMAX
 10
-1.000000000000000E+20
 20
-1.000000000000000E+20
 30
-1.000000000000000E+20
  9
$LIMMIN
 10
0.0
 20
0.0
  9
$LIMMAX
 10
12.0
 20
9.0
  9
$ORTHOMODE
 70
     0
  9
$REGENMODE
 70
     1
  9
$FILLMODE
 70
     1
  9
$QTEXTMODE
 70
     0
  9
$MIRRTEXT
 70
     1
  9
$DRAGMODE
 70
     2
  9
$LTSCALE
 40
1.0
  9
$OSMODE
 70
    37
  9
$ATTMODE
 70
     1
  9
$TEXTSIZE
 40
0.2
  9
$TRACEWID
 40
0.05
  9
$TEXTSTYLE
  7
STANDARD
  9
$CLAYER
  8
0
  9
$CELTYPE
  6
BYLAYER
  9
$CECOLOR
 62
   256
  9
$DIMSCALE
 40
1.0
  9
$DIMASZ
 40
0.18
  9
$DIMEXO
 40
0.0625
  9
$DIMDLI
 40
0.38
  9
$DIMRND
 40
0.0
  9
$DIMDLE
 40
0.0
  9
$DIMEXE
 40
0.18
  9
$DIMTP
 40
0.0
  9
$DIMTM
 40
0.0
  9
$DIMTXT
 40
0.18
  9
$DIMCEN
 40
0.09
  9
$DIMTSZ
 40
0.0
  9
$DIMTOL
 70
     0
  9
$DIMLIM
 70
     0
  9
$DIMTIH
 70
     1
  9
$DIMTOH
 70
     1
  9
$DIMSE1
 70
     0
  9
$DIMSE2
 70
     0
  9
$DIMTAD
 70
     0
  9
$DIMZIN
 70
     0
  9
$DIMBLK
  1

  9
$DIMASO
 70
     1
  9
$DIMSHO
 70
     1
  9
$DIMPOST
  1

  9
$DIMAPOST
  1

  9
$DIMALT
 70
     0
  9
$DIMALTD
 70
     2
  9
$DIMALTF
 40
25.4
  9
$DIMLFAC
 40
1.0
  9
$DIMTOFL
 70
     0
  9
$DIMTVP
 40
0.0
  9
$DIMTIX
 70
     0
  9
$DIMSOXD
 70
     0
  9
$DIMSAH
 70
     0
  9
$DIMBLK1
  1

  9
$DIMBLK2
  1

  9
$DIMSTYLE
  2
STANDARD
  9
$DIMCLRD
 70
     0
  9
$DIMCLRE
 70
     0
  9
$DIMCLRT
 70
     0
  9
$DIMTFAC
 40
1.0
  9
$DIMGAP
 40
0.09
  9
$LUNITS
 70
     2
  9
$LUPREC
 70
     4
  9
$SKETCHINC
 40
0.1
  9
$FILLETRAD
 40
0.0
  9
$AUNITS
 70
     0
  9
$AUPREC
 70
     0
  9
$MENU
  1
.
  9
$ELEVATION
 40
0.0
  9
$PELEVATION
 40
0.0
  9
$THICKNESS
 40
0.0
  9
$LIMCHECK
 70
     0
  9
$CHAMFERA
 40
0.0
  9
$CHAMFERB
 40
0.0
  9
$SKPOLY
 70
     0
  9
$TDCREATE
 40
2460273.356134919
  9
$TDUPDATE
 40
2460273.356135162
  9
$TDINDWG
 40
0.0000000116
  9
$TDUSRTIMER
 40
0.0000000116
  9
$USRTIMER
 70
     1
  9
$ANGBASE
 50
0.0
  9
$ANGDIR
 70
     0
  9
$PDMODE
 70
     0
  9
$PDSIZE
 40
0.0
  9
$PLINEWID
 40
0.0
  9
$COORDS
 70
     1
  9
$SPLFRAME
 70
     0
  9
$SPLINETYPE
 70
     6
  9
$SPLINESEGS
 70
     8
  9
$ATTDIA
 70
     0
  9
$ATTREQ
 70
     1
  9
$HANDLING
 70
     1
  9
$HANDSEED
  5
4F1
  9
$SURFTAB1
 70
     6
  9
$SURFTAB2
 70
     6
  9
$SURFTYPE
 70
     6
  9
$SURFU
 70
     6
  9
$SURFV
 70
     6
  9
$UCSNAME
  2

  9
$UCSORG
 10
0.0
 20
0.0
 30
0.0
  9
$UCSXDIR
 10
1.0
 20
0.0
 30
0.0
  9
$UCSYDIR
 10
0.0
 20
1.0
 30
0.0
  9
$PUCSNAME
  2

  9
$PUCSORG
 10
0.0
 20
0.0
 30
0.0
  9
$PUCSXDIR
 10
1.0
 20
0.0
 30
0.0
  9
$PUCSYDIR
 10
0.0
 20
1.0
 30
0.0
  9
$USERI1
 70
     0
  9
$USERI2
 70
     0
  9
$USERI3
 70
     0
  9
$USERI4
 70
     0
  9
$USERI5
 70
     0
  9
$USERR1
 40
0.0
  9
$USERR2
 40
0.0
  9
$USERR3
 40
0.0
  9
$USERR4
 40
0.0
  9
$USERR5
 40
0.0
  9
$WORLDVIEW
 70
     1
  9
$SHADEDGE
 70
     3
  9
$SHADEDIF
 70
    70
  9
$TILEMODE
 70
     1
  9
$MAXACTVP
 70
    64
  9
$PLIMCHECK
 70
     0
  9
$PEXTMIN
 10
1.000000000000000E+20
 20
1.000000000000000E+20
 30
1.000000000000000E+20
  9
$PEXTMAX
 10
-1.000000000000000E+20
 20
-1.000000000000000E+20
 30
-1.000000000000000E+20
  9
$PLIMMIN
 10
0.0
 20
0.0
  9
$PLIMMAX
 10
12.0
 20
9.0
  9
$UNITMODE
 70
     0
  9
$VISRETAIN
 70
     1
  9
$PLINEGEN
 70
     0
  9
$PSLTSCALE
 70
     1
  0
ENDSEC
  0
SECTION
  2
TABLES
  0
TABLE
  2
VPORT
 70
     1
  0
VPORT
  2
*ACTIVE
 70
     0
 10
0.0
 20
0.0
 11
1.0
 21
1.0
 12
0.0
 22
0.0
 13
0.0
 23
0.0
 14
0.5
 24
0.5
 15
0.5
 25
0.5
 16
0.0
 26
0.0
 36
1.0
 17
0.0
 27
0.0
 37
-1000.0
 40
236.9912973478123
 41
1.658454647256439
 42
50.0
 43
552.9208661823925
 44
784.4716298160191
 50
0.0
 51
0.0
 71
     0
 72
   100
 73
     1
 74
     3
 75
     0
 76
     0
 77
     0
 78
     0
  0
ENDTAB
  0
TABLE
  2
LTYPE
 70
     1
  0
LTYPE
  2
CONTINUOUS
 70
     0
  3
Solid line
 72
    65
 73
     0
 40
0.0
  0
ENDTAB
  0
TABLE
  2
LAYER
 70
     3
  0
LAYER
  2
0
 70
     0
 62
     7
  6
CONTINUOUS
  0
LAYER
  2
PROFILEEDGES
 70
     0
 62
     7
  6
CONTINUOUS
  0
LAYER
  2
SECTIONCUTEDGES
 70
     0
 62
     7
  6
CONTINUOUS
  0
ENDTAB
  0
TABLE
  2
STYLE
 70
     1
  0
STYLE
  2
STANDARD
 70
     0
 40
0.0
 41
1.0
 50
0.0
 71
     0
 42
0.2
  3
txt
  4

  0
ENDTAB
  0
TABLE
  2
VIEW
 70
     0
  0
ENDTAB
  0
TABLE
  2
UCS
 70
     0
  0
ENDTAB
  0
TABLE
  2
APPID
 70
     1
  0
APPID
  2
ACAD
 70
     0
  0
ENDTAB
  0
TABLE
  2
DIMSTYLE
 70
     1
  0
DIMSTYLE
  2
STANDARD
 70
     0
  3

  4

  5

  6

  7

 40
1.0
 41
0.18
 42
0.0625
 43
0.38
 44
0.18
 45
0.0
 46
0.0
 47
0.0
 48
0.0
140
0.18
141
0.09
142
0.0
143
25.4
144
1.0
145
0.0
146
1.0
147
0.09
 71
     0
 72
     0
 73
     1
 74
     1
 75
     0
 76
     0
 77
     0
 78
     0
170
     0
171
     2
172
     0
173
     0
174
     0
175
     0
176
     0
177
     0
178
     0
  0
ENDTAB
  0
ENDSEC
  0
SECTION
  2
BLOCKS
  0
BLOCK
  8
0
  2
$MODEL_SPACE
 70
     0
 10
0.0
 20
0.0
 30
0.0
  3
$MODEL_SPACE
  1

  0
ENDBLK
  5
21
  8
0
  0
BLOCK
 67
     1
  8
0
  2
$PAPER_SPACE
 70
     0
 10
0.0
 20
0.0
 30
0.0
  3
$PAPER_SPACE
  1

  0
ENDBLK
  5
1D
 67
     1
  8
0
  0
ENDSEC
  0
SECTION
  2
ENTITIES
  0
POLYLINE
  5
60
  8
PROFILEEDGES
 66
     1
 10
0.0
 20
0.0
 30
0.0
  0
VERTEX
  5
1D0
  8
PROFILEEDGES
 10
-62.62693936020583
 20
50.66176673025331
 30
0.0
 40
0.5307755819659851
 41
0.5307755819659851
  0
VERTEX
  5
1D1
  8
PROFILEEDGES
 10
-62.93150990091589
 20
51.91974425288561
 30
0.0
 40
0.5307755819659851
 41
0.5307755819659851
  0
SEQEND
  5
3E6
  8
PROFILEEDGES
  0
POLYLINE
  5
61
  8
PROFILEEDGES
 66
     1
 10
0.0
 20
0.0
 30
0.0
  0
VERTEX
  5
1D2
  8
PROFILEEDGES
 10
-62.93150990091589
 20
-52.17434021524814
 30
0.0
 40
0.5307755819659851
 41
0.5307755819659851
  0
VERTEX
  5
1D3
  8
PROFILEEDGES
 10
-62.62693936020585
 20
-50.91636269261608
 30
0.0
 40
0.5307755819659851
 41
0.5307755819659851
  0
SEQEND
  5
3E7
  8
PROFILEEDGES
  0
LINE
  5
62
  8
0
 10
-70.45552022513715
 20
50.72930488630504
 30
0.0
 11
-69.87399001437491
 21
48.30705723311642
 31
0.0
  0
LINE
  5
63
  8
0
 10
-69.87399001437491
 20
48.30705723311642
 30
0.0
 11
-68.92069638967969
 21
46.00560283545342
 31
0.0
  0
LINE
  5
64
  8
0
 10
-68.92069638967969
 20
46.00560283545342
 30
0.0
 11
-67.61911260389164
 21
43.8816111386757
 31
0.0
  0
LINE
  5
65
  8
0
 10
-67.61911260389164
 20
43.8816111386757
 30
0.0
 11
-66.00128796952579
 21
41.98738186748228
 31
0.0
  0
LINE
  5
66
  8
0
 10
-66.00128796952579
 20
41.98738186748228
 30
0.0
 11
-64.10705869833237
 21
40.36955723311644
 31
0.0
  0
LINE
  5
67
  8
0
 10
-64.10705869833237
 20
40.36955723311644
 30
0.0
 11
-61.98306700155465
 21
39.06797344732838
 31
0.0
  0
LINE
  5
68
  8
0
 10
-61.98306700155465
 20
39.06797344732838
 30
0.0
 11
-59.68161260389164
 21
38.11467982263316
 31
0.0
  0
LINE
  5
69
  8
0
 10
-59.68161260389164
 20
38.11467982263316
 30
0.0
 11
-57.25936495070302
 21
37.5331496118709
 31
0.0
  0
LINE
  5
6A
  8
0
 10
-57.25936495070302
 20
37.5331496118709
 30
0.0
 11
-54.77596781818935
 21
37.33770201881873
 31
0.0
  0
LINE
  5
6B
  8
0
 10
-54.77596781818935
 20
37.33770201881873
 30
0.0
 11
-52.29257068567568
 21
37.53314961187092
 31
0.0
  0
LINE
  5
6C
  8
0
 10
-52.29257068567568
 20
37.53314961187092
 30
0.0
 11
-49.87032303248706
 21
38.11467982263316
 31
0.0
  0
LINE
  5
6D
  8
0
 10
-49.87032303248706
 20
38.11467982263316
 30
0.0
 11
-47.56886863482404
 21
39.06797344732838
 31
0.0
  0
LINE
  5
6E
  8
0
 10
-47.56886863482404
 20
39.06797344732838
 30
0.0
 11
-45.44487693804633
 21
40.36955723311644
 31
0.0
  0
LINE
  5
6F
  8
0
 10
-45.44487693804633
 20
40.36955723311644
 30
0.0
 11
-43.5506476668529
 21
41.98738186748228
 31
0.0
  0
LINE
  5
70
  8
0
 10
-43.5506476668529
 20
41.98738186748228
 30
0.0
 11
-41.93282303248706
 21
43.8816111386757
 31
0.0
  0
LINE
  5
71
  8
0
 10
-41.93282303248706
 20
43.8816111386757
 30
0.0
 11
-40.63123924669901
 21
46.00560283545342
 31
0.0
  0
LINE
  5
72
  8
0
 10
-40.63123924669901
 20
46.00560283545342
 30
0.0
 11
-39.67794562200378
 21
48.30705723311644
 31
0.0
  0
LINE
  5
73
  8
0
 10
-39.67794562200378
 20
48.30705723311644
 30
0.0
 11
-39.09641541124154
 21
50.72930488630504
 31
0.0
  0
LINE
  5
74
  8
0
 10
-39.09641541124154
 20
50.72930488630504
 30
0.0
 11
-38.90096781818935
 21
53.21270201881873
 31
0.0
  0
LINE
  5
75
  8
0
 10
-38.90096781818935
 20
53.21270201881873
 30
0.0
 11
-39.09641541124154
 21
55.69609915133241
 31
0.0
  0
LINE
  5
76
  8
0
 10
-39.09641541124154
 20
55.69609915133241
 30
0.0
 11
-39.67794562200378
 21
58.11834680452102
 31
0.0
  0
LINE
  5
77
  8
0
 10
-39.67794562200378
 20
58.11834680452102
 30
0.0
 11
-40.63123924669901
 21
60.41980120218403
 31
0.0
  0
LINE
  5
78
  8
0
 10
-40.63123924669901
 20
60.41980120218403
 30
0.0
 11
-41.93282303248706
 21
62.54379289896173
 31
0.0
  0
LINE
  5
79
  8
0
 10
-41.93282303248706
 20
62.54379289896173
 30
0.0
 11
-43.5506476668529
 21
64.43802217015516
 31
0.0
  0
LINE
  5
7A
  8
0
 10
-43.5506476668529
 20
64.43802217015516
 30
0.0
 11
-45.44487693804635
 21
66.055846804521
 31
0.0
  0
LINE
  5
7B
  8
0
 10
-45.44487693804635
 20
66.055846804521
 30
0.0
 11
-47.56886863482404
 21
67.35743059030905
 31
0.0
  0
LINE
  5
7C
  8
0
 10
-47.56886863482404
 20
67.35743059030905
 30
0.0
 11
-49.87032303248706
 21
68.31072421500429
 31
0.0
  0
LINE
  5
7D
  8
0
 10
-49.87032303248706
 20
68.31072421500429
 30
0.0
 11
-52.29257068567569
 21
68.89225442576654
 31
0.0
  0
LINE
  5
7E
  8
0
 10
-52.29257068567569
 20
68.89225442576654
 30
0.0
 11
-54.77596781818935
 21
69.08770201881873
 31
0.0
  0
POLYLINE
  5
7F
  8
PROFILEEDGES
 66
     1
 10
0.0
 20
0.0
 30
0.0
  0
VERTEX
  5
1D4
  8
PROFILEEDGES
 10
-50.30585297966474
 20
-28.35049231368732
 30
0.0
 40
0.5307755819659851
 41
0.5307755819659851
  0
VERTEX
  5
1D5
  8
PROFILEEDGES
 10
-54.77596781818935
 20
-28.70229798118126
 30
0.0
 40
0.5307755819659851
 41
0.5307755819659851
  0
SEQEND
  5
3E8
  8
PROFILEEDGES
  0
POLYLINE
  5
80
  8
PROFILEEDGES
 66
     1
 10
0.0
 20
0.0
 30
0.0
  0
VERTEX
  5
1D6
  8
PROFILEEDGES
 10
-50.30585297966474
 20
-28.35049231368732
 30
0.0
 40
0.5307755819659851
 41
0.5307755819659851
  0
VERTEX
  5
1D7
  8
PROFILEEDGES
 10
-45.94580720392522
 20
-27.30373793431527
 30
0.0
 40
0.5307755819659851
 41
0.5307755819659851
  0
SEQEND
  5
3E9
  8
PROFILEEDGES
  0
POLYLINE
  5
81
  8
PROFILEEDGES
 66
     1
 10
0.0
 20
0.0
 30
0.0
  0
VERTEX
  5
1D8
  8
PROFILEEDGES
 10
-41.8031892881318
 20
-25.58780940986388
 30
0.0
 40
0.5307755819659851
 41
0.5307755819659851
  0
VERTEX
  5
1D9
  8
PROFILEEDGES
 10
-45.94580720392522
 20
-27.30373793431527
 30
0.0
 40
0.5307755819659851
 41
0.5307755819659851
  0
SEQEND
  5
3EA
  8
PROFILEEDGES
  0
POLYLINE
  5
82
  8
PROFILEEDGES
 66
     1
 10
0.0
 20
0.0
 30
0.0
  0
VERTEX
  5
1DA
  8
PROFILEEDGES
 10
-37.98000423393192
 20
-23.24495859544539
 30
0.0
 40
0.5307755819659851
 41
0.5307755819659851
  0
VERTEX
  5
1DB
  8
PROFILEEDGES
 10
-41.8031892881318
 20
-25.58780940986388
 30
0.0
 40
0.5307755819659851
 41
0.5307755819659851
  0
SEQEND
  5
3EB
  8
PROFILEEDGES
  0
POLYLINE
  5
83
  8
PROFILEEDGES
 66
     1
 10
0.0
 20
0.0
 30
0.0
  0
VERTEX
  5
1DC
  8
PROFILEEDGES
 10
-37.98000423393192
 20
-23.24495859544539
 30
0.0
 40
0.5307755819659851
 41
0.5307755819659851
  0
VERTEX
  5
1DD
  8
PROFILEEDGES
 10
-34.57039154578375
 20
-20.33287425358686
 30
0.0
 40
0.5307755819659851
 41
0.5307755819659851
  0
SEQEND
  5
3EC
  8
PROFILEEDGES
  0
POLYLINE
  5
84
  8
PROFILEEDGES
 66
     1
 10
0.0
 20
0.0
 30
0.0
  0
VERTEX
  5
1DE
  8
PROFILEEDGES
 10
-31.65830720392522
 20
-16.9232615654387
 30
0.0
 40
0.5307755819659851
 41
0.5307755819659851
  0
VERTEX
  5
1DF
  8
PROFILEEDGES
 10
-34.57039154578375
 20
-20.33287425358686
 30
0.0
 40
0.5307755819659851
 41
0.5307755819659851
  0
SEQEND
  5
3ED
  8
PROFILEEDGES
  0
POLYLINE
  5
85
  8
PROFILEEDGES
 66
     1
 10
0.0
 20
0.0
 30
0.0
  0
VERTEX
  5
1E0
  8
PROFILEEDGES
 10
-31.65830720392522
 20
-16.9232615654387
 30
0.0
 40
0.5307755819659851
 41
0.5307755819659851
  0
VERTEX
  5
1E1
  8
PROFILEEDGES
 10
-29.31545638950672
 20
-13.10007651123881
 30
0.0
 40
0.5307755819659851
 41
0.5307755819659851
  0
SEQEND
  5
3EE
  8
PROFILEEDGES
  0
POLYLINE
  5
86
  8
PROFILEEDGES
 66
     1
 10
0.0
 20
0.0
 30
0.0
  0
VERTEX
  5
1E2
  8
PROFILEEDGES
 10
-27.59952786505534
 20
-8.957458595445392
 30
0.0
 40
0.5307755819659851
 41
0.5307755819659851
  0
VERTEX
  5
1E3
  8
PROFILEEDGES
 10
-29.31545638950672
 20
-13.10007651123881
 30
0.0
 40
0.5307755819659851
 41
0.5307755819659851
  0
SEQEND
  5
3EF
  8
PROFILEEDGES
  0
POLYLINE
  5
87
  8
PROFILEEDGES
 66
     1
 10
0.0
 20
0.0
 30
0.0
  0
VERTEX
  5
1E4
  8
PROFILEEDGES
 10
-26.55277348568329
 20
-4.597412819705855
 30
0.0
 40
0.5307755819659851
 41
0.5307755819659851
  0
VERTEX
  5
1E5
  8
PROFILEEDGES
 10
-27.59952786505534
 20
-8.957458595445392
 30
0.0
 40
0.5307755819659851
 41
0.5307755819659851
  0
SEQEND
  5
3F0
  8
PROFILEEDGES
  0
POLYLINE
  5
88
  8
PROFILEEDGES
 66
     1
 10
0.0
 20
0.0
 30
0.0
  0
VERTEX
  5
1E6
  8
PROFILEEDGES
 10
-26.55277348568329
 20
-4.597412819705855
 30
0.0
 40
0.5307755819659851
 41
0.5307755819659851
  0
VERTEX
  5
1E7
  8
PROFILEEDGES
 10
-26.20096781818935
 20
-0.1272979811812599
 30
0.0
 40
0.5307755819659851
 41
0.5307755819659851
  0
SEQEND
  5
3F1
  8
PROFILEEDGES
  0
POLYLINE
  5
89
  8
PROFILEEDGES
 66
     1
 10
0.0
 20
0.0
 30
0.0
  0
VERTEX
  5
1E8
  8
PROFILEEDGES
 10
-26.55277348568329
 20
4.342816857343334
 30
0.0
 40
0.5307755819659851
 41
0.5307755819659851
  0
VERTEX
  5
1E9
  8
PROFILEEDGES
 10
-26.20096781818935
 20
-0.1272979811812599
 30
0.0
 40
0.5307755819659851
 41
0.5307755819659851
  0
SEQEND
  5
3F2
  8
PROFILEEDGES
  0
POLYLINE
  5
8A
  8
PROFILEEDGES
 66
     1
 10
0.0
 20
0.0
 30
0.0
  0
VERTEX
  5
1EA
  8
PROFILEEDGES
 10
-26.55277348568329
 20
4.342816857343334
 30
0.0
 40
0.5307755819659851
 41
0.5307755819659851
  0
VERTEX
  5
1EB
  8
PROFILEEDGES
 10
-27.59952786505534
 20
8.70286263308285
 30
0.0
 40
0.5307755819659851
 41
0.5307755819659851
  0
SEQEND
  5
3F3
  8
PROFILEEDGES
  0
POLYLINE
  5
8B
  8
PROFILEEDGES
 66
     1
 10
0.0
 20
0.0
 30
0.0
  0
VERTEX
  5
1EC
  8
PROFILEEDGES
 10
-56.06733432709645
 20
45.05933476720586
 30
0.0
 40
0.5307755819659851
 41
0.5307755819659851
  0
VERTEX
  5
1ED
  8
PROFILEEDGES
 10
-54.77596781818935
 20
44.95770201881872
 30
0.0
 40
0.5307755819659851
 41
0.5307755819659851
  0
SEQEND
  5
3F4
  8
PROFILEEDGES
  0
POLYLINE
  5
8C
  8
PROFILEEDGES
 66
     1
 10
0.0
 20
0.0
 30
0.0
  0
VERTEX
  5
1EE
  8
PROFILEEDGES
 10
-46.92499627617286
 20
50.66176673025353
 30
0.0
 40
0.5307755819659851
 41
0.5307755819659851
  0
VERTEX
  5
1EF
  8
PROFILEEDGES
 10
-46.62260056657649
 20
51.92133550991161
 30
0.0
 40
0.5307755819659851
 41
0.5307755819659851
  0
SEQEND
  5
3F5
  8
PROFILEEDGES
  0
POLYLINE
  5
8D
  8
PROFILEEDGES
 66
     1
 10
0.0
 20
0.0
 30
0.0
  0
VERTEX
  5
1F0
  8
PROFILEEDGES
 10
-46.78959476186042
 20
55.19964941094842
 30
0.0
 40
0.5307755819659851
 41
0.5307755819659851
  0
VERTEX
  5
1F1
  8
PROFILEEDGES
 10
-46.57713609902691
 20
53.92638769481966
 30
0.0
 40
0.5307755819659851
 41
0.5307755819659851
  0
SEQEND
  5
3F6
  8
PROFILEEDGES
  0
POLYLINE
  5
8E
  8
PROFILEEDGES
 66
     1
 10
0.0
 20
0.0
 30
0.0
  0
VERTEX
  5
1F2
  8
PROFILEEDGES
 10
-46.92499627617286
 20
55.7636373073839
 30
0.0
 40
0.5307755819659851
 41
0.5307755819659851
  0
VERTEX
  5
1F3
  8
PROFILEEDGES
 10
-47.42070896101438
 20
56.96039359416868
 30
0.0
 40
0.5307755819659851
 41
0.5307755819659851
  0
SEQEND
  5
3F7
  8
PROFILEEDGES
  0
POLYLINE
  5
8F
  8
PROFILEEDGES
 66
     1
 10
0.0
 20
0.0
 30
0.0
  0
VERTEX
  5
1F4
  8
PROFILEEDGES
 10
-49.92380056051499
 20
59.89113730738389
 30
0.0
 40
0.5307755819659851
 41
0.5307755819659851
  0
VERTEX
  5
1F5
  8
PROFILEEDGES
 10
-51.0282762428394
 20
60.5679608759937
 30
0.0
 40
0.5307755819659851
 41
0.5307755819659851
  0
SEQEND
  5
3F8
  8
PROFILEEDGES
  0
POLYLINE
  5
90
  8
PROFILEEDGES
 66
     1
 10
0.0
 20
0.0
 30
0.0
  0
VERTEX
  5
1F6
  8
PROFILEEDGES
 10
-52.799763679123
 20
61.20165430201158
 30
0.0
 40
0.5307755819659851
 41
0.5307755819659851
  0
VERTEX
  5
1F7
  8
PROFILEEDGES
 10
-51.57606849782619
 20
60.79486385737216
 30
0.0
 40
0.5307755819659851
 41
0.5307755819659851
  0
SEQEND
  5
3F9
  8
PROFILEEDGES
  0
POLYLINE
  5
91
  8
PROFILEEDGES
 66
     1
 10
0.0
 20
0.0
 30
0.0
  0
VERTEX
  5
1F8
  8
PROFILEEDGES
 10
-53.48460130928225
 20
61.36606927043159
 30
0.0
 40
0.5307755819659851
 41
0.5307755819659851
  0
VERTEX
  5
1F9
  8
PROFILEEDGES
 10
-54.77596781818935
 20
61.46770201881876
 30
0.0
 40
0.5307755819659851
 41
0.5307755819659851
  0
SEQEND
  5
3FA
  8
PROFILEEDGES
  0
LINE
  5
92
  8
0
 10
-54.77596781818935
 20
61.46770201881876
 30
0.0
 11
-54.77596781818935
 21
69.08770201881873
 31
0.0
  0
LINE
  5
93
  8
0
 10
-54.77596781818935
 20
69.08770201881873
 30
0.0
 11
-57.25936495070302
 21
68.89225442576654
 31
0.0
  0
LINE
  5
94
  8
0
 10
-57.25936495070302
 20
68.89225442576654
 30
0.0
 11
-59.68161260389164
 21
68.31072421500429
 31
0.0
  0
LINE
  5
95
  8
0
 10
-59.68161260389164
 20
68.31072421500429
 30
0.0
 11
-61.98306700155465
 21
67.35743059030905
 31
0.0
  0
LINE
  5
96
  8
0
 10
-61.98306700155465
 20
67.35743059030905
 30
0.0
 11
-64.10705869833237
 21
66.055846804521
 31
0.0
  0
LINE
  5
97
  8
0
 10
-64.10705869833237
 20
66.055846804521
 30
0.0
 11
-66.00128796952579
 21
64.43802217015516
 31
0.0
  0
LINE
  5
98
  8
0
 10
-66.00128796952579
 20
64.43802217015516
 30
0.0
 11
-67.61911260389164
 21
62.54379289896173
 31
0.0
  0
LINE
  5
99
  8
0
 10
-67.61911260389164
 20
62.54379289896173
 30
0.0
 11
-68.92069638967969
 21
60.41980120218403
 31
0.0
  0
LINE
  5
9A
  8
0
 10
-68.92069638967969
 20
60.41980120218403
 30
0.0
 11
-69.87399001437491
 21
58.11834680452102
 31
0.0
  0
LINE
  5
9B
  8
0
 10
-69.87399001437491
 20
58.11834680452102
 30
0.0
 11
-70.45552022513715
 21
55.69609915133238
 31
0.0
  0
LINE
  5
9C
  8
0
 10
-70.45552022513715
 20
55.69609915133238
 30
0.0
 11
-70.65096781818934
 21
53.21270201881873
 31
0.0
  0
LINE
  5
9D
  8
0
 10
-70.65096781818934
 20
53.21270201881873
 30
0.0
 11
-70.45552022513715
 21
50.72930488630504
 31
0.0
  0
LINE
  5
9E
  8
0
 10
-39.09641541124151
 20
-55.95069511369492
 30
0.0
 11
-38.90096781818932
 21
-53.46729798118124
 31
0.0
  0
LINE
  5
9F
  8
0
 10
-39.67794562200375
 20
-58.37294276688355
 30
0.0
 11
-39.09641541124151
 21
-55.95069511369492
 31
0.0
  0
LINE
  5
A0
  8
0
 10
-40.63123924669897
 20
-60.67439716454656
 30
0.0
 11
-39.67794562200375
 21
-58.37294276688355
 31
0.0
  0
LINE
  5
A1
  8
0
 10
-41.93282303248703
 20
-62.79838886132427
 30
0.0
 11
-40.63123924669897
 21
-60.67439716454656
 31
0.0
  0
LINE
  5
A2
  8
0
 10
-43.55064766685288
 20
-64.6926181325177
 30
0.0
 11
-41.93282303248703
 21
-62.79838886132427
 31
0.0
  0
LINE
  5
A3
  8
0
 10
-45.44487693804632
 20
-66.31044276688355
 30
0.0
 11
-43.55064766685288
 21
-64.6926181325177
 31
0.0
  0
LINE
  5
A4
  8
0
 10
-47.56886863482404
 20
-67.61202655267161
 30
0.0
 11
-45.44487693804632
 21
-66.31044276688355
 31
0.0
  0
LINE
  5
A5
  8
0
 10
-49.87032303248705
 20
-68.56532017736683
 30
0.0
 11
-47.56886863482404
 21
-67.61202655267161
 31
0.0
  0
LINE
  5
A6
  8
0
 10
-52.29257068567568
 20
-69.14685038812908
 30
0.0
 11
-49.87032303248705
 21
-68.56532017736683
 31
0.0
  0
LINE
  5
A7
  8
0
 10
-54.77596781818935
 20
-69.34229798118128
 30
0.0
 11
-52.29257068567568
 21
-69.14685038812908
 31
0.0
  0
POLYLINE
  5
A8
  8
PROFILEEDGES
 66
     1
 10
0.0
 20
0.0
 30
0.0
  0
VERTEX
  5
1FA
  8
PROFILEEDGES
 10
-54.77596781818935
 20
61.46770201881876
 30
0.0
 40
0.5307755819659851
 41
0.5307755819659851
  0
VERTEX
  5
1FB
  8
PROFILEEDGES
 10
-56.06733432709646
 20
61.36606927043157
 30
0.0
 40
0.5307755819659851
 41
0.5307755819659851
  0
SEQEND
  5
3FB
  8
PROFILEEDGES
  0
POLYLINE
  5
A9
  8
PROFILEEDGES
 66
     1
 10
0.0
 20
0.0
 30
0.0
  0
VERTEX
  5
1FC
  8
PROFILEEDGES
 10
-58.52365939353931
 20
60.5679608759937
 30
0.0
 40
0.5307755819659851
 41
0.5307755819659851
  0
VERTEX
  5
1FD
  8
PROFILEEDGES
 10
-59.62813507586371
 20
59.89113730738389
 30
0.0
 40
0.5307755819659851
 41
0.5307755819659851
  0
SEQEND
  5
3FC
  8
PROFILEEDGES
  0
POLYLINE
  5
AA
  8
PROFILEEDGES
 66
     1
 10
0.0
 20
0.0
 30
0.0
  0
VERTEX
  5
1FE
  8
PROFILEEDGES
 10
-62.13122667536432
 20
56.96039359416868
 30
0.0
 40
0.5307755819659851
 41
0.5307755819659851
  0
VERTEX
  5
1FF
  8
PROFILEEDGES
 10
-62.62693936020583
 20
55.7636373073839
 30
0.0
 40
0.5307755819659851
 41
0.5307755819659851
  0
SEQEND
  5
3FD
  8
PROFILEEDGES
  0
POLYLINE
  5
AB
  8
PROFILEEDGES
 66
     1
 10
0.0
 20
0.0
 30
0.0
  0
VERTEX
  5
200
  8
PROFILEEDGES
 10
-63.03096781818934
 20
53.21270201881873
 30
0.0
 40
0.5307755819659851
 41
0.5307755819659851
  0
VERTEX
  5
201
  8
PROFILEEDGES
 10
-62.93150990091589
 20
51.91974425288561
 30
0.0
 40
0.5307755819659851
 41
0.5307755819659851
  0
SEQEND
  5
3FE
  8
PROFILEEDGES
  0
POLYLINE
  5
AC
  8
PROFILEEDGES
 66
     1
 10
0.0
 20
0.0
 30
0.0
  0
VERTEX
  5
202
  8
PROFILEEDGES
 10
-54.77596781818935
 20
44.95770201881872
 30
0.0
 40
0.5307755819659851
 41
0.5307755819659851
  0
VERTEX
  5
203
  8
PROFILEEDGES
 10
-53.48460130928224
 20
45.05933476720586
 30
0.0
 40
0.5307755819659851
 41
0.5307755819659851
  0
SEQEND
  5
3FF
  8
PROFILEEDGES
  0
POLYLINE
  5
AD
  8
PROFILEEDGES
 66
     1
 10
0.0
 20
0.0
 30
0.0
  0
VERTEX
  5
204
  8
PROFILEEDGES
 10
-46.57713609902692
 20
-54.1809836571822
 30
0.0
 40
0.5307755819659851
 41
0.5307755819659851
  0
VERTEX
  5
205
  8
PROFILEEDGES
 10
-46.78959476186043
 20
-55.45424537331096
 30
0.0
 40
0.5307755819659851
 41
0.5307755819659851
  0
SEQEND
  5
400
  8
PROFILEEDGES
  0
POLYLINE
  5
AE
  8
PROFILEEDGES
 66
     1
 10
0.0
 20
0.0
 30
0.0
  0
VERTEX
  5
206
  8
PROFILEEDGES
 10
-47.42070896101438
 20
-57.21498955653119
 30
0.0
 40
0.5307755819659851
 41
0.5307755819659851
  0
VERTEX
  5
207
  8
PROFILEEDGES
 10
-46.92499627617286
 20
-56.01823326974643
 30
0.0
 40
0.5307755819659851
 41
0.5307755819659851
  0
SEQEND
  5
401
  8
PROFILEEDGES
  0
POLYLINE
  5
AF
  8
PROFILEEDGES
 66
     1
 10
0.0
 20
0.0
 30
0.0
  0
VERTEX
  5
208
  8
PROFILEEDGES
 10
-47.6283247109938
 20
-57.55378766840963
 30
0.0
 40
0.5307755819659851
 41
0.5307755819659851
  0
VERTEX
  5
209
  8
PROFILEEDGES
 10
-48.37041511861069
 20
-58.63896969977014
 30
0.0
 40
0.5307755819659851
 41
0.5307755819659851
  0
SEQEND
  5
402
  8
PROFILEEDGES
  0
POLYLINE
  5
B0
  8
PROFILEEDGES
 66
     1
 10
0.0
 20
0.0
 30
0.0
  0
VERTEX
  5
20A
  8
PROFILEEDGES
 10
-51.0282762428394
 20
-60.82255683835621
 30
0.0
 40
0.5307755819659851
 41
0.5307755819659851
  0
VERTEX
  5
20B
  8
PROFILEEDGES
 10
-49.92380056051499
 20
-60.14573326974642
 30
0.0
 40
0.5307755819659851
 41
0.5307755819659851
  0
SEQEND
  5
403
  8
PROFILEEDGES
  0
POLYLINE
  5
B1
  8
PROFILEEDGES
 66
     1
 10
0.0
 20
0.0
 30
0.0
  0
VERTEX
  5
20C
  8
PROFILEEDGES
 10
-51.57606849782658
 20
-61.04945981973484
 30
0.0
 40
0.5307755819659851
 41
0.5307755819659851
  0
VERTEX
  5
20D
  8
PROFILEEDGES
 10
-52.79976367912289
 20
-61.45625026437407
 30
0.0
 40
0.5307755819659851
 41
0.5307755819659851
  0
SEQEND
  5
404
  8
PROFILEEDGES
  0
POLYLINE
  5
B2
  8
PROFILEEDGES
 66
     1
 10
0.0
 20
0.0
 30
0.0
  0
VERTEX
  5
20E
  8
PROFILEEDGES
 10
-54.77596781818935
 20
-61.72229798118126
 30
0.0
 40
0.5307755819659851
 41
0.5307755819659851
  0
VERTEX
  5
20F
  8
PROFILEEDGES
 10
-53.48460130928225
 20
-61.6206652327941
 30
0.0
 40
0.5307755819659851
 41
0.5307755819659851
  0
SEQEND
  5
405
  8
PROFILEEDGES
  0
LINE
  5
B3
  8
0
 10
-57.25936495070302
 20
-69.1468503881291
 30
0.0
 11
-54.77596781818935
 21
-69.34229798118128
 31
0.0
  0
LINE
  5
B4
  8
0
 10
-54.77596781818935
 20
-69.34229798118128
 30
0.0
 11
-54.77596781818935
 21
-61.72229798118126
 31
0.0
  0
LINE
  5
B5
  8
0
 10
-59.68161260389164
 20
-68.56532017736683
 30
0.0
 11
-57.25936495070302
 21
-69.1468503881291
 31
0.0
  0
LINE
  5
B6
  8
0
 10
-61.98306700155467
 20
-67.61202655267161
 30
0.0
 11
-59.68161260389164
 21
-68.56532017736683
 31
0.0
  0
LINE
  5
B7
  8
0
 10
-64.10705869833237
 20
-66.31044276688355
 30
0.0
 11
-61.98306700155467
 21
-67.61202655267161
 31
0.0
  0
LINE
  5
B8
  8
0
 10
-66.00128796952582
 20
-64.69261813251771
 30
0.0
 11
-64.10705869833237
 21
-66.31044276688355
 31
0.0
  0
LINE
  5
B9
  8
0
 10
-67.61911260389167
 20
-62.79838886132427
 30
0.0
 11
-66.00128796952582
 21
-64.69261813251771
 31
0.0
  0
LINE
  5
BA
  8
0
 10
-68.92069638967972
 20
-60.67439716454656
 30
0.0
 11
-67.61911260389167
 21
-62.79838886132427
 31
0.0
  0
LINE
  5
BB
  8
0
 10
-69.87399001437494
 20
-58.37294276688355
 30
0.0
 11
-68.92069638967972
 21
-60.67439716454656
 31
0.0
  0
LINE
  5
BC
  8
0
 10
-70.45552022513719
 20
-55.95069511369492
 30
0.0
 11
-69.87399001437494
 21
-58.37294276688355
 31
0.0
  0
LINE
  5
BD
  8
0
 10
-70.65096781818939
 20
-53.46729798118124
 30
0.0
 11
-70.45552022513719
 21
-55.95069511369492
 31
0.0
  0
LINE
  5
BE
  8
0
 10
-70.45552022513719
 20
-50.98390084866758
 30
0.0
 11
-70.65096781818939
 21
-53.46729798118124
 31
0.0
  0
LINE
  5
BF
  8
0
 10
-69.87399001437494
 20
-48.56165319547894
 30
0.0
 11
-70.45552022513719
 21
-50.98390084866758
 31
0.0
  0
LINE
  5
C0
  8
0
 10
-68.92069638967972
 20
-46.26019879781592
 30
0.0
 11
-69.87399001437494
 21
-48.56165319547894
 31
0.0
  0
LINE
  5
C1
  8
0
 10
-67.61911260389167
 20
-44.13620710103822
 30
0.0
 11
-68.92069638967972
 21
-46.26019879781592
 31
0.0
  0
LINE
  5
C2
  8
0
 10
-66.00128796952582
 20
-42.24197782984479
 30
0.0
 11
-67.61911260389167
 21
-44.13620710103822
 31
0.0
  0
LINE
  5
C3
  8
0
 10
-64.10705869833237
 20
-40.62415319547893
 30
0.0
 11
-66.00128796952582
 21
-42.24197782984479
 31
0.0
  0
LINE
  5
C4
  8
0
 10
-61.98306700155467
 20
-39.32256940969088
 30
0.0
 11
-64.10705869833237
 21
-40.62415319547893
 31
0.0
  0
LINE
  5
C5
  8
0
 10
-59.68161260389164
 20
-38.36927578499565
 30
0.0
 11
-61.98306700155467
 21
-39.32256940969088
 31
0.0
  0
LINE
  5
C6
  8
0
 10
-57.25936495070302
 20
-37.7877455742334
 30
0.0
 11
-59.68161260389164
 21
-38.36927578499565
 31
0.0
  0
LINE
  5
C7
  8
0
 10
-54.77596781818935
 20
-37.59229798118121
 30
0.0
 11
-57.25936495070302
 21
-37.7877455742334
 31
0.0
  0
LINE
  5
C8
  8
0
 10
-52.29257068567568
 20
-37.7877455742334
 30
0.0
 11
-54.77596781818935
 21
-37.59229798118121
 31
0.0
  0
LINE
  5
C9
  8
0
 10
-49.87032303248705
 20
-38.36927578499565
 30
0.0
 11
-52.29257068567568
 21
-37.7877455742334
 31
0.0
  0
LINE
  5
CA
  8
0
 10
-47.56886863482404
 20
-39.32256940969088
 30
0.0
 11
-49.87032303248705
 21
-38.36927578499565
 31
0.0
  0
LINE
  5
CB
  8
0
 10
-45.44487693804632
 20
-40.62415319547892
 30
0.0
 11
-47.56886863482404
 21
-39.32256940969088
 31
0.0
  0
LINE
  5
CC
  8
0
 10
-43.55064766685288
 20
-42.24197782984479
 30
0.0
 11
-45.44487693804632
 21
-40.62415319547892
 31
0.0
  0
LINE
  5
CD
  8
0
 10
-41.93282303248704
 20
-44.1362071010382
 30
0.0
 11
-43.55064766685288
 21
-42.24197782984479
 31
0.0
  0
LINE
  5
CE
  8
0
 10
-40.63123924669897
 20
-46.26019879781592
 30
0.0
 11
-41.93282303248704
 21
-44.1362071010382
 31
0.0
  0
LINE
  5
CF
  8
0
 10
-39.67794562200375
 20
-48.56165319547894
 30
0.0
 11
-40.63123924669897
 21
-46.26019879781592
 31
0.0
  0
LINE
  5
D0
  8
0
 10
-39.09641541124151
 20
-50.98390084866757
 30
0.0
 11
-39.67794562200375
 21
-48.56165319547894
 31
0.0
  0
LINE
  5
D1
  8
0
 10
-38.90096781818932
 20
-53.46729798118124
 30
0.0
 11
-39.09641541124151
 21
-50.98390084866757
 31
0.0
  0
POLYLINE
  5
D2
  8
PROFILEEDGES
 66
     1
 10
0.0
 20
0.0
 30
0.0
  0
VERTEX
  5
210
  8
PROFILEEDGES
 10
-62.62693936020583
 20
-56.01823326974643
 30
0.0
 40
0.5307755819659851
 41
0.5307755819659851
  0
VERTEX
  5
211
  8
PROFILEEDGES
 10
-62.13122667536432
 20
-57.21498955653119
 30
0.0
 40
0.5307755819659851
 41
0.5307755819659851
  0
SEQEND
  5
406
  8
PROFILEEDGES
  0
POLYLINE
  5
D3
  8
PROFILEEDGES
 66
     1
 10
0.0
 20
0.0
 30
0.0
  0
VERTEX
  5
212
  8
PROFILEEDGES
 10
-62.93150990091589
 20
-52.17434021524814
 30
0.0
 40
0.5307755819659851
 41
0.5307755819659851
  0
VERTEX
  5
213
  8
PROFILEEDGES
 10
-63.03096781818934
 20
-53.46729798118124
 30
0.0
 40
0.5307755819659851
 41
0.5307755819659851
  0
SEQEND
  5
407
  8
PROFILEEDGES
  0
POLYLINE
  5
D4
  8
PROFILEEDGES
 66
     1
 10
0.0
 20
0.0
 30
0.0
  0
VERTEX
  5
214
  8
PROFILEEDGES
 10
-53.48460130928224
 20
-45.31393072956839
 30
0.0
 40
0.5307755819659851
 41
0.5307755819659851
  0
VERTEX
  5
215
  8
PROFILEEDGES
 10
-54.77596781818935
 20
-45.21229798118125
 30
0.0
 40
0.5307755819659851
 41
0.5307755819659851
  0
SEQEND
  5
408
  8
PROFILEEDGES
  0
POLYLINE
  5
D5
  8
PROFILEEDGES
 66
     1
 10
0.0
 20
0.0
 30
0.0
  0
VERTEX
  5
216
  8
PROFILEEDGES
 10
-54.77596781818935
 20
-45.21229798118125
 30
0.0
 40
0.5307755819659851
 41
0.5307755819659851
  0
VERTEX
  5
217
  8
PROFILEEDGES
 10
-56.06733432709645
 20
-45.31393072956838
 30
0.0
 40
0.5307755819659851
 41
0.5307755819659851
  0
SEQEND
  5
409
  8
PROFILEEDGES
  0
POLYLINE
  5
D6
  8
PROFILEEDGES
 66
     1
 10
0.0
 20
0.0
 30
0.0
  0
VERTEX
  5
218
  8
PROFILEEDGES
 10
-46.62260056657649
 20
-52.17593147227414
 30
0.0
 40
0.5307755819659851
 41
0.5307755819659851
  0
VERTEX
  5
219
  8
PROFILEEDGES
 10
-46.92499627617286
 20
-50.91636269261605
 30
0.0
 40
0.5307755819659851
 41
0.5307755819659851
  0
SEQEND
  5
40A
  8
PROFILEEDGES
  0
POLYLINE
  5
D7
  8
PROFILEEDGES
 66
     1
 10
0.0
 20
0.0
 30
0.0
  0
VERTEX
  5
21A
  8
PROFILEEDGES
 10
-56.06733432709646
 20
-61.6206652327941
 30
0.0
 40
0.5307755819659851
 41
0.5307755819659851
  0
VERTEX
  5
21B
  8
PROFILEEDGES
 10
-54.77596781818935
 20
-61.72229798118126
 30
0.0
 40
0.5307755819659851
 41
0.5307755819659851
  0
SEQEND
  5
40B
  8
PROFILEEDGES
  0
POLYLINE
  5
D8
  8
PROFILEEDGES
 66
     1
 10
0.0
 20
0.0
 30
0.0
  0
VERTEX
  5
21C
  8
PROFILEEDGES
 10
-59.62813507586371
 20
-60.14573326974642
 30
0.0
 40
0.5307755819659851
 41
0.5307755819659851
  0
VERTEX
  5
21D
  8
PROFILEEDGES
 10
-58.52365939353931
 20
-60.82255683835621
 30
0.0
 40
0.5307755819659851
 41
0.5307755819659851
  0
SEQEND
  5
40C
  8
PROFILEEDGES
  0
POLYLINE
  5
D9
  8
PROFILEEDGES
 66
     1
 10
0.0
 20
0.0
 30
0.0
  0
VERTEX
  5
21E
  8
PROFILEEDGES
 10
-54.77596781818935
 20
-16.63729798118127
 30
0.0
 40
0.5307755819659851
 41
0.5307755819659851
  0
VERTEX
  5
21F
  8
PROFILEEDGES
 10
-52.19323480037514
 20
-16.43403248440699
 30
0.0
 40
0.5307755819659851
 41
0.5307755819659851
  0
SEQEND
  5
40D
  8
PROFILEEDGES
  0
POLYLINE
  5
DA
  8
PROFILEEDGES
 66
     1
 10
0.0
 20
0.0
 30
0.0
  0
VERTEX
  5
220
  8
PROFILEEDGES
 10
-52.19323480037514
 20
-16.43403248440699
 30
0.0
 40
0.5307755819659851
 41
0.5307755819659851
  0
VERTEX
  5
221
  8
PROFILEEDGES
 10
-49.67409724105896
 20
-15.82924106521426
 30
0.0
 40
0.5307755819659851
 41
0.5307755819659851
  0
SEQEND
  5
40E
  8
PROFILEEDGES
  0
POLYLINE
  5
DB
  8
PROFILEEDGES
 66
     1
 10
0.0
 20
0.0
 30
0.0
  0
VERTEX
  5
222
  8
PROFILEEDGES
 10
-49.67409724105896
 20
-15.82924106521426
 30
0.0
 40
0.5307755819659851
 41
0.5307755819659851
  0
VERTEX
  5
223
  8
PROFILEEDGES
 10
-47.28058466748943
 20
-14.83781569553122
 30
0.0
 40
0.5307755819659851
 41
0.5307755819659851
  0
SEQEND
  5
40F
  8
PROFILEEDGES
  0
POLYLINE
  5
DC
  8
PROFILEEDGES
 66
     1
 10
0.0
 20
0.0
 30
0.0
  0
VERTEX
  5
224
  8
PROFILEEDGES
 10
-47.28058466748943
 20
-14.83781569553122
 30
0.0
 40
0.5307755819659851
 41
0.5307755819659851
  0
VERTEX
  5
225
  8
PROFILEEDGES
 10
-45.07163330284062
 20
-13.48416855831165
 30
0.0
 40
0.5307755819659851
 41
0.5307755819659851
  0
SEQEND
  5
410
  8
PROFILEEDGES
  0
POLYLINE
  5
DD
  8
PROFILEEDGES
 66
     1
 10
0.0
 20
0.0
 30
0.0
  0
VERTEX
  5
226
  8
PROFILEEDGES
 10
-45.07163330284062
 20
-13.48416855831165
 30
0.0
 40
0.5307755819659851
 41
0.5307755819659851
  0
VERTEX
  5
227
  8
PROFILEEDGES
 10
-43.10163486079945
 20
-11.80163093857116
 30
0.0
 40
0.5307755819659851
 41
0.5307755819659851
  0
SEQEND
  5
411
  8
PROFILEEDGES
  0
POLYLINE
  5
DE
  8
PROFILEEDGES
 66
     1
 10
0.0
 20
0.0
 30
0.0
  0
VERTEX
  5
228
  8
PROFILEEDGES
 10
-43.10163486079945
 20
-11.80163093857116
 30
0.0
 40
0.5307755819659851
 41
0.5307755819659851
  0
VERTEX
  5
229
  8
PROFILEEDGES
 10
-41.41909724105896
 20
-9.831632496530004
 30
0.0
 40
0.5307755819659851
 41
0.5307755819659851
  0
SEQEND
  5
412
  8
PROFILEEDGES
  0
POLYLINE
  5
DF
  8
PROFILEEDGES
 66
     1
 10
0.0
 20
0.0
 30
0.0
  0
VERTEX
  5
22A
  8
PROFILEEDGES
 10
-41.41909724105896
 20
-9.831632496530004
 30
0.0
 40
0.5307755819659851
 41
0.5307755819659851
  0
VERTEX
  5
22B
  8
PROFILEEDGES
 10
-40.06545010383939
 20
-7.622681131881181
 30
0.0
 40
0.5307755819659851
 41
0.5307755819659851
  0
SEQEND
  5
413
  8
PROFILEEDGES
  0
POLYLINE
  5
E0
  8
PROFILEEDGES
 66
     1
 10
0.0
 20
0.0
 30
0.0
  0
VERTEX
  5
22C
  8
PROFILEEDGES
 10
-40.06545010383939
 20
-7.622681131881181
 30
0.0
 40
0.5307755819659851
 41
0.5307755819659851
  0
VERTEX
  5
22D
  8
PROFILEEDGES
 10
-39.07402473415635
 20
-5.22916855831165
 30
0.0
 40
0.5307755819659851
 41
0.5307755819659851
  0
SEQEND
  5
414
  8
PROFILEEDGES
  0
POLYLINE
  5
E1
  8
PROFILEEDGES
 66
     1
 10
0.0
 20
0.0
 30
0.0
  0
VERTEX
  5
22E
  8
PROFILEEDGES
 10
-39.07402473415635
 20
-5.22916855831165
 30
0.0
 40
0.5307755819659851
 41
0.5307755819659851
  0
VERTEX
  5
22F
  8
PROFILEEDGES
 10
-38.46923331496361
 20
-2.710030998995481
 30
0.0
 40
0.5307755819659851
 41
0.5307755819659851
  0
SEQEND
  5
415
  8
PROFILEEDGES
  0
POLYLINE
  5
E2
  8
PROFILEEDGES
 66
     1
 10
0.0
 20
0.0
 30
0.0
  0
VERTEX
  5
230
  8
PROFILEEDGES
 10
-38.46923331496361
 20
-2.710030998995481
 30
0.0
 40
0.5307755819659851
 41
0.5307755819659851
  0
VERTEX
  5
231
  8
PROFILEEDGES
 10
-38.26596781818934
 20
-0.1272979811812599
 30
0.0
 40
0.5307755819659851
 41
0.5307755819659851
  0
SEQEND
  5
416
  8
PROFILEEDGES
  0
POLYLINE
  5
E3
  8
PROFILEEDGES
 66
     1
 10
0.0
 20
0.0
 30
0.0
  0
VERTEX
  5
232
  8
PROFILEEDGES
 10
-38.26596781818934
 20
-0.1272979811812599
 30
0.0
 40
0.5307755819659851
 41
0.5307755819659851
  0
VERTEX
  5
233
  8
PROFILEEDGES
 10
-38.46923331496361
 20
2.455435036632938
 30
0.0
 40
0.5307755819659851
 41
0.5307755819659851
  0
SEQEND
  5
417
  8
PROFILEEDGES
  0
POLYLINE
  5
E4
  8
PROFILEEDGES
 66
     1
 10
0.0
 20
0.0
 30
0.0
  0
VERTEX
  5
234
  8
PROFILEEDGES
 10
-38.46923331496361
 20
2.455435036632938
 30
0.0
 40
0.5307755819659851
 41
0.5307755819659851
  0
VERTEX
  5
235
  8
PROFILEEDGES
 10
-39.07402473415635
 20
4.974572595949107
 30
0.0
 40
0.5307755819659851
 41
0.5307755819659851
  0
SEQEND
  5
418
  8
PROFILEEDGES
  0
POLYLINE
  5
E5
  8
PROFILEEDGES
 66
     1
 10
0.0
 20
0.0
 30
0.0
  0
VERTEX
  5
236
  8
PROFILEEDGES
 10
-39.07402473415635
 20
4.974572595949107
 30
0.0
 40
0.5307755819659851
 41
0.5307755819659851
  0
VERTEX
  5
237
  8
PROFILEEDGES
 10
-40.06545010383939
 20
7.368085169518661
 30
0.0
 40
0.5307755819659851
 41
0.5307755819659851
  0
SEQEND
  5
419
  8
PROFILEEDGES
  0
POLYLINE
  5
E6
  8
PROFILEEDGES
 66
     1
 10
0.0
 20
0.0
 30
0.0
  0
VERTEX
  5
238
  8
PROFILEEDGES
 10
-40.06545010383939
 20
7.368085169518661
 30
0.0
 40
0.5307755819659851
 41
0.5307755819659851
  0
VERTEX
  5
239
  8
PROFILEEDGES
 10
-41.41909724105896
 20
9.577036534167462
 30
0.0
 40
0.5307755819659851
 41
0.5307755819659851
  0
SEQEND
  5
41A
  8
PROFILEEDGES
  0
POLYLINE
  5
E7
  8
PROFILEEDGES
 66
     1
 10
0.0
 20
0.0
 30
0.0
  0
VERTEX
  5
23A
  8
PROFILEEDGES
 10
-41.41909724105896
 20
9.577036534167462
 30
0.0
 40
0.5307755819659851
 41
0.5307755819659851
  0
VERTEX
  5
23B
  8
PROFILEEDGES
 10
-43.10163486079945
 20
11.54703497620864
 30
0.0
 40
0.5307755819659851
 41
0.5307755819659851
  0
SEQEND
  5
41B
  8
PROFILEEDGES
  0
POLYLINE
  5
E8
  8
PROFILEEDGES
 66
     1
 10
0.0
 20
0.0
 30
0.0
  0
VERTEX
  5
23C
  8
PROFILEEDGES
 10
-43.10163486079945
 20
11.54703497620864
 30
0.0
 40
0.5307755819659851
 41
0.5307755819659851
  0
VERTEX
  5
23D
  8
PROFILEEDGES
 10
-45.07163330284062
 20
13.22957259594911
 30
0.0
 40
0.5307755819659851
 41
0.5307755819659851
  0
SEQEND
  5
41C
  8
PROFILEEDGES
  0
POLYLINE
  5
E9
  8
PROFILEEDGES
 66
     1
 10
0.0
 20
0.0
 30
0.0
  0
VERTEX
  5
23E
  8
PROFILEEDGES
 10
-45.07163330284062
 20
13.22957259594911
 30
0.0
 40
0.5307755819659851
 41
0.5307755819659851
  0
VERTEX
  5
23F
  8
PROFILEEDGES
 10
-47.28058466748943
 20
14.5832197331687
 30
0.0
 40
0.5307755819659851
 41
0.5307755819659851
  0
SEQEND
  5
41D
  8
PROFILEEDGES
  0
POLYLINE
  5
EA
  8
PROFILEEDGES
 66
     1
 10
0.0
 20
0.0
 30
0.0
  0
VERTEX
  5
240
  8
PROFILEEDGES
 10
-47.28058466748943
 20
14.5832197331687
 30
0.0
 40
0.5307755819659851
 41
0.5307755819659851
  0
VERTEX
  5
241
  8
PROFILEEDGES
 10
-49.67409724105897
 20
15.57464510285171
 30
0.0
 40
0.5307755819659851
 41
0.5307755819659851
  0
SEQEND
  5
41E
  8
PROFILEEDGES
  0
POLYLINE
  5
EB
  8
PROFILEEDGES
 66
     1
 10
0.0
 20
0.0
 30
0.0
  0
VERTEX
  5
242
  8
PROFILEEDGES
 10
-49.67409724105897
 20
15.57464510285171
 30
0.0
 40
0.5307755819659851
 41
0.5307755819659851
  0
VERTEX
  5
243
  8
PROFILEEDGES
 10
-52.19323480037514
 20
16.17943652204445
 30
0.0
 40
0.5307755819659851
 41
0.5307755819659851
  0
SEQEND
  5
41F
  8
PROFILEEDGES
  0
POLYLINE
  5
EC
  8
PROFILEEDGES
 66
     1
 10
0.0
 20
0.0
 30
0.0
  0
VERTEX
  5
244
  8
PROFILEEDGES
 10
-57.35870083600357
 20
16.17943652204445
 30
0.0
 40
0.5307755819659851
 41
0.5307755819659851
  0
VERTEX
  5
245
  8
PROFILEEDGES
 10
-59.87783839531973
 20
15.57464510285171
 30
0.0
 40
0.5307755819659851
 41
0.5307755819659851
  0
SEQEND
  5
420
  8
PROFILEEDGES
  0
POLYLINE
  5
ED
  8
PROFILEEDGES
 66
     1
 10
0.0
 20
0.0
 30
0.0
  0
VERTEX
  5
246
  8
PROFILEEDGES
 10
-54.77596781818935
 20
16.38270201881875
 30
0.0
 40
0.5307755819659851
 41
0.5307755819659851
  0
VERTEX
  5
247
  8
PROFILEEDGES
 10
-57.35870083600357
 20
16.17943652204445
 30
0.0
 40
0.5307755819659851
 41
0.5307755819659851
  0
SEQEND
  5
421
  8
PROFILEEDGES
  0
POLYLINE
  5
EE
  8
PROFILEEDGES
 66
     1
 10
0.0
 20
0.0
 30
0.0
  0
VERTEX
  5
248
  8
PROFILEEDGES
 10
-52.19323480037514
 20
16.17943652204445
 30
0.0
 40
0.5307755819659851
 41
0.5307755819659851
  0
VERTEX
  5
249
  8
PROFILEEDGES
 10
-54.77596781818935
 20
16.38270201881875
 30
0.0
 40
0.5307755819659851
 41
0.5307755819659851
  0
SEQEND
  5
422
  8
PROFILEEDGES
  0
POLYLINE
  5
EF
  8
PROFILEEDGES
 66
     1
 10
0.0
 20
0.0
 30
0.0
  0
VERTEX
  5
24A
  8
PROFILEEDGES
 10
-59.87783839531973
 20
15.57464510285171
 30
0.0
 40
0.5307755819659851
 41
0.5307755819659851
  0
VERTEX
  5
24B
  8
PROFILEEDGES
 10
-62.27135096888927
 20
14.5832197331687
 30
0.0
 40
0.5307755819659851
 41
0.5307755819659851
  0
SEQEND
  5
423
  8
PROFILEEDGES
  0
POLYLINE
  5
F0
  8
PROFILEEDGES
 66
     1
 10
0.0
 20
0.0
 30
0.0
  0
VERTEX
  5
24C
  8
PROFILEEDGES
 10
-62.27135096888927
 20
14.5832197331687
 30
0.0
 40
0.5307755819659851
 41
0.5307755819659851
  0
VERTEX
  5
24D
  8
PROFILEEDGES
 10
-64.48030233353808
 20
13.22957259594911
 30
0.0
 40
0.5307755819659851
 41
0.5307755819659851
  0
SEQEND
  5
424
  8
PROFILEEDGES
  0
POLYLINE
  5
F1
  8
PROFILEEDGES
 66
     1
 10
0.0
 20
0.0
 30
0.0
  0
VERTEX
  5
24E
  8
PROFILEEDGES
 10
-64.48030233353808
 20
13.22957259594911
 30
0.0
 40
0.5307755819659851
 41
0.5307755819659851
  0
VERTEX
  5
24F
  8
PROFILEEDGES
 10
-66.45030077557925
 20
11.54703497620864
 30
0.0
 40
0.5307755819659851
 41
0.5307755819659851
  0
SEQEND
  5
425
  8
PROFILEEDGES
  0
POLYLINE
  5
F2
  8
PROFILEEDGES
 66
     1
 10
0.0
 20
0.0
 30
0.0
  0
VERTEX
  5
250
  8
PROFILEEDGES
 10
-66.45030077557925
 20
11.54703497620864
 30
0.0
 40
0.5307755819659851
 41
0.5307755819659851
  0
VERTEX
  5
251
  8
PROFILEEDGES
 10
-68.13283839531974
 20
9.577036534167462
 30
0.0
 40
0.5307755819659851
 41
0.5307755819659851
  0
SEQEND
  5
426
  8
PROFILEEDGES
  0
POLYLINE
  5
F3
  8
PROFILEEDGES
 66
     1
 10
0.0
 20
0.0
 30
0.0
  0
VERTEX
  5
252
  8
PROFILEEDGES
 10
-68.13283839531974
 20
9.577036534167462
 30
0.0
 40
0.5307755819659851
 41
0.5307755819659851
  0
VERTEX
  5
253
  8
PROFILEEDGES
 10
-69.4864855325393
 20
7.368085169518661
 30
0.0
 40
0.5307755819659851
 41
0.5307755819659851
  0
SEQEND
  5
427
  8
PROFILEEDGES
  0
POLYLINE
  5
F4
  8
PROFILEEDGES
 66
     1
 10
0.0
 20
0.0
 30
0.0
  0
VERTEX
  5
254
  8
PROFILEEDGES
 10
-69.4864855325393
 20
7.368085169518661
 30
0.0
 40
0.5307755819659851
 41
0.5307755819659851
  0
VERTEX
  5
255
  8
PROFILEEDGES
 10
-70.47791090222235
 20
4.974572595949107
 30
0.0
 40
0.5307755819659851
 41
0.5307755819659851
  0
SEQEND
  5
428
  8
PROFILEEDGES
  0
POLYLINE
  5
F5
  8
PROFILEEDGES
 66
     1
 10
0.0
 20
0.0
 30
0.0
  0
VERTEX
  5
256
  8
PROFILEEDGES
 10
-70.47791090222235
 20
4.974572595949107
 30
0.0
 40
0.5307755819659851
 41
0.5307755819659851
  0
VERTEX
  5
257
  8
PROFILEEDGES
 10
-71.08270232141508
 20
2.455435036632938
 30
0.0
 40
0.5307755819659851
 41
0.5307755819659851
  0
SEQEND
  5
429
  8
PROFILEEDGES
  0
POLYLINE
  5
F6
  8
PROFILEEDGES
 66
     1
 10
0.0
 20
0.0
 30
0.0
  0
VERTEX
  5
258
  8
PROFILEEDGES
 10
-71.08270232141508
 20
2.455435036632938
 30
0.0
 40
0.5307755819659851
 41
0.5307755819659851
  0
VERTEX
  5
259
  8
PROFILEEDGES
 10
-71.28596781818936
 20
-0.1272979811812599
 30
0.0
 40
0.5307755819659851
 41
0.5307755819659851
  0
SEQEND
  5
42A
  8
PROFILEEDGES
  0
POLYLINE
  5
F7
  8
PROFILEEDGES
 66
     1
 10
0.0
 20
0.0
 30
0.0
  0
VERTEX
  5
25A
  8
PROFILEEDGES
 10
-71.28596781818936
 20
-0.1272979811812599
 30
0.0
 40
0.5307755819659851
 41
0.5307755819659851
  0
VERTEX
  5
25B
  8
PROFILEEDGES
 10
-71.08270232141507
 20
-2.710030998995481
 30
0.0
 40
0.5307755819659851
 41
0.5307755819659851
  0
SEQEND
  5
42B
  8
PROFILEEDGES
  0
POLYLINE
  5
F8
  8
PROFILEEDGES
 66
     1
 10
0.0
 20
0.0
 30
0.0
  0
VERTEX
  5
25C
  8
PROFILEEDGES
 10
-71.08270232141507
 20
-2.710030998995481
 30
0.0
 40
0.5307755819659851
 41
0.5307755819659851
  0
VERTEX
  5
25D
  8
PROFILEEDGES
 10
-70.47791090222235
 20
-5.22916855831165
 30
0.0
 40
0.5307755819659851
 41
0.5307755819659851
  0
SEQEND
  5
42C
  8
PROFILEEDGES
  0
POLYLINE
  5
F9
  8
PROFILEEDGES
 66
     1
 10
0.0
 20
0.0
 30
0.0
  0
VERTEX
  5
25E
  8
PROFILEEDGES
 10
-70.47791090222235
 20
-5.22916855831165
 30
0.0
 40
0.5307755819659851
 41
0.5307755819659851
  0
VERTEX
  5
25F
  8
PROFILEEDGES
 10
-69.4864855325393
 20
-7.622681131881181
 30
0.0
 40
0.5307755819659851
 41
0.5307755819659851
  0
SEQEND
  5
42D
  8
PROFILEEDGES
  0
POLYLINE
  5
FA
  8
PROFILEEDGES
 66
     1
 10
0.0
 20
0.0
 30
0.0
  0
VERTEX
  5
260
  8
PROFILEEDGES
 10
-69.4864855325393
 20
-7.622681131881181
 30
0.0
 40
0.5307755819659851
 41
0.5307755819659851
  0
VERTEX
  5
261
  8
PROFILEEDGES
 10
-68.13283839531974
 20
-9.831632496530004
 30
0.0
 40
0.5307755819659851
 41
0.5307755819659851
  0
SEQEND
  5
42E
  8
PROFILEEDGES
  0
POLYLINE
  5
FB
  8
PROFILEEDGES
 66
     1
 10
0.0
 20
0.0
 30
0.0
  0
VERTEX
  5
262
  8
PROFILEEDGES
 10
-68.13283839531974
 20
-9.831632496530004
 30
0.0
 40
0.5307755819659851
 41
0.5307755819659851
  0
VERTEX
  5
263
  8
PROFILEEDGES
 10
-66.45030077557925
 20
-11.80163093857118
 30
0.0
 40
0.5307755819659851
 41
0.5307755819659851
  0
SEQEND
  5
42F
  8
PROFILEEDGES
  0
POLYLINE
  5
FC
  8
PROFILEEDGES
 66
     1
 10
0.0
 20
0.0
 30
0.0
  0
VERTEX
  5
264
  8
PROFILEEDGES
 10
-66.45030077557925
 20
-11.80163093857118
 30
0.0
 40
0.5307755819659851
 41
0.5307755819659851
  0
VERTEX
  5
265
  8
PROFILEEDGES
 10
-64.48030233353808
 20
-13.48416855831165
 30
0.0
 40
0.5307755819659851
 41
0.5307755819659851
  0
SEQEND
  5
430
  8
PROFILEEDGES
  0
POLYLINE
  5
FD
  8
PROFILEEDGES
 66
     1
 10
0.0
 20
0.0
 30
0.0
  0
VERTEX
  5
266
  8
PROFILEEDGES
 10
-64.48030233353808
 20
-13.48416855831165
 30
0.0
 40
0.5307755819659851
 41
0.5307755819659851
  0
VERTEX
  5
267
  8
PROFILEEDGES
 10
-62.27135096888927
 20
-14.83781569553122
 30
0.0
 40
0.5307755819659851
 41
0.5307755819659851
  0
SEQEND
  5
431
  8
PROFILEEDGES
  0
POLYLINE
  5
FE
  8
PROFILEEDGES
 66
     1
 10
0.0
 20
0.0
 30
0.0
  0
VERTEX
  5
268
  8
PROFILEEDGES
 10
-62.27135096888927
 20
-14.83781569553122
 30
0.0
 40
0.5307755819659851
 41
0.5307755819659851
  0
VERTEX
  5
269
  8
PROFILEEDGES
 10
-59.87783839531973
 20
-15.82924106521426
 30
0.0
 40
0.5307755819659851
 41
0.5307755819659851
  0
SEQEND
  5
432
  8
PROFILEEDGES
  0
POLYLINE
  5
FF
  8
PROFILEEDGES
 66
     1
 10
0.0
 20
0.0
 30
0.0
  0
VERTEX
  5
26A
  8
PROFILEEDGES
 10
-59.87783839531973
 20
-15.82924106521426
 30
0.0
 40
0.5307755819659851
 41
0.5307755819659851
  0
VERTEX
  5
26B
  8
PROFILEEDGES
 10
-57.35870083600356
 20
-16.43403248440699
 30
0.0
 40
0.5307755819659851
 41
0.5307755819659851
  0
SEQEND
  5
433
  8
PROFILEEDGES
  0
POLYLINE
  5
100
  8
PROFILEEDGES
 66
     1
 10
0.0
 20
0.0
 30
0.0
  0
VERTEX
  5
26C
  8
PROFILEEDGES
 10
-57.35870083600356
 20
-16.43403248440699
 30
0.0
 40
0.5307755819659851
 41
0.5307755819659851
  0
VERTEX
  5
26D
  8
PROFILEEDGES
 10
-54.77596781818935
 20
-16.63729798118127
 30
0.0
 40
0.5307755819659851
 41
0.5307755819659851
  0
SEQEND
  5
434
  8
PROFILEEDGES
  0
POLYLINE
  5
101
  8
PROFILEEDGES
 66
     1
 10
0.0
 20
0.0
 30
0.0
  0
VERTEX
  5
26E
  8
PROFILEEDGES
 10
-54.77596781818935
 20
28.44770201881874
 30
0.0
 40
0.5307755819659851
 41
0.5307755819659851
  0
VERTEX
  5
26F
  8
PROFILEEDGES
 10
-50.30585297966476
 20
28.0958963513248
 30
0.0
 40
0.5307755819659851
 41
0.5307755819659851
  0
SEQEND
  5
435
  8
PROFILEEDGES
  0
POLYLINE
  5
102
  8
PROFILEEDGES
 66
     1
 10
0.0
 20
0.0
 30
0.0
  0
VERTEX
  5
270
  8
PROFILEEDGES
 10
-59.24608265671395
 20
28.0958963513248
 30
0.0
 40
0.5307755819659851
 41
0.5307755819659851
  0
VERTEX
  5
271
  8
PROFILEEDGES
 10
-54.77596781818935
 20
28.44770201881874
 30
0.0
 40
0.5307755819659851
 41
0.5307755819659851
  0
SEQEND
  5
436
  8
PROFILEEDGES
  0
POLYLINE
  5
103
  8
PROFILEEDGES
 66
     1
 10
0.0
 20
0.0
 30
0.0
  0
VERTEX
  5
272
  8
PROFILEEDGES
 10
-63.60612843245348
 20
27.04914197195275
 30
0.0
 40
0.5307755819659851
 41
0.5307755819659851
  0
VERTEX
  5
273
  8
PROFILEEDGES
 10
-59.24608265671395
 20
28.0958963513248
 30
0.0
 40
0.5307755819659851
 41
0.5307755819659851
  0
SEQEND
  5
437
  8
PROFILEEDGES
  0
POLYLINE
  5
104
  8
PROFILEEDGES
 66
     1
 10
0.0
 20
0.0
 30
0.0
  0
VERTEX
  5
274
  8
PROFILEEDGES
 10
-67.74874634824691
 20
25.33321344750137
 30
0.0
 40
0.5307755819659851
 41
0.5307755819659851
  0
VERTEX
  5
275
  8
PROFILEEDGES
 10
-63.60612843245348
 20
27.04914197195275
 30
0.0
 40
0.5307755819659851
 41
0.5307755819659851
  0
SEQEND
  5
438
  8
PROFILEEDGES
  0
POLYLINE
  5
105
  8
PROFILEEDGES
 66
     1
 10
0.0
 20
0.0
 30
0.0
  0
VERTEX
  5
276
  8
PROFILEEDGES
 10
-71.57193140244678
 20
22.99036263308287
 30
0.0
 40
0.5307755819659851
 41
0.5307755819659851
  0
VERTEX
  5
277
  8
PROFILEEDGES
 10
-67.74874634824691
 20
25.33321344750137
 30
0.0
 40
0.5307755819659851
 41
0.5307755819659851
  0
SEQEND
  5
439
  8
PROFILEEDGES
  0
POLYLINE
  5
106
  8
PROFILEEDGES
 66
     1
 10
0.0
 20
0.0
 30
0.0
  0
VERTEX
  5
278
  8
PROFILEEDGES
 10
-74.98154409059495
 20
20.07827829122434
 30
0.0
 40
0.5307755819659851
 41
0.5307755819659851
  0
VERTEX
  5
279
  8
PROFILEEDGES
 10
-71.57193140244678
 20
22.99036263308287
 30
0.0
 40
0.5307755819659851
 41
0.5307755819659851
  0
SEQEND
  5
43A
  8
PROFILEEDGES
  0
POLYLINE
  5
107
  8
PROFILEEDGES
 66
     1
 10
0.0
 20
0.0
 30
0.0
  0
VERTEX
  5
27A
  8
PROFILEEDGES
 10
-77.89362843245348
 20
16.66866560307615
 30
0.0
 40
0.5307755819659851
 41
0.5307755819659851
  0
VERTEX
  5
27B
  8
PROFILEEDGES
 10
-74.98154409059495
 20
20.07827829122434
 30
0.0
 40
0.5307755819659851
 41
0.5307755819659851
  0
SEQEND
  5
43B
  8
PROFILEEDGES
  0
POLYLINE
  5
108
  8
PROFILEEDGES
 66
     1
 10
0.0
 20
0.0
 30
0.0
  0
VERTEX
  5
27C
  8
PROFILEEDGES
 10
-80.23647924687198
 20
12.84548054887629
 30
0.0
 40
0.5307755819659851
 41
0.5307755819659851
  0
VERTEX
  5
27D
  8
PROFILEEDGES
 10
-77.89362843245348
 20
16.66866560307615
 30
0.0
 40
0.5307755819659851
 41
0.5307755819659851
  0
SEQEND
  5
43C
  8
PROFILEEDGES
  0
POLYLINE
  5
109
  8
PROFILEEDGES
 66
     1
 10
0.0
 20
0.0
 30
0.0
  0
VERTEX
  5
27E
  8
PROFILEEDGES
 10
-81.95240777132337
 20
8.70286263308285
 30
0.0
 40
0.5307755819659851
 41
0.5307755819659851
  0
VERTEX
  5
27F
  8
PROFILEEDGES
 10
-80.23647924687198
 20
12.84548054887629
 30
0.0
 40
0.5307755819659851
 41
0.5307755819659851
  0
SEQEND
  5
43D
  8
PROFILEEDGES
  0
POLYLINE
  5
10A
  8
PROFILEEDGES
 66
     1
 10
0.0
 20
0.0
 30
0.0
  0
VERTEX
  5
280
  8
PROFILEEDGES
 10
-82.99916215069541
 20
4.342816857343334
 30
0.0
 40
0.5307755819659851
 41
0.5307755819659851
  0
VERTEX
  5
281
  8
PROFILEEDGES
 10
-81.95240777132337
 20
8.70286263308285
 30
0.0
 40
0.5307755819659851
 41
0.5307755819659851
  0
SEQEND
  5
43E
  8
PROFILEEDGES
  0
POLYLINE
  5
10B
  8
PROFILEEDGES
 66
     1
 10
0.0
 20
0.0
 30
0.0
  0
VERTEX
  5
282
  8
PROFILEEDGES
 10
-83.35096781818935
 20
-0.1272979811812824
 30
0.0
 40
0.5307755819659851
 41
0.5307755819659851
  0
VERTEX
  5
283
  8
PROFILEEDGES
 10
-82.99916215069541
 20
4.342816857343334
 30
0.0
 40
0.5307755819659851
 41
0.5307755819659851
  0
SEQEND
  5
43F
  8
PROFILEEDGES
  0
POLYLINE
  5
10C
  8
PROFILEEDGES
 66
     1
 10
0.0
 20
0.0
 30
0.0
  0
VERTEX
  5
284
  8
PROFILEEDGES
 10
-82.99916215069541
 20
-4.597412819705877
 30
0.0
 40
0.5307755819659851
 41
0.5307755819659851
  0
VERTEX
  5
285
  8
PROFILEEDGES
 10
-83.35096781818935
 20
-0.1272979811812824
 30
0.0
 40
0.5307755819659851
 41
0.5307755819659851
  0
SEQEND
  5
440
  8
PROFILEEDGES
  0
POLYLINE
  5
10D
  8
PROFILEEDGES
 66
     1
 10
0.0
 20
0.0
 30
0.0
  0
VERTEX
  5
286
  8
PROFILEEDGES
 10
-81.95240777132337
 20
-8.957458595445392
 30
0.0
 40
0.5307755819659851
 41
0.5307755819659851
  0
VERTEX
  5
287
  8
PROFILEEDGES
 10
-82.99916215069541
 20
-4.597412819705877
 30
0.0
 40
0.5307755819659851
 41
0.5307755819659851
  0
SEQEND
  5
441
  8
PROFILEEDGES
  0
POLYLINE
  5
10E
  8
PROFILEEDGES
 66
     1
 10
0.0
 20
0.0
 30
0.0
  0
VERTEX
  5
288
  8
PROFILEEDGES
 10
-80.23647924687197
 20
-13.10007651123883
 30
0.0
 40
0.5307755819659851
 41
0.5307755819659851
  0
VERTEX
  5
289
  8
PROFILEEDGES
 10
-81.95240777132337
 20
-8.957458595445392
 30
0.0
 40
0.5307755819659851
 41
0.5307755819659851
  0
SEQEND
  5
442
  8
PROFILEEDGES
  0
POLYLINE
  5
10F
  8
PROFILEEDGES
 66
     1
 10
0.0
 20
0.0
 30
0.0
  0
VERTEX
  5
28A
  8
PROFILEEDGES
 10
-77.89362843245347
 20
-16.9232615654387
 30
0.0
 40
0.5307755819659851
 41
0.5307755819659851
  0
VERTEX
  5
28B
  8
PROFILEEDGES
 10
-80.23647924687197
 20
-13.10007651123883
 30
0.0
 40
0.5307755819659851
 41
0.5307755819659851
  0
SEQEND
  5
443
  8
PROFILEEDGES
  0
POLYLINE
  5
110
  8
PROFILEEDGES
 66
     1
 10
0.0
 20
0.0
 30
0.0
  0
VERTEX
  5
28C
  8
PROFILEEDGES
 10
-74.98154409059495
 20
-20.33287425358686
 30
0.0
 40
0.5307755819659851
 41
0.5307755819659851
  0
VERTEX
  5
28D
  8
PROFILEEDGES
 10
-77.89362843245347
 20
-16.9232615654387
 30
0.0
 40
0.5307755819659851
 41
0.5307755819659851
  0
SEQEND
  5
444
  8
PROFILEEDGES
  0
POLYLINE
  5
111
  8
PROFILEEDGES
 66
     1
 10
0.0
 20
0.0
 30
0.0
  0
VERTEX
  5
28E
  8
PROFILEEDGES
 10
-71.57193140244676
 20
-23.24495859544539
 30
0.0
 40
0.5307755819659851
 41
0.5307755819659851
  0
VERTEX
  5
28F
  8
PROFILEEDGES
 10
-74.98154409059495
 20
-20.33287425358686
 30
0.0
 40
0.5307755819659851
 41
0.5307755819659851
  0
SEQEND
  5
445
  8
PROFILEEDGES
  0
POLYLINE
  5
112
  8
PROFILEEDGES
 66
     1
 10
0.0
 20
0.0
 30
0.0
  0
VERTEX
  5
290
  8
PROFILEEDGES
 10
-67.7487463482469
 20
-25.58780940986389
 30
0.0
 40
0.5307755819659851
 41
0.5307755819659851
  0
VERTEX
  5
291
  8
PROFILEEDGES
 10
-71.57193140244676
 20
-23.24495859544539
 30
0.0
 40
0.5307755819659851
 41
0.5307755819659851
  0
SEQEND
  5
446
  8
PROFILEEDGES
  0
POLYLINE
  5
113
  8
PROFILEEDGES
 66
     1
 10
0.0
 20
0.0
 30
0.0
  0
VERTEX
  5
292
  8
PROFILEEDGES
 10
-63.60612843245347
 20
-27.30373793431527
 30
0.0
 40
0.5307755819659851
 41
0.5307755819659851
  0
VERTEX
  5
293
  8
PROFILEEDGES
 10
-67.7487463482469
 20
-25.58780940986389
 30
0.0
 40
0.5307755819659851
 41
0.5307755819659851
  0
SEQEND
  5
447
  8
PROFILEEDGES
  0
POLYLINE
  5
114
  8
PROFILEEDGES
 66
     1
 10
0.0
 20
0.0
 30
0.0
  0
VERTEX
  5
294
  8
PROFILEEDGES
 10
-59.24608265671394
 20
-28.35049231368732
 30
0.0
 40
0.5307755819659851
 41
0.5307755819659851
  0
VERTEX
  5
295
  8
PROFILEEDGES
 10
-63.60612843245347
 20
-27.30373793431527
 30
0.0
 40
0.5307755819659851
 41
0.5307755819659851
  0
SEQEND
  5
448
  8
PROFILEEDGES
  0
POLYLINE
  5
115
  8
PROFILEEDGES
 66
     1
 10
0.0
 20
0.0
 30
0.0
  0
VERTEX
  5
296
  8
PROFILEEDGES
 10
-54.77596781818935
 20
-28.70229798118126
 30
0.0
 40
0.5307755819659851
 41
0.5307755819659851
  0
VERTEX
  5
297
  8
PROFILEEDGES
 10
-59.24608265671394
 20
-28.35049231368732
 30
0.0
 40
0.5307755819659851
 41
0.5307755819659851
  0
SEQEND
  5
449
  8
PROFILEEDGES
  0
POLYLINE
  5
116
  8
PROFILEEDGES
 66
     1
 10
0.0
 20
0.0
 30
0.0
  0
VERTEX
  5
298
  8
PROFILEEDGES
 10
-29.31545638950672
 20
12.84548054887629
 30
0.0
 40
0.5307755819659851
 41
0.5307755819659851
  0
VERTEX
  5
299
  8
PROFILEEDGES
 10
-27.59952786505534
 20
8.70286263308285
 30
0.0
 40
0.5307755819659851
 41
0.5307755819659851
  0
SEQEND
  5
44A
  8
PROFILEEDGES
  0
POLYLINE
  5
117
  8
PROFILEEDGES
 66
     1
 10
0.0
 20
0.0
 30
0.0
  0
VERTEX
  5
29A
  8
PROFILEEDGES
 10
-31.65830720392522
 20
16.66866560307615
 30
0.0
 40
0.5307755819659851
 41
0.5307755819659851
  0
VERTEX
  5
29B
  8
PROFILEEDGES
 10
-29.31545638950672
 20
12.84548054887629
 30
0.0
 40
0.5307755819659851
 41
0.5307755819659851
  0
SEQEND
  5
44B
  8
PROFILEEDGES
  0
POLYLINE
  5
118
  8
PROFILEEDGES
 66
     1
 10
0.0
 20
0.0
 30
0.0
  0
VERTEX
  5
29C
  8
PROFILEEDGES
 10
-34.57039154578375
 20
20.07827829122434
 30
0.0
 40
0.5307755819659851
 41
0.5307755819659851
  0
VERTEX
  5
29D
  8
PROFILEEDGES
 10
-31.65830720392522
 20
16.66866560307615
 30
0.0
 40
0.5307755819659851
 41
0.5307755819659851
  0
SEQEND
  5
44C
  8
PROFILEEDGES
  0
POLYLINE
  5
119
  8
PROFILEEDGES
 66
     1
 10
0.0
 20
0.0
 30
0.0
  0
VERTEX
  5
29E
  8
PROFILEEDGES
 10
-37.98000423393192
 20
22.99036263308287
 30
0.0
 40
0.5307755819659851
 41
0.5307755819659851
  0
VERTEX
  5
29F
  8
PROFILEEDGES
 10
-34.57039154578375
 20
20.07827829122434
 30
0.0
 40
0.5307755819659851
 41
0.5307755819659851
  0
SEQEND
  5
44D
  8
PROFILEEDGES
  0
POLYLINE
  5
11A
  8
PROFILEEDGES
 66
     1
 10
0.0
 20
0.0
 30
0.0
  0
VERTEX
  5
2A0
  8
PROFILEEDGES
 10
-41.8031892881318
 20
25.33321344750137
 30
0.0
 40
0.5307755819659851
 41
0.5307755819659851
  0
VERTEX
  5
2A1
  8
PROFILEEDGES
 10
-37.98000423393192
 20
22.99036263308287
 30
0.0
 40
0.5307755819659851
 41
0.5307755819659851
  0
SEQEND
  5
44E
  8
PROFILEEDGES
  0
POLYLINE
  5
11B
  8
PROFILEEDGES
 66
     1
 10
0.0
 20
0.0
 30
0.0
  0
VERTEX
  5
2A2
  8
PROFILEEDGES
 10
-45.94580720392523
 20
27.04914197195275
 30
0.0
 40
0.5307755819659851
 41
0.5307755819659851
  0
VERTEX
  5
2A3
  8
PROFILEEDGES
 10
-41.8031892881318
 20
25.33321344750137
 30
0.0
 40
0.5307755819659851
 41
0.5307755819659851
  0
SEQEND
  5
44F
  8
PROFILEEDGES
  0
POLYLINE
  5
11C
  8
PROFILEEDGES
 66
     1
 10
0.0
 20
0.0
 30
0.0
  0
VERTEX
  5
2A4
  8
PROFILEEDGES
 10
-50.30585297966476
 20
28.0958963513248
 30
0.0
 40
0.5307755819659851
 41
0.5307755819659851
  0
VERTEX
  5
2A5
  8
PROFILEEDGES
 10
-45.94580720392523
 20
27.04914197195275
 30
0.0
 40
0.5307755819659851
 41
0.5307755819659851
  0
SEQEND
  5
450
  8
PROFILEEDGES
  0
POLYLINE
  5
11D
  8
PROFILEEDGES
 66
     1
 10
0.0
 20
0.0
 30
0.0
  0
VERTEX
  5
2A6
  8
PROFILEEDGES
 10
-48.37041511859839
 20
58.38437373739323
 30
0.0
 40
0.5307755819659851
 41
0.5307755819659851
  0
VERTEX
  5
2A7
  8
PROFILEEDGES
 10
-47.62832471099659
 20
57.29919170605166
 30
0.0
 40
0.5307755819659851
 41
0.5307755819659851
  0
SEQEND
  5
451
  8
PROFILEEDGES
  0
POLYLINE
  5
11E
  8
PROFILEEDGES
 66
     1
 10
0.0
 20
0.0
 30
0.0
  0
VERTEX
  5
2A8
  8
PROFILEEDGES
 10
-60.87794019104425
 20
-58.99441659359495
 30
0.0
 40
0.5307755819659851
 41
0.5307755819659851
  0
VERTEX
  5
2A9
  8
PROFILEEDGES
 10
-59.91563634489152
 20
-59.90018398882353
 30
0.0
 40
0.5307755819659851
 41
0.5307755819659851
  0
SEQEND
  5
452
  8
PROFILEEDGES
  0
POLYLINE
  5
11F
  8
PROFILEEDGES
 66
     1
 10
0.0
 20
0.0
 30
0.0
  0
VERTEX
  5
2AA
  8
PROFILEEDGES
 10
-60.87794019104424
 20
58.73982063123246
 30
0.0
 40
0.5307755819659851
 41
0.5307755819659851
  0
VERTEX
  5
2AB
  8
PROFILEEDGES
 10
-59.91563634489152
 20
59.64558802646101
 30
0.0
 40
0.5307755819659851
 41
0.5307755819659851
  0
SEQEND
  5
453
  8
PROFILEEDGES
  0
POLYLINE
  5
120
  8
PROFILEEDGES
 66
     1
 10
0.0
 20
0.0
 30
0.0
  0
VERTEX
  5
2AC
  8
PROFILEEDGES
 10
-54.77596781818934
 20
-82.67729798118125
 30
0.0
 40
0.5307755819659851
 41
0.5307755819659851
  0
VERTEX
  5
2AD
  8
PROFILEEDGES
 10
-41.86230272911828
 20
-81.66097049730988
 30
0.0
 40
0.5307755819659851
 41
0.5307755819659851
  0
SEQEND
  5
454
  8
PROFILEEDGES
  0
POLYLINE
  5
121
  8
PROFILEEDGES
 66
     1
 10
0.0
 20
0.0
 30
0.0
  0
VERTEX
  5
2AE
  8
PROFILEEDGES
 10
-41.86230272911828
 20
-81.66097049730988
 30
0.0
 40
0.5307755819659851
 41
0.5307755819659851
  0
VERTEX
  5
2AF
  8
PROFILEEDGES
 10
-29.26661493253744
 20
-78.6370134013462
 30
0.0
 40
0.5307755819659851
 41
0.5307755819659851
  0
SEQEND
  5
455
  8
PROFILEEDGES
  0
POLYLINE
  5
122
  8
PROFILEEDGES
 66
     1
 10
0.0
 20
0.0
 30
0.0
  0
VERTEX
  5
2B0
  8
PROFILEEDGES
 10
-80.28532070384125
 20
-78.6370134013462
 30
0.0
 40
0.5307755819659851
 41
0.5307755819659851
  0
VERTEX
  5
2B1
  8
PROFILEEDGES
 10
-67.6896329072604
 20
-81.66097049730989
 30
0.0
 40
0.5307755819659851
 41
0.5307755819659851
  0
SEQEND
  5
456
  8
PROFILEEDGES
  0
POLYLINE
  5
123
  8
PROFILEEDGES
 66
     1
 10
0.0
 20
0.0
 30
0.0
  0
VERTEX
  5
2B2
  8
PROFILEEDGES
 10
-67.6896329072604
 20
-81.66097049730989
 30
0.0
 40
0.5307755819659851
 41
0.5307755819659851
  0
VERTEX
  5
2B3
  8
PROFILEEDGES
 10
-54.77596781818934
 20
-82.67729798118125
 30
0.0
 40
0.5307755819659851
 41
0.5307755819659851
  0
SEQEND
  5
457
  8
PROFILEEDGES
  0
POLYLINE
  5
124
  8
PROFILEEDGES
 66
     1
 10
0.0
 20
0.0
 30
0.0
  0
VERTEX
  5
2B4
  8
PROFILEEDGES
 10
-92.25288357168893
 20
-73.67988655293104
 30
0.0
 40
0.5307755819659851
 41
0.5307755819659851
  0
VERTEX
  5
2B5
  8
PROFILEEDGES
 10
-80.28532070384125
 20
-78.6370134013462
 30
0.0
 40
0.5307755819659851
 41
0.5307755819659851
  0
SEQEND
  5
458
  8
PROFILEEDGES
  0
POLYLINE
  5
125
  8
PROFILEEDGES
 66
     1
 10
0.0
 20
0.0
 30
0.0
  0
VERTEX
  5
2B6
  8
PROFILEEDGES
 10
-113.1476326051388
 20
-58.49896276813077
 30
0.0
 40
0.5307755819659851
 41
0.5307755819659851
  0
VERTEX
  5
2B7
  8
PROFILEEDGES
 10
-103.297640394933
 20
-66.91165086683317
 30
0.0
 40
0.5307755819659851
 41
0.5307755819659851
  0
SEQEND
  5
459
  8
PROFILEEDGES
  0
POLYLINE
  5
126
  8
PROFILEEDGES
 66
     1
 10
0.0
 20
0.0
 30
0.0
  0
VERTEX
  5
2B8
  8
PROFILEEDGES
 10
-103.297640394933
 20
-66.91165086683317
 30
0.0
 40
0.5307755819659851
 41
0.5307755819659851
  0
VERTEX
  5
2B9
  8
PROFILEEDGES
 10
-92.25288357168893
 20
-73.67988655293104
 30
0.0
 40
0.5307755819659851
 41
0.5307755819659851
  0
SEQEND
  5
45A
  8
PROFILEEDGES
  0
POLYLINE
  5
127
  8
PROFILEEDGES
 66
     1
 10
0.0
 20
0.0
 30
0.0
  0
VERTEX
  5
2BA
  8
PROFILEEDGES
 10
-128.3285563899391
 20
-37.60421373468086
 30
0.0
 40
0.5307755819659851
 41
0.5307755819659851
  0
VERTEX
  5
2BB
  8
PROFILEEDGES
 10
-121.5603207038413
 20
-48.64897055792492
 30
0.0
 40
0.5307755819659851
 41
0.5307755819659851
  0
SEQEND
  5
45B
  8
PROFILEEDGES
  0
POLYLINE
  5
128
  8
PROFILEEDGES
 66
     1
 10
0.0
 20
0.0
 30
0.0
  0
VERTEX
  5
2BC
  8
PROFILEEDGES
 10
-121.5603207038413
 20
-48.64897055792492
 30
0.0
 40
0.5307755819659851
 41
0.5307755819659851
  0
VERTEX
  5
2BD
  8
PROFILEEDGES
 10
-113.1476326051388
 20
-58.49896276813077
 30
0.0
 40
0.5307755819659851
 41
0.5307755819659851
  0
SEQEND
  5
45C
  8
PROFILEEDGES
  0
POLYLINE
  5
129
  8
PROFILEEDGES
 66
     1
 10
0.0
 20
0.0
 30
0.0
  0
VERTEX
  5
2BE
  8
PROFILEEDGES
 10
-133.2856832383543
 20
-25.63665086683319
 30
0.0
 40
0.5307755819659851
 41
0.5307755819659851
  0
VERTEX
  5
2BF
  8
PROFILEEDGES
 10
-128.3285563899391
 20
-37.60421373468086
 30
0.0
 40
0.5307755819659851
 41
0.5307755819659851
  0
SEQEND
  5
45D
  8
PROFILEEDGES
  0
POLYLINE
  5
12A
  8
PROFILEEDGES
 66
     1
 10
0.0
 20
0.0
 30
0.0
  0
VERTEX
  5
2C0
  8
PROFILEEDGES
 10
-137.3259678181894
 20
-0.1272979811812824
 30
0.0
 40
0.5307755819659851
 41
0.5307755819659851
  0
VERTEX
  5
2C1
  8
PROFILEEDGES
 10
-136.3096403343179
 20
-13.04096307025234
 30
0.0
 40
0.5307755819659851
 41
0.5307755819659851
  0
SEQEND
  5
45E
  8
PROFILEEDGES
  0
POLYLINE
  5
12B
  8
PROFILEEDGES
 66
     1
 10
0.0
 20
0.0
 30
0.0
  0
VERTEX
  5
2C2
  8
PROFILEEDGES
 10
-136.3096403343179
 20
-13.04096307025234
 30
0.0
 40
0.5307755819659851
 41
0.5307755819659851
  0
VERTEX
  5
2C3
  8
PROFILEEDGES
 10
-133.2856832383543
 20
-25.63665086683319
 30
0.0
 40
0.5307755819659851
 41
0.5307755819659851
  0
SEQEND
  5
45F
  8
PROFILEEDGES
  0
POLYLINE
  5
12C
  8
PROFILEEDGES
 66
     1
 10
0.0
 20
0.0
 30
0.0
  0
VERTEX
  5
2C4
  8
PROFILEEDGES
 10
-133.2856832383543
 20
25.38205490447065
 30
0.0
 40
0.5307755819659851
 41
0.5307755819659851
  0
VERTEX
  5
2C5
  8
PROFILEEDGES
 10
-136.309640334318
 20
12.78636710788978
 30
0.0
 40
0.5307755819659851
 41
0.5307755819659851
  0
SEQEND
  5
460
  8
PROFILEEDGES
  0
POLYLINE
  5
12D
  8
PROFILEEDGES
 66
     1
 10
0.0
 20
0.0
 30
0.0
  0
VERTEX
  5
2C6
  8
PROFILEEDGES
 10
-136.309640334318
 20
12.78636710788978
 30
0.0
 40
0.5307755819659851
 41
0.5307755819659851
  0
VERTEX
  5
2C7
  8
PROFILEEDGES
 10
-137.3259678181894
 20
-0.1272979811812824
 30
0.0
 40
0.5307755819659851
 41
0.5307755819659851
  0
SEQEND
  5
461
  8
PROFILEEDGES
  0
POLYLINE
  5
12E
  8
PROFILEEDGES
 66
     1
 10
0.0
 20
0.0
 30
0.0
  0
VERTEX
  5
2C8
  8
PROFILEEDGES
 10
-128.3285563899391
 20
37.34961777231833
 30
0.0
 40
0.5307755819659851
 41
0.5307755819659851
  0
VERTEX
  5
2C9
  8
PROFILEEDGES
 10
-133.2856832383543
 20
25.38205490447065
 30
0.0
 40
0.5307755819659851
 41
0.5307755819659851
  0
SEQEND
  5
462
  8
PROFILEEDGES
  0
POLYLINE
  5
12F
  8
PROFILEEDGES
 66
     1
 10
0.0
 20
0.0
 30
0.0
  0
VERTEX
  5
2CA
  8
PROFILEEDGES
 10
-113.1476326051389
 20
58.24436680576823
 30
0.0
 40
0.5307755819659851
 41
0.5307755819659851
  0
VERTEX
  5
2CB
  8
PROFILEEDGES
 10
-121.5603207038413
 20
48.39437459556237
 30
0.0
 40
0.5307755819659851
 41
0.5307755819659851
  0
SEQEND
  5
463
  8
PROFILEEDGES
  0
POLYLINE
  5
130
  8
PROFILEEDGES
 66
     1
 10
0.0
 20
0.0
 30
0.0
  0
VERTEX
  5
2CC
  8
PROFILEEDGES
 10
-121.5603207038413
 20
48.39437459556237
 30
0.0
 40
0.5307755819659851
 41
0.5307755819659851
  0
VERTEX
  5
2CD
  8
PROFILEEDGES
 10
-128.3285563899391
 20
37.34961777231833
 30
0.0
 40
0.5307755819659851
 41
0.5307755819659851
  0
SEQEND
  5
464
  8
PROFILEEDGES
  0
POLYLINE
  5
131
  8
PROFILEEDGES
 66
     1
 10
0.0
 20
0.0
 30
0.0
  0
VERTEX
  5
2CE
  8
PROFILEEDGES
 10
-92.25288357168895
 20
73.4252905905685
 30
0.0
 40
0.5307755819659851
 41
0.5307755819659851
  0
VERTEX
  5
2CF
  8
PROFILEEDGES
 10
-103.297640394933
 20
66.65705490447064
 30
0.0
 40
0.5307755819659851
 41
0.5307755819659851
  0
SEQEND
  5
465
  8
PROFILEEDGES
  0
POLYLINE
  5
132
  8
PROFILEEDGES
 66
     1
 10
0.0
 20
0.0
 30
0.0
  0
VERTEX
  5
2D0
  8
PROFILEEDGES
 10
-103.297640394933
 20
66.65705490447064
 30
0.0
 40
0.5307755819659851
 41
0.5307755819659851
  0
VERTEX
  5
2D1
  8
PROFILEEDGES
 10
-113.1476326051389
 20
58.24436680576823
 30
0.0
 40
0.5307755819659851
 41
0.5307755819659851
  0
SEQEND
  5
466
  8
PROFILEEDGES
  0
POLYLINE
  5
133
  8
PROFILEEDGES
 66
     1
 10
0.0
 20
0.0
 30
0.0
  0
VERTEX
  5
2D2
  8
PROFILEEDGES
 10
-80.28532070384128
 20
78.38241743898367
 30
0.0
 40
0.5307755819659851
 41
0.5307755819659851
  0
VERTEX
  5
2D3
  8
PROFILEEDGES
 10
-92.25288357168895
 20
73.4252905905685
 30
0.0
 40
0.5307755819659851
 41
0.5307755819659851
  0
SEQEND
  5
467
  8
PROFILEEDGES
  0
POLYLINE
  5
134
  8
PROFILEEDGES
 66
     1
 10
0.0
 20
0.0
 30
0.0
  0
VERTEX
  5
2D4
  8
PROFILEEDGES
 10
-54.77596781818937
 20
82.42270201881874
 30
0.0
 40
0.5307755819659851
 41
0.5307755819659851
  0
VERTEX
  5
2D5
  8
PROFILEEDGES
 10
-67.68963290726043
 20
81.40637453494735
 30
0.0
 40
0.5307755819659851
 41
0.5307755819659851
  0
SEQEND
  5
468
  8
PROFILEEDGES
  0
POLYLINE
  5
135
  8
PROFILEEDGES
 66
     1
 10
0.0
 20
0.0
 30
0.0
  0
VERTEX
  5
2D6
  8
PROFILEEDGES
 10
-67.68963290726043
 20
81.40637453494735
 30
0.0
 40
0.5307755819659851
 41
0.5307755819659851
  0
VERTEX
  5
2D7
  8
PROFILEEDGES
 10
-80.28532070384128
 20
78.38241743898367
 30
0.0
 40
0.5307755819659851
 41
0.5307755819659851
  0
SEQEND
  5
469
  8
PROFILEEDGES
  0
POLYLINE
  5
136
  8
PROFILEEDGES
 66
     1
 10
0.0
 20
0.0
 30
0.0
  0
VERTEX
  5
2D8
  8
PROFILEEDGES
 10
-29.26661493253744
 20
78.38241743898367
 30
0.0
 40
0.5307755819659851
 41
0.5307755819659851
  0
VERTEX
  5
2D9
  8
PROFILEEDGES
 10
-41.86230272911829
 20
81.40637453494737
 30
0.0
 40
0.5307755819659851
 41
0.5307755819659851
  0
SEQEND
  5
46A
  8
PROFILEEDGES
  0
POLYLINE
  5
137
  8
PROFILEEDGES
 66
     1
 10
0.0
 20
0.0
 30
0.0
  0
VERTEX
  5
2DA
  8
PROFILEEDGES
 10
-41.86230272911829
 20
81.40637453494737
 30
0.0
 40
0.5307755819659851
 41
0.5307755819659851
  0
VERTEX
  5
2DB
  8
PROFILEEDGES
 10
-54.77596781818937
 20
82.42270201881874
 30
0.0
 40
0.5307755819659851
 41
0.5307755819659851
  0
SEQEND
  5
46B
  8
PROFILEEDGES
  0
POLYLINE
  5
138
  8
PROFILEEDGES
 66
     1
 10
0.0
 20
0.0
 30
0.0
  0
VERTEX
  5
2DC
  8
PROFILEEDGES
 10
-17.29905206468977
 20
73.4252905905685
 30
0.0
 40
0.5307755819659851
 41
0.5307755819659851
  0
VERTEX
  5
2DD
  8
PROFILEEDGES
 10
-29.26661493253744
 20
78.38241743898367
 30
0.0
 40
0.5307755819659851
 41
0.5307755819659851
  0
SEQEND
  5
46C
  8
PROFILEEDGES
  0
POLYLINE
  5
139
  8
PROFILEEDGES
 66
     1
 10
0.0
 20
0.0
 30
0.0
  0
VERTEX
  5
2DE
  8
PROFILEEDGES
 10
3.595696968760144
 20
58.24436680576826
 30
0.0
 40
0.5307755819659851
 41
0.5307755819659851
  0
VERTEX
  5
2DF
  8
PROFILEEDGES
 10
-6.254295241445698
 20
66.65705490447064
 30
0.0
 40
0.5307755819659851
 41
0.5307755819659851
  0
SEQEND
  5
46D
  8
PROFILEEDGES
  0
POLYLINE
  5
13A
  8
PROFILEEDGES
 66
     1
 10
0.0
 20
0.0
 30
0.0
  0
VERTEX
  5
2E0
  8
PROFILEEDGES
 10
-6.254295241445698
 20
66.65705490447064
 30
0.0
 40
0.5307755819659851
 41
0.5307755819659851
  0
VERTEX
  5
2E1
  8
PROFILEEDGES
 10
-17.29905206468977
 20
73.4252905905685
 30
0.0
 40
0.5307755819659851
 41
0.5307755819659851
  0
SEQEND
  5
46E
  8
PROFILEEDGES
  0
POLYLINE
  5
13B
  8
PROFILEEDGES
 66
     1
 10
0.0
 20
0.0
 30
0.0
  0
VERTEX
  5
2E2
  8
PROFILEEDGES
 10
18.77662075356041
 20
37.34961777231833
 30
0.0
 40
0.5307755819659851
 41
0.5307755819659851
  0
VERTEX
  5
2E3
  8
PROFILEEDGES
 10
12.00838506746256
 20
48.39437459556239
 30
0.0
 40
0.5307755819659851
 41
0.5307755819659851
  0
SEQEND
  5
46F
  8
PROFILEEDGES
  0
POLYLINE
  5
13C
  8
PROFILEEDGES
 66
     1
 10
0.0
 20
0.0
 30
0.0
  0
VERTEX
  5
2E4
  8
PROFILEEDGES
 10
12.00838506746256
 20
48.39437459556239
 30
0.0
 40
0.5307755819659851
 41
0.5307755819659851
  0
VERTEX
  5
2E5
  8
PROFILEEDGES
 10
3.595696968760144
 20
58.24436680576826
 30
0.0
 40
0.5307755819659851
 41
0.5307755819659851
  0
SEQEND
  5
470
  8
PROFILEEDGES
  0
POLYLINE
  5
13D
  8
PROFILEEDGES
 66
     1
 10
0.0
 20
0.0
 30
0.0
  0
VERTEX
  5
2E6
  8
PROFILEEDGES
 10
23.73374760197558
 20
25.38205490447065
 30
0.0
 40
0.5307755819659851
 41
0.5307755819659851
  0
VERTEX
  5
2E7
  8
PROFILEEDGES
 10
18.77662075356041
 20
37.34961777231833
 30
0.0
 40
0.5307755819659851
 41
0.5307755819659851
  0
SEQEND
  5
471
  8
PROFILEEDGES
  0
POLYLINE
  5
13E
  8
PROFILEEDGES
 66
     1
 10
0.0
 20
0.0
 30
0.0
  0
VERTEX
  5
2E8
  8
PROFILEEDGES
 10
27.77403218181065
 20
-0.1272979811812599
 30
0.0
 40
0.5307755819659851
 41
0.5307755819659851
  0
VERTEX
  5
2E9
  8
PROFILEEDGES
 10
26.75770469793929
 20
12.7863671078898
 30
0.0
 40
0.5307755819659851
 41
0.5307755819659851
  0
SEQEND
  5
472
  8
PROFILEEDGES
  0
POLYLINE
  5
13F
  8
PROFILEEDGES
 66
     1
 10
0.0
 20
0.0
 30
0.0
  0
VERTEX
  5
2EA
  8
PROFILEEDGES
 10
26.75770469793929
 20
12.7863671078898
 30
0.0
 40
0.5307755819659851
 41
0.5307755819659851
  0
VERTEX
  5
2EB
  8
PROFILEEDGES
 10
23.73374760197558
 20
25.38205490447065
 30
0.0
 40
0.5307755819659851
 41
0.5307755819659851
  0
SEQEND
  5
473
  8
PROFILEEDGES
  0
POLYLINE
  5
140
  8
PROFILEEDGES
 66
     1
 10
0.0
 20
0.0
 30
0.0
  0
VERTEX
  5
2EC
  8
PROFILEEDGES
 10
-17.29905206468977
 20
-73.67988655293102
 30
0.0
 40
0.5307755819659851
 41
0.5307755819659851
  0
VERTEX
  5
2ED
  8
PROFILEEDGES
 10
-6.254295241445698
 20
-66.91165086683316
 30
0.0
 40
0.5307755819659851
 41
0.5307755819659851
  0
SEQEND
  5
474
  8
PROFILEEDGES
  0
POLYLINE
  5
141
  8
PROFILEEDGES
 66
     1
 10
0.0
 20
0.0
 30
0.0
  0
VERTEX
  5
2EE
  8
PROFILEEDGES
 10
-6.254295241445698
 20
-66.91165086683316
 30
0.0
 40
0.5307755819659851
 41
0.5307755819659851
  0
VERTEX
  5
2EF
  8
PROFILEEDGES
 10
1.259033725554985
 20
-60.7456211350971
 30
0.0
 40
0.5307755819659851
 41
0.5307755819659851
  0
SEQEND
  5
475
  8
PROFILEEDGES
  0
POLYLINE
  5
142
  8
PROFILEEDGES
 66
     1
 10
0.0
 20
0.0
 30
0.0
  0
VERTEX
  5
2F0
  8
PROFILEEDGES
 10
1.259033725554985
 20
-60.7456211350971
 30
0.0
 40
0.5307755819659851
 41
0.5307755819659851
  0
VERTEX
  5
2F1
  8
PROFILEEDGES
 10
7.995544642093208
 20
-53.73923437083791
 30
0.0
 40
0.5307755819659851
 41
0.5307755819659851
  0
SEQEND
  5
476
  8
PROFILEEDGES
  0
POLYLINE
  5
143
  8
PROFILEEDGES
 66
     1
 10
0.0
 20
0.0
 30
0.0
  0
VERTEX
  5
2F2
  8
PROFILEEDGES
 10
7.995544642093208
 20
-53.73923437083791
 30
0.0
 40
0.5307755819659851
 41
0.5307755819659851
  0
VERTEX
  5
2F3
  8
PROFILEEDGES
 10
13.8618486773858
 20
-45.9896207169494
 30
0.0
 40
0.5307755819659851
 41
0.5307755819659851
  0
SEQEND
  5
477
  8
PROFILEEDGES
  0
POLYLINE
  5
144
  8
PROFILEEDGES
 66
     1
 10
0.0
 20
0.0
 30
0.0
  0
VERTEX
  5
2F4
  8
PROFILEEDGES
 10
13.8618486773858
 20
-45.9896207169494
 30
0.0
 40
0.5307755819659851
 41
0.5307755819659851
  0
VERTEX
  5
2F5
  8
PROFILEEDGES
 10
18.77662075356041
 20
-37.60421373468084
 30
0.0
 40
0.5307755819659851
 41
0.5307755819659851
  0
SEQEND
  5
478
  8
PROFILEEDGES
  0
POLYLINE
  5
145
  8
PROFILEEDGES
 66
     1
 10
0.0
 20
0.0
 30
0.0
  0
VERTEX
  5
2F6
  8
PROFILEEDGES
 10
18.77662075356041
 20
-37.60421373468084
 30
0.0
 40
0.5307755819659851
 41
0.5307755819659851
  0
VERTEX
  5
2F7
  8
PROFILEEDGES
 10
22.67172696221171
 20
-28.6992610429283
 30
0.0
 40
0.5307755819659851
 41
0.5307755819659851
  0
SEQEND
  5
479
  8
PROFILEEDGES
  0
POLYLINE
  5
146
  8
PROFILEEDGES
 66
     1
 10
0.0
 20
0.0
 30
0.0
  0
VERTEX
  5
2F8
  8
PROFILEEDGES
 10
22.67172696221171
 20
-28.6992610429283
 30
0.0
 40
0.5307755819659851
 41
0.5307755819659851
  0
VERTEX
  5
2F9
  8
PROFILEEDGES
 10
25.49316911063885
 20
-19.39821276748626
 30
0.0
 40
0.5307755819659851
 41
0.5307755819659851
  0
SEQEND
  5
47A
  8
PROFILEEDGES
  0
POLYLINE
  5
147
  8
PROFILEEDGES
 66
     1
 10
0.0
 20
0.0
 30
0.0
  0
VERTEX
  5
2FA
  8
PROFILEEDGES
 10
25.49316911063885
 20
-19.39821276748626
 30
0.0
 40
0.5307755819659851
 41
0.5307755819659851
  0
VERTEX
  5
2FB
  8
PROFILEEDGES
 10
27.2018333034398
 20
-9.830010141325767
 30
0.0
 40
0.5307755819659851
 41
0.5307755819659851
  0
SEQEND
  5
47B
  8
PROFILEEDGES
  0
POLYLINE
  5
148
  8
PROFILEEDGES
 66
     1
 10
0.0
 20
0.0
 30
0.0
  0
VERTEX
  5
2FC
  8
PROFILEEDGES
 10
27.2018333034398
 20
-9.830010141325767
 30
0.0
 40
0.5307755819659851
 41
0.5307755819659851
  0
VERTEX
  5
2FD
  8
PROFILEEDGES
 10
27.77403218181065
 20
-0.1272979811812599
 30
0.0
 40
0.5307755819659851
 41
0.5307755819659851
  0
SEQEND
  5
47C
  8
PROFILEEDGES
  0
POLYLINE
  5
149
  8
PROFILEEDGES
 66
     1
 10
0.0
 20
0.0
 30
0.0
  0
VERTEX
  5
2FE
  8
PROFILEEDGES
 10
-29.26661493253744
 20
-78.6370134013462
 30
0.0
 40
0.5307755819659851
 41
0.5307755819659851
  0
VERTEX
  5
2FF
  8
PROFILEEDGES
 10
-17.29905206468977
 20
-73.67988655293102
 30
0.0
 40
0.5307755819659851
 41
0.5307755819659851
  0
SEQEND
  5
47D
  8
PROFILEEDGES
  0
POLYLINE
  5
14A
  8
PROFILEEDGES
 66
     1
 10
0.0
 20
0.0
 30
0.0
  0
VERTEX
  5
300
  8
PROFILEEDGES
 10
132.1340321818113
 20
-28.70229798118075
 30
0.0
 40
0.5307755819659851
 41
0.5307755819659851
  0
VERTEX
  5
301
  8
PROFILEEDGES
 10
111.8140321818113
 20
-28.70229798118108
 30
0.0
 40
0.5307755819659851
 41
0.5307755819659851
  0
SEQEND
  5
47E
  8
PROFILEEDGES
  0
POLYLINE
  5
14B
  8
PROFILEEDGES
 66
     1
 10
0.0
 20
0.0
 30
0.0
  0
VERTEX
  5
302
  8
PROFILEEDGES
 10
111.8140321818122
 20
-82.67729798118107
 30
0.0
 40
0.5307755819659851
 41
0.5307755819659851
  0
VERTEX
  5
303
  8
PROFILEEDGES
 10
92.50126114811529
 20
-81.0789241833625
 30
0.0
 40
0.5307755819659851
 41
0.5307755819659851
  0
SEQEND
  5
47F
  8
PROFILEEDGES
  0
POLYLINE
  5
14C
  8
PROFILEEDGES
 66
     1
 10
0.0
 20
0.0
 30
0.0
  0
VERTEX
  5
304
  8
PROFILEEDGES
 10
92.50126114811529
 20
-81.0789241833625
 30
0.0
 40
0.5307755819659851
 41
0.5307755819659851
  0
VERTEX
  5
305
  8
PROFILEEDGES
 10
73.71403218181209
 20
-76.3272979811817
 30
0.0
 40
0.5307755819659851
 41
0.5307755819659851
  0
SEQEND
  5
480
  8
PROFILEEDGES
  0
POLYLINE
  5
14D
  8
PROFILEEDGES
 66
     1
 10
0.0
 20
0.0
 30
0.0
  0
VERTEX
  5
306
  8
PROFILEEDGES
 10
92.50126114811263
 20
80.8243282209997
 30
0.0
 40
0.5307755819659851
 41
0.5307755819659851
  0
VERTEX
  5
307
  8
PROFILEEDGES
 10
73.71403218180957
 20
76.07270201881829
 30
0.0
 40
0.5307755819659851
 41
0.5307755819659851
  0
SEQEND
  5
481
  8
PROFILEEDGES
  0
POLYLINE
  5
14E
  8
PROFILEEDGES
 66
     1
 10
0.0
 20
0.0
 30
0.0
  0
VERTEX
  5
308
  8
PROFILEEDGES
 10
111.8140321818095
 20
82.42270201881891
 30
0.0
 40
0.5307755819659851
 41
0.5307755819659851
  0
VERTEX
  5
309
  8
PROFILEEDGES
 10
92.50126114811263
 20
80.8243282209997
 30
0.0
 40
0.5307755819659851
 41
0.5307755819659851
  0
SEQEND
  5
482
  8
PROFILEEDGES
  0
POLYLINE
  5
14F
  8
PROFILEEDGES
 66
     1
 10
0.0
 20
0.0
 30
0.0
  0
VERTEX
  5
30A
  8
PROFILEEDGES
 10
132.1340321818103
 20
28.44770201881926
 30
0.0
 40
0.5307755819659851
 41
0.5307755819659851
  0
VERTEX
  5
30B
  8
PROFILEEDGES
 10
111.8140321818161
 20
28.44770201881892
 30
0.0
 40
0.5307755819659851
 41
0.5307755819659851
  0
SEQEND
  5
483
  8
PROFILEEDGES
  0
LINE
  5
150
  8
0
 10
-48.9388013394944
 20
47.37553554012377
 30
0.0
 11
-48.2666527965019
 21
48.17752268590181
 31
0.0
  0
POLYLINE
  5
151
  8
PROFILEEDGES
 66
     1
 10
0.0
 20
0.0
 30
0.0
  0
VERTEX
  5
30C
  8
PROFILEEDGES
 10
-48.2666527965019
 20
48.17752268590181
 30
0.0
 40
0.5307755819659851
 41
0.5307755819659851
  0
VERTEX
  5
30D
  8
PROFILEEDGES
 10
-48.09753252962416
 20
48.36053476114436
 30
0.0
 40
0.5307755819659851
 41
0.5307755819659851
  0
SEQEND
  5
484
  8
PROFILEEDGES
  0
POLYLINE
  5
152
  8
PROFILEEDGES
 66
     1
 10
0.0
 20
0.0
 30
0.0
  0
VERTEX
  5
30E
  8
PROFILEEDGES
 10
-48.2666527965019
 20
48.17752268590181
 30
0.0
 40
0.5307755819659851
 41
0.5307755819659851
  0
VERTEX
  5
30F
  8
PROFILEEDGES
 10
-49.26602642225614
 20
47.09605891713779
 30
0.0
 40
0.5307755819659851
 41
0.5307755819659851
  0
SEQEND
  5
485
  8
PROFILEEDGES
  0
POLYLINE
  5
153
  8
PROFILEEDGES
 66
     1
 10
0.0
 20
0.0
 30
0.0
  0
VERTEX
  5
310
  8
PROFILEEDGES
 10
-48.09753252962416
 20
48.36053476114436
 30
0.0
 40
0.5307755819659851
 41
0.5307755819659851
  0
VERTEX
  5
311
  8
PROFILEEDGES
 10
-47.50115461384028
 20
49.3425758457828
 30
0.0
 40
0.5307755819659851
 41
0.5307755819659851
  0
SEQEND
  5
486
  8
PROFILEEDGES
  0
POLYLINE
  5
154
  8
PROFILEEDGES
 66
     1
 10
0.0
 20
0.0
 30
0.0
  0
VERTEX
  5
312
  8
PROFILEEDGES
 10
-47.50115461384028
 20
49.3425758457828
 30
0.0
 40
0.5307755819659851
 41
0.5307755819659851
  0
VERTEX
  5
313
  8
PROFILEEDGES
 10
-47.42070896101438
 20
49.46501044346876
 30
0.0
 40
0.5307755819659851
 41
0.5307755819659851
  0
SEQEND
  5
487
  8
PROFILEEDGES
  0
POLYLINE
  5
155
  8
PROFILEEDGES
 66
     1
 10
0.0
 20
0.0
 30
0.0
  0
VERTEX
  5
314
  8
PROFILEEDGES
 10
-47.42070896101438
 20
49.46501044346876
 30
0.0
 40
0.5307755819659851
 41
0.5307755819659851
  0
VERTEX
  5
315
  8
PROFILEEDGES
 10
-46.95292735948918
 20
50.59781481270694
 30
0.0
 40
0.5307755819659851
 41
0.5307755819659851
  0
SEQEND
  5
488
  8
PROFILEEDGES
  0
POLYLINE
  5
156
  8
PROFILEEDGES
 66
     1
 10
0.0
 20
0.0
 30
0.0
  0
VERTEX
  5
316
  8
PROFILEEDGES
 10
-46.95292735948918
 20
50.59781481270694
 30
0.0
 40
0.5307755819659851
 41
0.5307755819659851
  0
VERTEX
  5
317
  8
PROFILEEDGES
 10
-46.92499627617286
 20
50.66176673025353
 30
0.0
 40
0.5307755819659851
 41
0.5307755819659851
  0
SEQEND
  5
489
  8
PROFILEEDGES
  0
POLYLINE
  5
157
  8
PROFILEEDGES
 66
     1
 10
0.0
 20
0.0
 30
0.0
  0
VERTEX
  5
318
  8
PROFILEEDGES
 10
-46.62260056657649
 20
54.50406852772584
 30
0.0
 40
0.5307755819659851
 41
0.5307755819659851
  0
VERTEX
  5
319
  8
PROFILEEDGES
 10
-46.78959476186042
 20
55.19964941094842
 30
0.0
 40
0.5307755819659851
 41
0.5307755819659851
  0
SEQEND
  5
48A
  8
PROFILEEDGES
  0
POLYLINE
  5
158
  8
PROFILEEDGES
 66
     1
 10
0.0
 20
0.0
 30
0.0
  0
VERTEX
  5
31A
  8
PROFILEEDGES
 10
-48.66181890269069
 20
58.72556373156125
 30
0.0
 40
0.5307755819659851
 41
0.5307755819659851
  0
VERTEX
  5
31B
  8
PROFILEEDGES
 10
-48.9388013394944
 20
59.04986849751366
 30
0.0
 40
0.5307755819659851
 41
0.5307755819659851
  0
SEQEND
  5
48B
  8
PROFILEEDGES
  0
LINE
  5
159
  8
0
 10
-48.9388013394944
 20
59.04986849751366
 30
0.0
 11
-49.85085113952443
 21
59.82376079921439
 31
0.0
  0
POLYLINE
  5
15A
  8
PROFILEEDGES
 66
     1
 10
0.0
 20
0.0
 30
0.0
  0
VERTEX
  5
31C
  8
PROFILEEDGES
 10
-49.85085113952443
 20
59.82376079921439
 30
0.0
 40
0.5307755819659851
 41
0.5307755819659851
  0
VERTEX
  5
31D
  8
PROFILEEDGES
 10
-49.92380056051499
 20
59.89113730738389
 30
0.0
 40
0.5307755819659851
 41
0.5307755819659851
  0
SEQEND
  5
48C
  8
PROFILEEDGES
  0
POLYLINE
  5
15B
  8
PROFILEEDGES
 66
     1
 10
0.0
 20
0.0
 30
0.0
  0
VERTEX
  5
31E
  8
PROFILEEDGES
 10
-49.85085113952443
 20
59.82376079921439
 30
0.0
 40
0.5307755819659851
 41
0.5307755819659851
  0
VERTEX
  5
31F
  8
PROFILEEDGES
 10
-48.66181890269069
 20
58.72556373156125
 30
0.0
 40
0.5307755819659851
 41
0.5307755819659851
  0
SEQEND
  5
48D
  8
PROFILEEDGES
  0
POLYLINE
  5
15C
  8
PROFILEEDGES
 66
     1
 10
0.0
 20
0.0
 30
0.0
  0
VERTEX
  5
320
  8
PROFILEEDGES
 10
-52.22503252962417
 20
61.06367356083521
 30
0.0
 40
0.5307755819659851
 41
0.5307755819659851
  0
VERTEX
  5
321
  8
PROFILEEDGES
 10
-52.799763679123
 20
61.20165430201158
 30
0.0
 40
0.5307755819659851
 41
0.5307755819659851
  0
SEQEND
  5
48E
  8
PROFILEEDGES
  0
LINE
  5
15D
  8
0
 10
-57.32690310675454
 20
61.06367356083521
 30
0.0
 11
-58.38395075783254
 21
60.61752980918547
 31
0.0
  0
POLYLINE
  5
15E
  8
PROFILEEDGES
 66
     1
 10
0.0
 20
0.0
 30
0.0
  0
VERTEX
  5
322
  8
PROFILEEDGES
 10
-58.38395075783254
 20
60.61752980918547
 30
0.0
 40
0.5307755819659851
 41
0.5307755819659851
  0
VERTEX
  5
323
  8
PROFILEEDGES
 10
-58.52365939353931
 20
60.5679608759937
 30
0.0
 40
0.5307755819659851
 41
0.5307755819659851
  0
SEQEND
  5
48F
  8
PROFILEEDGES
  0
POLYLINE
  5
15F
  8
PROFILEEDGES
 66
     1
 10
0.0
 20
0.0
 30
0.0
  0
VERTEX
  5
324
  8
PROFILEEDGES
 10
-58.38395075783254
 20
60.61752980918547
 30
0.0
 40
0.5307755819659851
 41
0.5307755819659851
  0
VERTEX
  5
325
  8
PROFILEEDGES
 10
-56.70714400294851
 20
61.21246455740556
 30
0.0
 40
0.5307755819659851
 41
0.5307755819659851
  0
SEQEND
  5
490
  8
PROFILEEDGES
  0
POLYLINE
  5
160
  8
PROFILEEDGES
 66
     1
 10
0.0
 20
0.0
 30
0.0
  0
VERTEX
  5
326
  8
PROFILEEDGES
 10
-61.16935585320563
 20
58.3986167296324
 30
0.0
 40
0.5307755819659851
 41
0.5307755819659851
  0
VERTEX
  5
327
  8
PROFILEEDGES
 10
-61.45440310675453
 20
58.06486927649309
 30
0.0
 40
0.5307755819659851
 41
0.5307755819659851
  0
SEQEND
  5
491
  8
PROFILEEDGES
  0
POLYLINE
  5
161
  8
PROFILEEDGES
 66
     1
 10
0.0
 20
0.0
 30
0.0
  0
VERTEX
  5
328
  8
PROFILEEDGES
 10
-61.16935585320563
 20
58.3986167296324
 30
0.0
 40
0.5307755819659851
 41
0.5307755819659851
  0
VERTEX
  5
329
  8
PROFILEEDGES
 10
-62.07297685873094
 20
57.04749077186518
 30
0.0
 40
0.5307755819659851
 41
0.5307755819659851
  0
SEQEND
  5
492
  8
PROFILEEDGES
  0
POLYLINE
  5
162
  8
PROFILEEDGES
 66
     1
 10
0.0
 20
0.0
 30
0.0
  0
VERTEX
  5
32A
  8
PROFILEEDGES
 10
-62.07297685873094
 20
57.04749077186518
 30
0.0
 40
0.5307755819659851
 41
0.5307755819659851
  0
VERTEX
  5
32B
  8
PROFILEEDGES
 10
-62.13122667536432
 20
56.96039359416868
 30
0.0
 40
0.5307755819659851
 41
0.5307755819659851
  0
SEQEND
  5
493
  8
PROFILEEDGES
  0
LINE
  5
163
  8
0
 10
-61.45440310675453
 20
58.06486927649309
 30
0.0
 11
-62.07297685873094
 21
57.04749077186518
 31
0.0
  0
POLYLINE
  5
164
  8
PROFILEEDGES
 66
     1
 10
0.0
 20
0.0
 30
0.0
  0
VERTEX
  5
32C
  8
PROFILEEDGES
 10
-62.74490193963523
 20
55.27228780240739
 30
0.0
 40
0.5307755819659851
 41
0.5307755819659851
  0
VERTEX
  5
32D
  8
PROFILEEDGES
 10
-63.00188093354959
 20
53.4221185853652
 30
0.0
 40
0.5307755819659851
 41
0.5307755819659851
  0
SEQEND
  5
494
  8
PROFILEEDGES
  0
POLYLINE
  5
165
  8
PROFILEEDGES
 66
     1
 10
0.0
 20
0.0
 30
0.0
  0
VERTEX
  5
32E
  8
PROFILEEDGES
 10
-63.00188093354959
 20
53.4221185853652
 30
0.0
 40
0.5307755819659851
 41
0.5307755819659851
  0
VERTEX
  5
32F
  8
PROFILEEDGES
 10
-63.03096781818934
 20
53.21270201881873
 30
0.0
 40
0.5307755819659851
 41
0.5307755819659851
  0
SEQEND
  5
495
  8
PROFILEEDGES
  0
LINE
  5
166
  8
0
 10
-62.92933506980221
 20
54.50406852772584
 30
0.0
 11
-63.00188093354959
 21
53.4221185853652
 31
0.0
  0
POLYLINE
  5
167
  8
PROFILEEDGES
 66
     1
 10
0.0
 20
0.0
 30
0.0
  0
VERTEX
  5
330
  8
PROFILEEDGES
 10
-59.9589332769039
 20
46.81679508454802
 30
0.0
 40
0.5307755819659851
 41
0.5307755819659851
  0
VERTEX
  5
331
  8
PROFILEEDGES
 10
-58.73458902615791
 20
45.99843071182184
 30
0.0
 40
0.5307755819659851
 41
0.5307755819659851
  0
SEQEND
  5
496
  8
PROFILEEDGES
  0
POLYLINE
  5
168
  8
PROFILEEDGES
 66
     1
 10
0.0
 20
0.0
 30
0.0
  0
VERTEX
  5
332
  8
PROFILEEDGES
 10
-58.73458902615791
 20
45.99843071182184
 30
0.0
 40
0.5307755819659851
 41
0.5307755819659851
  0
VERTEX
  5
333
  8
PROFILEEDGES
 10
-58.52365939353931
 20
45.85744316164376
 30
0.0
 40
0.5307755819659851
 41
0.5307755819659851
  0
SEQEND
  5
497
  8
PROFILEEDGES
  0
LINE
  5
169
  8
0
 10
-59.62813507586371
 20
46.53426673025354
 30
0.0
 11
-58.73458902615791
 21
45.99843071182184
 31
0.0
  0
POLYLINE
  5
16A
  8
PROFILEEDGES
 66
     1
 10
0.0
 20
0.0
 30
0.0
  0
VERTEX
  5
334
  8
PROFILEEDGES
 10
-57.32690310675453
 20
45.36173047680223
 30
0.0
 40
0.5307755819659851
 41
0.5307755819659851
  0
VERTEX
  5
335
  8
PROFILEEDGES
 10
-57.45817702261837
 20
45.42110603205241
 30
0.0
 40
0.5307755819659851
 41
0.5307755819659851
  0
SEQEND
  5
498
  8
PROFILEEDGES
  0
POLYLINE
  5
16B
  8
PROFILEEDGES
 66
     1
 10
0.0
 20
0.0
 30
0.0
  0
VERTEX
  5
336
  8
PROFILEEDGES
 10
-58.52365939353931
 20
45.85744316164376
 30
0.0
 40
0.5307755819659851
 41
0.5307755819659851
  0
VERTEX
  5
337
  8
PROFILEEDGES
 10
-57.45817702261837
 20
45.42110603205241
 30
0.0
 40
0.5307755819659851
 41
0.5307755819659851
  0
SEQEND
  5
499
  8
PROFILEEDGES
  0
POLYLINE
  5
16C
  8
PROFILEEDGES
 66
     1
 10
0.0
 20
0.0
 30
0.0
  0
VERTEX
  5
338
  8
PROFILEEDGES
 10
-46.78959476186043
 20
-55.45424537331096
 30
0.0
 40
0.5307755819659851
 41
0.5307755819659851
  0
VERTEX
  5
339
  8
PROFILEEDGES
 10
-46.62260056657649
 20
-54.75866449008835
 30
0.0
 40
0.5307755819659851
 41
0.5307755819659851
  0
SEQEND
  5
49A
  8
PROFILEEDGES
  0
POLYLINE
  5
16D
  8
PROFILEEDGES
 66
     1
 10
0.0
 20
0.0
 30
0.0
  0
VERTEX
  5
33A
  8
PROFILEEDGES
 10
-48.37041511861069
 20
-58.63896969977014
 30
0.0
 40
0.5307755819659851
 41
0.5307755819659851
  0
VERTEX
  5
33B
  8
PROFILEEDGES
 10
-48.09753252962416
 20
-58.3194652388556
 30
0.0
 40
0.5307755819659851
 41
0.5307755819659851
  0
SEQEND
  5
49B
  8
PROFILEEDGES
  0
POLYLINE
  5
16E
  8
PROFILEEDGES
 66
     1
 10
0.0
 20
0.0
 30
0.0
  0
VERTEX
  5
33C
  8
PROFILEEDGES
 10
-49.92380056051499
 20
-60.14573326974642
 30
0.0
 40
0.5307755819659851
 41
0.5307755819659851
  0
VERTEX
  5
33D
  8
PROFILEEDGES
 10
-49.85085113952439
 20
-60.07835676157688
 30
0.0
 40
0.5307755819659851
 41
0.5307755819659851
  0
SEQEND
  5
49C
  8
PROFILEEDGES
  0
LINE
  5
16F
  8
0
 10
-49.85085113952439
 20
-60.07835676157688
 30
0.0
 11
-48.9388013394944
 21
-59.30446445987619
 31
0.0
  0
POLYLINE
  5
170
  8
PROFILEEDGES
 66
     1
 10
0.0
 20
0.0
 30
0.0
  0
VERTEX
  5
33E
  8
PROFILEEDGES
 10
-48.66181890269067
 20
-58.98015969392375
 30
0.0
 40
0.5307755819659851
 41
0.5307755819659851
  0
VERTEX
  5
33F
  8
PROFILEEDGES
 10
-49.85085113952439
 20
-60.07835676157688
 30
0.0
 40
0.5307755819659851
 41
0.5307755819659851
  0
SEQEND
  5
49D
  8
PROFILEEDGES
  0
POLYLINE
  5
171
  8
PROFILEEDGES
 66
     1
 10
0.0
 20
0.0
 30
0.0
  0
VERTEX
  5
340
  8
PROFILEEDGES
 10
-52.79976367912289
 20
-61.45625026437407
 30
0.0
 40
0.5307755819659851
 41
0.5307755819659851
  0
VERTEX
  5
341
  8
PROFILEEDGES
 10
-52.22503252962417
 20
-61.31826952319772
 30
0.0
 40
0.5307755819659851
 41
0.5307755819659851
  0
SEQEND
  5
49E
  8
PROFILEEDGES
  0
POLYLINE
  5
172
  8
PROFILEEDGES
 66
     1
 10
0.0
 20
0.0
 30
0.0
  0
VERTEX
  5
342
  8
PROFILEEDGES
 10
-61.45440310675453
 20
-58.3194652388556
 30
0.0
 40
0.5307755819659851
 41
0.5307755819659851
  0
VERTEX
  5
343
  8
PROFILEEDGES
 10
-61.16935585320562
 20
-58.65321269199492
 30
0.0
 40
0.5307755819659851
 41
0.5307755819659851
  0
SEQEND
  5
49F
  8
PROFILEEDGES
  0
POLYLINE
  5
173
  8
PROFILEEDGES
 66
     1
 10
0.0
 20
0.0
 30
0.0
  0
VERTEX
  5
344
  8
PROFILEEDGES
 10
-62.13122667536432
 20
-57.21498955653119
 30
0.0
 40
0.5307755819659851
 41
0.5307755819659851
  0
VERTEX
  5
345
  8
PROFILEEDGES
 10
-62.07297685873095
 20
-57.30208673422767
 30
0.0
 40
0.5307755819659851
 41
0.5307755819659851
  0
SEQEND
  5
4A0
  8
PROFILEEDGES
  0
POLYLINE
  5
174
  8
PROFILEEDGES
 66
     1
 10
0.0
 20
0.0
 30
0.0
  0
VERTEX
  5
346
  8
PROFILEEDGES
 10
-62.07297685873095
 20
-57.30208673422767
 30
0.0
 40
0.5307755819659851
 41
0.5307755819659851
  0
VERTEX
  5
347
  8
PROFILEEDGES
 10
-61.16935585320562
 20
-58.65321269199492
 30
0.0
 40
0.5307755819659851
 41
0.5307755819659851
  0
SEQEND
  5
4A1
  8
PROFILEEDGES
  0
LINE
  5
175
  8
0
 10
-62.07297685873095
 20
-57.30208673422767
 30
0.0
 11
-61.45440310675453
 21
-58.3194652388556
 31
0.0
  0
POLYLINE
  5
176
  8
PROFILEEDGES
 66
     1
 10
0.0
 20
0.0
 30
0.0
  0
VERTEX
  5
348
  8
PROFILEEDGES
 10
-63.03096781818934
 20
-53.46729798118124
 30
0.0
 40
0.5307755819659851
 41
0.5307755819659851
  0
VERTEX
  5
349
  8
PROFILEEDGES
 10
-63.00188093354959
 20
-53.67671454772772
 30
0.0
 40
0.5307755819659851
 41
0.5307755819659851
  0
SEQEND
  5
4A2
  8
PROFILEEDGES
  0
POLYLINE
  5
177
  8
PROFILEEDGES
 66
     1
 10
0.0
 20
0.0
 30
0.0
  0
VERTEX
  5
34A
  8
PROFILEEDGES
 10
-63.00188093354959
 20
-53.67671454772772
 30
0.0
 40
0.5307755819659851
 41
0.5307755819659851
  0
VERTEX
  5
34B
  8
PROFILEEDGES
 10
-62.74490193963523
 20
-55.52688376476993
 30
0.0
 40
0.5307755819659851
 41
0.5307755819659851
  0
SEQEND
  5
4A3
  8
PROFILEEDGES
  0
LINE
  5
178
  8
0
 10
-63.00188093354959
 20
-53.67671454772772
 30
0.0
 11
-62.92933506980221
 21
-54.75866449008835
 31
0.0
  0
POLYLINE
  5
179
  8
PROFILEEDGES
 66
     1
 10
0.0
 20
0.0
 30
0.0
  0
VERTEX
  5
34C
  8
PROFILEEDGES
 10
-58.52365939353931
 20
-46.11203912400627
 30
0.0
 40
0.5307755819659851
 41
0.5307755819659851
  0
VERTEX
  5
34D
  8
PROFILEEDGES
 10
-58.73458902615789
 20
-46.25302667418434
 30
0.0
 40
0.5307755819659851
 41
0.5307755819659851
  0
SEQEND
  5
4A4
  8
PROFILEEDGES
  0
POLYLINE
  5
17A
  8
PROFILEEDGES
 66
     1
 10
0.0
 20
0.0
 30
0.0
  0
VERTEX
  5
34E
  8
PROFILEEDGES
 10
-58.73458902615789
 20
-46.25302667418434
 30
0.0
 40
0.5307755819659851
 41
0.5307755819659851
  0
VERTEX
  5
34F
  8
PROFILEEDGES
 10
-59.95893327690388
 20
-47.07139104691052
 30
0.0
 40
0.5307755819659851
 41
0.5307755819659851
  0
SEQEND
  5
4A5
  8
PROFILEEDGES
  0
LINE
  5
17B
  8
0
 10
-58.73458902615789
 20
-46.25302667418434
 30
0.0
 11
-59.62813507586371
 21
-46.78886269261606
 31
0.0
  0
POLYLINE
  5
17C
  8
PROFILEEDGES
 66
     1
 10
0.0
 20
0.0
 30
0.0
  0
VERTEX
  5
350
  8
PROFILEEDGES
 10
-57.45817702261831
 20
-45.67570199441491
 30
0.0
 40
0.5307755819659851
 41
0.5307755819659851
  0
VERTEX
  5
351
  8
PROFILEEDGES
 10
-57.32690310675453
 20
-45.61632643916476
 30
0.0
 40
0.5307755819659851
 41
0.5307755819659851
  0
SEQEND
  5
4A6
  8
PROFILEEDGES
  0
POLYLINE
  5
17D
  8
PROFILEEDGES
 66
     1
 10
0.0
 20
0.0
 30
0.0
  0
VERTEX
  5
352
  8
PROFILEEDGES
 10
-57.45817702261831
 20
-45.67570199441491
 30
0.0
 40
0.5307755819659851
 41
0.5307755819659851
  0
VERTEX
  5
353
  8
PROFILEEDGES
 10
-58.52365939353931
 20
-46.11203912400627
 30
0.0
 40
0.5307755819659851
 41
0.5307755819659851
  0
SEQEND
  5
4A7
  8
PROFILEEDGES
  0
POLYLINE
  5
17E
  8
PROFILEEDGES
 66
     1
 10
0.0
 20
0.0
 30
0.0
  0
VERTEX
  5
354
  8
PROFILEEDGES
 10
-48.09753252962416
 20
-48.61513072350688
 30
0.0
 40
0.5307755819659851
 41
0.5307755819659851
  0
VERTEX
  5
355
  8
PROFILEEDGES
 10
-48.26665279650195
 20
-48.43211864826426
 30
0.0
 40
0.5307755819659851
 41
0.5307755819659851
  0
SEQEND
  5
4A8
  8
PROFILEEDGES
  0
LINE
  5
17F
  8
0
 10
-48.26665279650195
 20
-48.43211864826426
 30
0.0
 11
-48.9388013394944
 21
-47.6301315024863
 31
0.0
  0
POLYLINE
  5
180
  8
PROFILEEDGES
 66
     1
 10
0.0
 20
0.0
 30
0.0
  0
VERTEX
  5
356
  8
PROFILEEDGES
 10
-49.26602642225608
 20
-47.35065487950037
 30
0.0
 40
0.5307755819659851
 41
0.5307755819659851
  0
VERTEX
  5
357
  8
PROFILEEDGES
 10
-48.26665279650195
 20
-48.43211864826426
 30
0.0
 40
0.5307755819659851
 41
0.5307755819659851
  0
SEQEND
  5
4A9
  8
PROFILEEDGES
  0
POLYLINE
  5
181
  8
PROFILEEDGES
 66
     1
 10
0.0
 20
0.0
 30
0.0
  0
VERTEX
  5
358
  8
PROFILEEDGES
 10
-47.42070896101438
 20
-49.71960640583128
 30
0.0
 40
0.5307755819659851
 41
0.5307755819659851
  0
VERTEX
  5
359
  8
PROFILEEDGES
 10
-47.50115461384032
 20
-49.59717180814527
 30
0.0
 40
0.5307755819659851
 41
0.5307755819659851
  0
SEQEND
  5
4AA
  8
PROFILEEDGES
  0
POLYLINE
  5
182
  8
PROFILEEDGES
 66
     1
 10
0.0
 20
0.0
 30
0.0
  0
VERTEX
  5
35A
  8
PROFILEEDGES
 10
-47.50115461384032
 20
-49.59717180814527
 30
0.0
 40
0.5307755819659851
 41
0.5307755819659851
  0
VERTEX
  5
35B
  8
PROFILEEDGES
 10
-48.09753252962416
 20
-48.61513072350688
 30
0.0
 40
0.5307755819659851
 41
0.5307755819659851
  0
SEQEND
  5
4AB
  8
PROFILEEDGES
  0
POLYLINE
  5
183
  8
PROFILEEDGES
 66
     1
 10
0.0
 20
0.0
 30
0.0
  0
VERTEX
  5
35C
  8
PROFILEEDGES
 10
-46.92499627617286
 20
-50.91636269261605
 30
0.0
 40
0.5307755819659851
 41
0.5307755819659851
  0
VERTEX
  5
35D
  8
PROFILEEDGES
 10
-46.95292735948918
 20
-50.85241077506947
 30
0.0
 40
0.5307755819659851
 41
0.5307755819659851
  0
SEQEND
  5
4AC
  8
PROFILEEDGES
  0
POLYLINE
  5
184
  8
PROFILEEDGES
 66
     1
 10
0.0
 20
0.0
 30
0.0
  0
VERTEX
  5
35E
  8
PROFILEEDGES
 10
-46.95292735948918
 20
-50.85241077506947
 30
0.0
 40
0.5307755819659851
 41
0.5307755819659851
  0
VERTEX
  5
35F
  8
PROFILEEDGES
 10
-47.42070896101438
 20
-49.71960640583128
 30
0.0
 40
0.5307755819659851
 41
0.5307755819659851
  0
SEQEND
  5
4AD
  8
PROFILEEDGES
  0
POLYLINE
  5
185
  8
PROFILEEDGES
 66
     1
 10
0.0
 20
0.0
 30
0.0
  0
VERTEX
  5
360
  8
PROFILEEDGES
 10
-46.62260056657649
 20
-54.75866449008835
 30
0.0
 40
0.5307755819659851
 41
0.5307755819659851
  0
VERTEX
  5
361
  8
PROFILEEDGES
 10
-46.57713609902692
 20
-54.1809836571822
 30
0.0
 40
0.5307755819659851
 41
0.5307755819659851
  0
SEQEND
  5
4AE
  8
PROFILEEDGES
  0
POLYLINE
  5
186
  8
PROFILEEDGES
 66
     1
 10
0.0
 20
0.0
 30
0.0
  0
VERTEX
  5
362
  8
PROFILEEDGES
 10
-57.32690310675454
 20
-61.31826952319772
 30
0.0
 40
0.5307755819659851
 41
0.5307755819659851
  0
VERTEX
  5
363
  8
PROFILEEDGES
 10
-56.70714400294851
 20
-61.46706051976808
 30
0.0
 40
0.5307755819659851
 41
0.5307755819659851
  0
SEQEND
  5
4AF
  8
PROFILEEDGES
  0
POLYLINE
  5
187
  8
PROFILEEDGES
 66
     1
 10
0.0
 20
0.0
 30
0.0
  0
VERTEX
  5
364
  8
PROFILEEDGES
 10
-58.52365939353931
 20
-60.82255683835621
 30
0.0
 40
0.5307755819659851
 41
0.5307755819659851
  0
VERTEX
  5
365
  8
PROFILEEDGES
 10
-58.38395075783271
 20
-60.87212577154793
 30
0.0
 40
0.5307755819659851
 41
0.5307755819659851
  0
SEQEND
  5
4B0
  8
PROFILEEDGES
  0
LINE
  5
188
  8
0
 10
-58.38395075783271
 20
-60.87212577154793
 30
0.0
 11
-57.32690310675454
 21
-61.31826952319772
 31
0.0
  0
POLYLINE
  5
189
  8
PROFILEEDGES
 66
     1
 10
0.0
 20
0.0
 30
0.0
  0
VERTEX
  5
366
  8
PROFILEEDGES
 10
-56.70714400294851
 20
-61.46706051976808
 30
0.0
 40
0.5307755819659851
 41
0.5307755819659851
  0
VERTEX
  5
367
  8
PROFILEEDGES
 10
-58.38395075783271
 20
-60.87212577154793
 30
0.0
 40
0.5307755819659851
 41
0.5307755819659851
  0
SEQEND
  5
4B1
  8
PROFILEEDGES
  0
POLYLINE
  5
18A
  8
PROFILEEDGES
 66
     1
 10
0.0
 20
0.0
 30
0.0
  0
VERTEX
  5
368
  8
PROFILEEDGES
 10
-49.26602642225614
 20
47.09605891713779
 30
0.0
 40
0.5307755819659851
 41
0.5307755819659851
  0
VERTEX
  5
369
  8
PROFILEEDGES
 10
-48.9388013394944
 20
47.37553554012377
 30
0.0
 40
0.5307755819659851
 41
0.5307755819659851
  0
SEQEND
  5
4B2
  8
PROFILEEDGES
  0
POLYLINE
  5
18B
  8
PROFILEEDGES
 66
     1
 10
0.0
 20
0.0
 30
0.0
  0
VERTEX
  5
36A
  8
PROFILEEDGES
 10
-46.57713609902691
 20
53.92638769481966
 30
0.0
 40
0.5307755819659851
 41
0.5307755819659851
  0
VERTEX
  5
36B
  8
PROFILEEDGES
 10
-46.62260056657649
 20
54.50406852772584
 30
0.0
 40
0.5307755819659851
 41
0.5307755819659851
  0
SEQEND
  5
4B3
  8
PROFILEEDGES
  0
POLYLINE
  5
18C
  8
PROFILEEDGES
 66
     1
 10
0.0
 20
0.0
 30
0.0
  0
VERTEX
  5
36C
  8
PROFILEEDGES
 10
-47.62832471099659
 20
57.29919170605166
 30
0.0
 40
0.5307755819659851
 41
0.5307755819659851
  0
VERTEX
  5
36D
  8
PROFILEEDGES
 10
-48.09753252962416
 20
58.06486927649309
 30
0.0
 40
0.5307755819659851
 41
0.5307755819659851
  0
SEQEND
  5
4B4
  8
PROFILEEDGES
  0
POLYLINE
  5
18D
  8
PROFILEEDGES
 66
     1
 10
0.0
 20
0.0
 30
0.0
  0
VERTEX
  5
36E
  8
PROFILEEDGES
 10
-48.09753252962416
 20
58.06486927649309
 30
0.0
 40
0.5307755819659851
 41
0.5307755819659851
  0
VERTEX
  5
36F
  8
PROFILEEDGES
 10
-48.37041511859839
 20
58.38437373739323
 30
0.0
 40
0.5307755819659851
 41
0.5307755819659851
  0
SEQEND
  5
4B5
  8
PROFILEEDGES
  0
POLYLINE
  5
18E
  8
PROFILEEDGES
 66
     1
 10
0.0
 20
0.0
 30
0.0
  0
VERTEX
  5
370
  8
PROFILEEDGES
 10
-48.37041511859839
 20
58.38437373739323
 30
0.0
 40
0.5307755819659851
 41
0.5307755819659851
  0
VERTEX
  5
371
  8
PROFILEEDGES
 10
-48.66181890269069
 20
58.72556373156125
 30
0.0
 40
0.5307755819659851
 41
0.5307755819659851
  0
SEQEND
  5
4B6
  8
PROFILEEDGES
  0
POLYLINE
  5
18F
  8
PROFILEEDGES
 66
     1
 10
0.0
 20
0.0
 30
0.0
  0
VERTEX
  5
372
  8
PROFILEEDGES
 10
-51.57606849782619
 20
60.79486385737216
 30
0.0
 40
0.5307755819659851
 41
0.5307755819659851
  0
VERTEX
  5
373
  8
PROFILEEDGES
 10
-52.22503252962417
 20
61.06367356083521
 30
0.0
 40
0.5307755819659851
 41
0.5307755819659851
  0
SEQEND
  5
4B7
  8
PROFILEEDGES
  0
POLYLINE
  5
190
  8
PROFILEEDGES
 66
     1
 10
0.0
 20
0.0
 30
0.0
  0
VERTEX
  5
374
  8
PROFILEEDGES
 10
-56.70714400294851
 20
61.21246455740556
 30
0.0
 40
0.5307755819659851
 41
0.5307755819659851
  0
VERTEX
  5
375
  8
PROFILEEDGES
 10
-57.32690310675454
 20
61.06367356083521
 30
0.0
 40
0.5307755819659851
 41
0.5307755819659851
  0
SEQEND
  5
4B8
  8
PROFILEEDGES
  0
POLYLINE
  5
191
  8
PROFILEEDGES
 66
     1
 10
0.0
 20
0.0
 30
0.0
  0
VERTEX
  5
376
  8
PROFILEEDGES
 10
-59.91563634489152
 20
59.64558802646101
 30
0.0
 40
0.5307755819659851
 41
0.5307755819659851
  0
VERTEX
  5
377
  8
PROFILEEDGES
 10
-60.6131342968843
 20
59.04986849751366
 30
0.0
 40
0.5307755819659851
 41
0.5307755819659851
  0
SEQEND
  5
4B9
  8
PROFILEEDGES
  0
POLYLINE
  5
192
  8
PROFILEEDGES
 66
     1
 10
0.0
 20
0.0
 30
0.0
  0
VERTEX
  5
378
  8
PROFILEEDGES
 10
-60.6131342968843
 20
59.04986849751366
 30
0.0
 40
0.5307755819659851
 41
0.5307755819659851
  0
VERTEX
  5
379
  8
PROFILEEDGES
 10
-60.87794019104424
 20
58.73982063123246
 30
0.0
 40
0.5307755819659851
 41
0.5307755819659851
  0
SEQEND
  5
4BA
  8
PROFILEEDGES
  0
POLYLINE
  5
193
  8
PROFILEEDGES
 66
     1
 10
0.0
 20
0.0
 30
0.0
  0
VERTEX
  5
37A
  8
PROFILEEDGES
 10
-60.87794019104424
 20
58.73982063123246
 30
0.0
 40
0.5307755819659851
 41
0.5307755819659851
  0
VERTEX
  5
37B
  8
PROFILEEDGES
 10
-61.16935585320563
 20
58.3986167296324
 30
0.0
 40
0.5307755819659851
 41
0.5307755819659851
  0
SEQEND
  5
4BB
  8
PROFILEEDGES
  0
POLYLINE
  5
194
  8
PROFILEEDGES
 66
     1
 10
0.0
 20
0.0
 30
0.0
  0
VERTEX
  5
37C
  8
PROFILEEDGES
 10
-62.74490193963523
 20
55.27228780240739
 30
0.0
 40
0.5307755819659851
 41
0.5307755819659851
  0
VERTEX
  5
37D
  8
PROFILEEDGES
 10
-62.92933506980221
 20
54.50406852772584
 30
0.0
 40
0.5307755819659851
 41
0.5307755819659851
  0
SEQEND
  5
4BC
  8
PROFILEEDGES
  0
POLYLINE
  5
195
  8
PROFILEEDGES
 66
     1
 10
0.0
 20
0.0
 30
0.0
  0
VERTEX
  5
37E
  8
PROFILEEDGES
 10
-59.9589332769039
 20
46.81679508454802
 30
0.0
 40
0.5307755819659851
 41
0.5307755819659851
  0
VERTEX
  5
37F
  8
PROFILEEDGES
 10
-59.62813507586371
 20
46.53426673025354
 30
0.0
 40
0.5307755819659851
 41
0.5307755819659851
  0
SEQEND
  5
4BD
  8
PROFILEEDGES
  0
POLYLINE
  5
196
  8
PROFILEEDGES
 66
     1
 10
0.0
 20
0.0
 30
0.0
  0
VERTEX
  5
380
  8
PROFILEEDGES
 10
-48.09753252962416
 20
-58.3194652388556
 30
0.0
 40
0.5307755819659851
 41
0.5307755819659851
  0
VERTEX
  5
381
  8
PROFILEEDGES
 10
-47.6283247109938
 20
-57.55378766840963
 30
0.0
 40
0.5307755819659851
 41
0.5307755819659851
  0
SEQEND
  5
4BE
  8
PROFILEEDGES
  0
POLYLINE
  5
197
  8
PROFILEEDGES
 66
     1
 10
0.0
 20
0.0
 30
0.0
  0
VERTEX
  5
382
  8
PROFILEEDGES
 10
-48.9388013394944
 20
-59.30446445987619
 30
0.0
 40
0.5307755819659851
 41
0.5307755819659851
  0
VERTEX
  5
383
  8
PROFILEEDGES
 10
-48.66181890269067
 20
-58.98015969392375
 30
0.0
 40
0.5307755819659851
 41
0.5307755819659851
  0
SEQEND
  5
4BF
  8
PROFILEEDGES
  0
POLYLINE
  5
198
  8
PROFILEEDGES
 66
     1
 10
0.0
 20
0.0
 30
0.0
  0
VERTEX
  5
384
  8
PROFILEEDGES
 10
-48.66181890269067
 20
-58.98015969392375
 30
0.0
 40
0.5307755819659851
 41
0.5307755819659851
  0
VERTEX
  5
385
  8
PROFILEEDGES
 10
-48.37041511861069
 20
-58.63896969977014
 30
0.0
 40
0.5307755819659851
 41
0.5307755819659851
  0
SEQEND
  5
4C0
  8
PROFILEEDGES
  0
POLYLINE
  5
199
  8
PROFILEEDGES
 66
     1
 10
0.0
 20
0.0
 30
0.0
  0
VERTEX
  5
386
  8
PROFILEEDGES
 10
-52.22503252962417
 20
-61.31826952319772
 30
0.0
 40
0.5307755819659851
 41
0.5307755819659851
  0
VERTEX
  5
387
  8
PROFILEEDGES
 10
-51.57606849782658
 20
-61.04945981973484
 30
0.0
 40
0.5307755819659851
 41
0.5307755819659851
  0
SEQEND
  5
4C1
  8
PROFILEEDGES
  0
POLYLINE
  5
19A
  8
PROFILEEDGES
 66
     1
 10
0.0
 20
0.0
 30
0.0
  0
VERTEX
  5
388
  8
PROFILEEDGES
 10
-61.16935585320562
 20
-58.65321269199492
 30
0.0
 40
0.5307755819659851
 41
0.5307755819659851
  0
VERTEX
  5
389
  8
PROFILEEDGES
 10
-60.87794019104425
 20
-58.99441659359495
 30
0.0
 40
0.5307755819659851
 41
0.5307755819659851
  0
SEQEND
  5
4C2
  8
PROFILEEDGES
  0
POLYLINE
  5
19B
  8
PROFILEEDGES
 66
     1
 10
0.0
 20
0.0
 30
0.0
  0
VERTEX
  5
38A
  8
PROFILEEDGES
 10
-60.87794019104425
 20
-58.99441659359495
 30
0.0
 40
0.5307755819659851
 41
0.5307755819659851
  0
VERTEX
  5
38B
  8
PROFILEEDGES
 10
-60.6131342968843
 20
-59.30446445987619
 30
0.0
 40
0.5307755819659851
 41
0.5307755819659851
  0
SEQEND
  5
4C3
  8
PROFILEEDGES
  0
POLYLINE
  5
19C
  8
PROFILEEDGES
 66
     1
 10
0.0
 20
0.0
 30
0.0
  0
VERTEX
  5
38C
  8
PROFILEEDGES
 10
-62.92933506980221
 20
-54.75866449008835
 30
0.0
 40
0.5307755819659851
 41
0.5307755819659851
  0
VERTEX
  5
38D
  8
PROFILEEDGES
 10
-62.74490193963523
 20
-55.52688376476993
 30
0.0
 40
0.5307755819659851
 41
0.5307755819659851
  0
SEQEND
  5
4C4
  8
PROFILEEDGES
  0
POLYLINE
  5
19D
  8
PROFILEEDGES
 66
     1
 10
0.0
 20
0.0
 30
0.0
  0
VERTEX
  5
38E
  8
PROFILEEDGES
 10
-59.62813507586371
 20
-46.78886269261606
 30
0.0
 40
0.5307755819659851
 41
0.5307755819659851
  0
VERTEX
  5
38F
  8
PROFILEEDGES
 10
-59.95893327690388
 20
-47.07139104691052
 30
0.0
 40
0.5307755819659851
 41
0.5307755819659851
  0
SEQEND
  5
4C5
  8
PROFILEEDGES
  0
POLYLINE
  5
19E
  8
PROFILEEDGES
 66
     1
 10
0.0
 20
0.0
 30
0.0
  0
VERTEX
  5
390
  8
PROFILEEDGES
 10
-48.9388013394944
 20
-47.6301315024863
 30
0.0
 40
0.5307755819659851
 41
0.5307755819659851
  0
VERTEX
  5
391
  8
PROFILEEDGES
 10
-49.26602642225608
 20
-47.35065487950037
 30
0.0
 40
0.5307755819659851
 41
0.5307755819659851
  0
SEQEND
  5
4C6
  8
PROFILEEDGES
  0
POLYLINE
  5
19F
  8
PROFILEEDGES
 66
     1
 10
0.0
 20
0.0
 30
0.0
  0
VERTEX
  5
392
  8
PROFILEEDGES
 10
-60.6131342968843
 20
-59.30446445987619
 30
0.0
 40
0.5307755819659851
 41
0.5307755819659851
  0
VERTEX
  5
393
  8
PROFILEEDGES
 10
-59.91563634489152
 20
-59.90018398882353
 30
0.0
 40
0.5307755819659851
 41
0.5307755819659851
  0
SEQEND
  5
4C7
  8
PROFILEEDGES
  0
POLYLINE
  5
1A0
  8
PROFILEEDGES
 66
     1
 10
0.0
 20
0.0
 30
0.0
  0
VERTEX
  5
394
  8
PROFILEEDGES
 10
-52.22503252962415
 20
45.36173047680223
 30
0.0
 40
0.5307755819659851
 41
0.5307755819659851
  0
VERTEX
  5
395
  8
PROFILEEDGES
 10
-51.02827624283939
 20
45.85744316164376
 30
0.0
 40
0.5307755819659851
 41
0.5307755819659851
  0
SEQEND
  5
4C8
  8
PROFILEEDGES
  0
POLYLINE
  5
1A1
  8
PROFILEEDGES
 66
     1
 10
0.0
 20
0.0
 30
0.0
  0
VERTEX
  5
396
  8
PROFILEEDGES
 10
-49.92380056051499
 20
46.53426673025354
 30
0.0
 40
0.5307755819659851
 41
0.5307755819659851
  0
VERTEX
  5
397
  8
PROFILEEDGES
 10
-49.26602642225614
 20
47.09605891713779
 30
0.0
 40
0.5307755819659851
 41
0.5307755819659851
  0
SEQEND
  5
4C9
  8
PROFILEEDGES
  0
POLYLINE
  5
1A2
  8
PROFILEEDGES
 66
     1
 10
0.0
 20
0.0
 30
0.0
  0
VERTEX
  5
398
  8
PROFILEEDGES
 10
-49.92380056051499
 20
46.53426673025354
 30
0.0
 40
0.5307755819659851
 41
0.5307755819659851
  0
VERTEX
  5
399
  8
PROFILEEDGES
 10
-51.02827624283939
 20
45.85744316164376
 30
0.0
 40
0.5307755819659851
 41
0.5307755819659851
  0
SEQEND
  5
4CA
  8
PROFILEEDGES
  0
POLYLINE
  5
1A3
  8
PROFILEEDGES
 66
     1
 10
0.0
 20
0.0
 30
0.0
  0
VERTEX
  5
39A
  8
PROFILEEDGES
 10
-46.52096781818936
 20
53.21270201881873
 30
0.0
 40
0.5307755819659851
 41
0.5307755819659851
  0
VERTEX
  5
39B
  8
PROFILEEDGES
 10
-46.57713609902691
 20
53.92638769481966
 30
0.0
 40
0.5307755819659851
 41
0.5307755819659851
  0
SEQEND
  5
4CB
  8
PROFILEEDGES
  0
POLYLINE
  5
1A4
  8
PROFILEEDGES
 66
     1
 10
0.0
 20
0.0
 30
0.0
  0
VERTEX
  5
39C
  8
PROFILEEDGES
 10
-46.52096781818936
 20
53.21270201881873
 30
0.0
 40
0.5307755819659851
 41
0.5307755819659851
  0
VERTEX
  5
39D
  8
PROFILEEDGES
 10
-46.62260056657649
 20
51.92133550991161
 30
0.0
 40
0.5307755819659851
 41
0.5307755819659851
  0
SEQEND
  5
4CC
  8
PROFILEEDGES
  0
POLYLINE
  5
1A5
  8
PROFILEEDGES
 66
     1
 10
0.0
 20
0.0
 30
0.0
  0
VERTEX
  5
39E
  8
PROFILEEDGES
 10
-47.42070896101438
 20
56.96039359416868
 30
0.0
 40
0.5307755819659851
 41
0.5307755819659851
  0
VERTEX
  5
39F
  8
PROFILEEDGES
 10
-47.62832471099659
 20
57.29919170605166
 30
0.0
 40
0.5307755819659851
 41
0.5307755819659851
  0
SEQEND
  5
4CD
  8
PROFILEEDGES
  0
POLYLINE
  5
1A6
  8
PROFILEEDGES
 66
     1
 10
0.0
 20
0.0
 30
0.0
  0
VERTEX
  5
3A0
  8
PROFILEEDGES
 10
-46.92499627617286
 20
55.7636373073839
 30
0.0
 40
0.5307755819659851
 41
0.5307755819659851
  0
VERTEX
  5
3A1
  8
PROFILEEDGES
 10
-46.78959476186042
 20
55.19964941094842
 30
0.0
 40
0.5307755819659851
 41
0.5307755819659851
  0
SEQEND
  5
4CE
  8
PROFILEEDGES
  0
POLYLINE
  5
1A7
  8
PROFILEEDGES
 66
     1
 10
0.0
 20
0.0
 30
0.0
  0
VERTEX
  5
3A2
  8
PROFILEEDGES
 10
-51.0282762428394
 20
60.5679608759937
 30
0.0
 40
0.5307755819659851
 41
0.5307755819659851
  0
VERTEX
  5
3A3
  8
PROFILEEDGES
 10
-51.57606849782619
 20
60.79486385737216
 30
0.0
 40
0.5307755819659851
 41
0.5307755819659851
  0
SEQEND
  5
4CF
  8
PROFILEEDGES
  0
POLYLINE
  5
1A8
  8
PROFILEEDGES
 66
     1
 10
0.0
 20
0.0
 30
0.0
  0
VERTEX
  5
3A4
  8
PROFILEEDGES
 10
-53.48460130928225
 20
61.36606927043159
 30
0.0
 40
0.5307755819659851
 41
0.5307755819659851
  0
VERTEX
  5
3A5
  8
PROFILEEDGES
 10
-52.799763679123
 20
61.20165430201158
 30
0.0
 40
0.5307755819659851
 41
0.5307755819659851
  0
SEQEND
  5
4D0
  8
PROFILEEDGES
  0
POLYLINE
  5
1A9
  8
PROFILEEDGES
 66
     1
 10
0.0
 20
0.0
 30
0.0
  0
VERTEX
  5
3A6
  8
PROFILEEDGES
 10
-56.06733432709646
 20
61.36606927043157
 30
0.0
 40
0.5307755819659851
 41
0.5307755819659851
  0
VERTEX
  5
3A7
  8
PROFILEEDGES
 10
-56.70714400294851
 20
61.21246455740556
 30
0.0
 40
0.5307755819659851
 41
0.5307755819659851
  0
SEQEND
  5
4D1
  8
PROFILEEDGES
  0
POLYLINE
  5
1AA
  8
PROFILEEDGES
 66
     1
 10
0.0
 20
0.0
 30
0.0
  0
VERTEX
  5
3A8
  8
PROFILEEDGES
 10
-59.62813507586371
 20
59.89113730738389
 30
0.0
 40
0.5307755819659851
 41
0.5307755819659851
  0
VERTEX
  5
3A9
  8
PROFILEEDGES
 10
-59.91563634489152
 20
59.64558802646101
 30
0.0
 40
0.5307755819659851
 41
0.5307755819659851
  0
SEQEND
  5
4D2
  8
PROFILEEDGES
  0
POLYLINE
  5
1AB
  8
PROFILEEDGES
 66
     1
 10
0.0
 20
0.0
 30
0.0
  0
VERTEX
  5
3AA
  8
PROFILEEDGES
 10
-62.62693936020583
 20
55.7636373073839
 30
0.0
 40
0.5307755819659851
 41
0.5307755819659851
  0
VERTEX
  5
3AB
  8
PROFILEEDGES
 10
-62.74490193963523
 20
55.27228780240739
 30
0.0
 40
0.5307755819659851
 41
0.5307755819659851
  0
SEQEND
  5
4D3
  8
PROFILEEDGES
  0
POLYLINE
  5
1AC
  8
PROFILEEDGES
 66
     1
 10
0.0
 20
0.0
 30
0.0
  0
VERTEX
  5
3AC
  8
PROFILEEDGES
 10
-62.13122667536432
 20
49.46501044346876
 30
0.0
 40
0.5307755819659851
 41
0.5307755819659851
  0
VERTEX
  5
3AD
  8
PROFILEEDGES
 10
-62.62693936020583
 20
50.66176673025331
 30
0.0
 40
0.5307755819659851
 41
0.5307755819659851
  0
SEQEND
  5
4D4
  8
PROFILEEDGES
  0
POLYLINE
  5
1AD
  8
PROFILEEDGES
 66
     1
 10
0.0
 20
0.0
 30
0.0
  0
VERTEX
  5
3AE
  8
PROFILEEDGES
 10
-61.45440310675453
 20
48.36053476114436
 30
0.0
 40
0.5307755819659851
 41
0.5307755819659851
  0
VERTEX
  5
3AF
  8
PROFILEEDGES
 10
-62.13122667536432
 20
49.46501044346876
 30
0.0
 40
0.5307755819659851
 41
0.5307755819659851
  0
SEQEND
  5
4D5
  8
PROFILEEDGES
  0
POLYLINE
  5
1AE
  8
PROFILEEDGES
 66
     1
 10
0.0
 20
0.0
 30
0.0
  0
VERTEX
  5
3B0
  8
PROFILEEDGES
 10
-60.6131342968843
 20
47.37553554012377
 30
0.0
 40
0.5307755819659851
 41
0.5307755819659851
  0
VERTEX
  5
3B1
  8
PROFILEEDGES
 10
-59.9589332769039
 20
46.81679508454802
 30
0.0
 40
0.5307755819659851
 41
0.5307755819659851
  0
SEQEND
  5
4D6
  8
PROFILEEDGES
  0
POLYLINE
  5
1AF
  8
PROFILEEDGES
 66
     1
 10
0.0
 20
0.0
 30
0.0
  0
VERTEX
  5
3B2
  8
PROFILEEDGES
 10
-60.6131342968843
 20
47.37553554012377
 30
0.0
 40
0.5307755819659851
 41
0.5307755819659851
  0
VERTEX
  5
3B3
  8
PROFILEEDGES
 10
-61.45440310675453
 20
48.36053476114436
 30
0.0
 40
0.5307755819659851
 41
0.5307755819659851
  0
SEQEND
  5
4D7
  8
PROFILEEDGES
  0
POLYLINE
  5
1B0
  8
PROFILEEDGES
 66
     1
 10
0.0
 20
0.0
 30
0.0
  0
VERTEX
  5
3B4
  8
PROFILEEDGES
 10
-57.32690310675453
 20
45.36173047680223
 30
0.0
 40
0.5307755819659851
 41
0.5307755819659851
  0
VERTEX
  5
3B5
  8
PROFILEEDGES
 10
-56.06733432709645
 20
45.05933476720586
 30
0.0
 40
0.5307755819659851
 41
0.5307755819659851
  0
SEQEND
  5
4D8
  8
PROFILEEDGES
  0
POLYLINE
  5
1B1
  8
PROFILEEDGES
 66
     1
 10
0.0
 20
0.0
 30
0.0
  0
VERTEX
  5
3B6
  8
PROFILEEDGES
 10
-53.48460130928224
 20
45.05933476720586
 30
0.0
 40
0.5307755819659851
 41
0.5307755819659851
  0
VERTEX
  5
3B7
  8
PROFILEEDGES
 10
-52.22503252962415
 20
45.36173047680223
 30
0.0
 40
0.5307755819659851
 41
0.5307755819659851
  0
SEQEND
  5
4D9
  8
PROFILEEDGES
  0
POLYLINE
  5
1B2
  8
PROFILEEDGES
 66
     1
 10
0.0
 20
0.0
 30
0.0
  0
VERTEX
  5
3B8
  8
PROFILEEDGES
 10
-46.92499627617286
 20
-56.01823326974643
 30
0.0
 40
0.5307755819659851
 41
0.5307755819659851
  0
VERTEX
  5
3B9
  8
PROFILEEDGES
 10
-46.78959476186043
 20
-55.45424537331096
 30
0.0
 40
0.5307755819659851
 41
0.5307755819659851
  0
SEQEND
  5
4DA
  8
PROFILEEDGES
  0
POLYLINE
  5
1B3
  8
PROFILEEDGES
 66
     1
 10
0.0
 20
0.0
 30
0.0
  0
VERTEX
  5
3BA
  8
PROFILEEDGES
 10
-47.42070896101438
 20
-57.21498955653119
 30
0.0
 40
0.5307755819659851
 41
0.5307755819659851
  0
VERTEX
  5
3BB
  8
PROFILEEDGES
 10
-47.6283247109938
 20
-57.55378766840963
 30
0.0
 40
0.5307755819659851
 41
0.5307755819659851
  0
SEQEND
  5
4DB
  8
PROFILEEDGES
  0
POLYLINE
  5
1B4
  8
PROFILEEDGES
 66
     1
 10
0.0
 20
0.0
 30
0.0
  0
VERTEX
  5
3BC
  8
PROFILEEDGES
 10
-51.0282762428394
 20
-60.82255683835621
 30
0.0
 40
0.5307755819659851
 41
0.5307755819659851
  0
VERTEX
  5
3BD
  8
PROFILEEDGES
 10
-51.57606849782658
 20
-61.04945981973484
 30
0.0
 40
0.5307755819659851
 41
0.5307755819659851
  0
SEQEND
  5
4DC
  8
PROFILEEDGES
  0
POLYLINE
  5
1B5
  8
PROFILEEDGES
 66
     1
 10
0.0
 20
0.0
 30
0.0
  0
VERTEX
  5
3BE
  8
PROFILEEDGES
 10
-53.48460130928225
 20
-61.6206652327941
 30
0.0
 40
0.5307755819659851
 41
0.5307755819659851
  0
VERTEX
  5
3BF
  8
PROFILEEDGES
 10
-52.79976367912289
 20
-61.45625026437407
 30
0.0
 40
0.5307755819659851
 41
0.5307755819659851
  0
SEQEND
  5
4DD
  8
PROFILEEDGES
  0
POLYLINE
  5
1B6
  8
PROFILEEDGES
 66
     1
 10
0.0
 20
0.0
 30
0.0
  0
VERTEX
  5
3C0
  8
PROFILEEDGES
 10
-62.62693936020583
 20
-56.01823326974643
 30
0.0
 40
0.5307755819659851
 41
0.5307755819659851
  0
VERTEX
  5
3C1
  8
PROFILEEDGES
 10
-62.74490193963523
 20
-55.52688376476993
 30
0.0
 40
0.5307755819659851
 41
0.5307755819659851
  0
SEQEND
  5
4DE
  8
PROFILEEDGES
  0
POLYLINE
  5
1B7
  8
PROFILEEDGES
 66
     1
 10
0.0
 20
0.0
 30
0.0
  0
VERTEX
  5
3C2
  8
PROFILEEDGES
 10
-62.13122667536432
 20
-49.71960640583128
 30
0.0
 40
0.5307755819659851
 41
0.5307755819659851
  0
VERTEX
  5
3C3
  8
PROFILEEDGES
 10
-62.62693936020585
 20
-50.91636269261608
 30
0.0
 40
0.5307755819659851
 41
0.5307755819659851
  0
SEQEND
  5
4DF
  8
PROFILEEDGES
  0
POLYLINE
  5
1B8
  8
PROFILEEDGES
 66
     1
 10
0.0
 20
0.0
 30
0.0
  0
VERTEX
  5
3C4
  8
PROFILEEDGES
 10
-61.45440310675453
 20
-48.61513072350688
 30
0.0
 40
0.5307755819659851
 41
0.5307755819659851
  0
VERTEX
  5
3C5
  8
PROFILEEDGES
 10
-62.13122667536432
 20
-49.71960640583128
 30
0.0
 40
0.5307755819659851
 41
0.5307755819659851
  0
SEQEND
  5
4E0
  8
PROFILEEDGES
  0
POLYLINE
  5
1B9
  8
PROFILEEDGES
 66
     1
 10
0.0
 20
0.0
 30
0.0
  0
VERTEX
  5
3C6
  8
PROFILEEDGES
 10
-60.6131342968843
 20
-47.6301315024863
 30
0.0
 40
0.5307755819659851
 41
0.5307755819659851
  0
VERTEX
  5
3C7
  8
PROFILEEDGES
 10
-61.45440310675453
 20
-48.61513072350688
 30
0.0
 40
0.5307755819659851
 41
0.5307755819659851
  0
SEQEND
  5
4E1
  8
PROFILEEDGES
  0
POLYLINE
  5
1BA
  8
PROFILEEDGES
 66
     1
 10
0.0
 20
0.0
 30
0.0
  0
VERTEX
  5
3C8
  8
PROFILEEDGES
 10
-60.6131342968843
 20
-47.6301315024863
 30
0.0
 40
0.5307755819659851
 41
0.5307755819659851
  0
VERTEX
  5
3C9
  8
PROFILEEDGES
 10
-59.95893327690388
 20
-47.07139104691052
 30
0.0
 40
0.5307755819659851
 41
0.5307755819659851
  0
SEQEND
  5
4E2
  8
PROFILEEDGES
  0
POLYLINE
  5
1BB
  8
PROFILEEDGES
 66
     1
 10
0.0
 20
0.0
 30
0.0
  0
VERTEX
  5
3CA
  8
PROFILEEDGES
 10
-56.06733432709645
 20
-45.31393072956838
 30
0.0
 40
0.5307755819659851
 41
0.5307755819659851
  0
VERTEX
  5
3CB
  8
PROFILEEDGES
 10
-57.32690310675453
 20
-45.61632643916476
 30
0.0
 40
0.5307755819659851
 41
0.5307755819659851
  0
SEQEND
  5
4E3
  8
PROFILEEDGES
  0
POLYLINE
  5
1BC
  8
PROFILEEDGES
 66
     1
 10
0.0
 20
0.0
 30
0.0
  0
VERTEX
  5
3CC
  8
PROFILEEDGES
 10
-52.22503252962415
 20
-45.61632643916476
 30
0.0
 40
0.5307755819659851
 41
0.5307755819659851
  0
VERTEX
  5
3CD
  8
PROFILEEDGES
 10
-53.48460130928224
 20
-45.31393072956839
 30
0.0
 40
0.5307755819659851
 41
0.5307755819659851
  0
SEQEND
  5
4E4
  8
PROFILEEDGES
  0
POLYLINE
  5
1BD
  8
PROFILEEDGES
 66
     1
 10
0.0
 20
0.0
 30
0.0
  0
VERTEX
  5
3CE
  8
PROFILEEDGES
 10
-52.22503252962415
 20
-45.61632643916476
 30
0.0
 40
0.5307755819659851
 41
0.5307755819659851
  0
VERTEX
  5
3CF
  8
PROFILEEDGES
 10
-51.02827624283939
 20
-46.11203912400627
 30
0.0
 40
0.5307755819659851
 41
0.5307755819659851
  0
SEQEND
  5
4E5
  8
PROFILEEDGES
  0
POLYLINE
  5
1BE
  8
PROFILEEDGES
 66
     1
 10
0.0
 20
0.0
 30
0.0
  0
VERTEX
  5
3D0
  8
PROFILEEDGES
 10
-49.92380056051499
 20
-46.78886269261606
 30
0.0
 40
0.5307755819659851
 41
0.5307755819659851
  0
VERTEX
  5
3D1
  8
PROFILEEDGES
 10
-51.02827624283939
 20
-46.11203912400627
 30
0.0
 40
0.5307755819659851
 41
0.5307755819659851
  0
SEQEND
  5
4E6
  8
PROFILEEDGES
  0
POLYLINE
  5
1BF
  8
PROFILEEDGES
 66
     1
 10
0.0
 20
0.0
 30
0.0
  0
VERTEX
  5
3D2
  8
PROFILEEDGES
 10
-49.92380056051499
 20
-46.78886269261606
 30
0.0
 40
0.5307755819659851
 41
0.5307755819659851
  0
VERTEX
  5
3D3
  8
PROFILEEDGES
 10
-49.26602642225608
 20
-47.35065487950037
 30
0.0
 40
0.5307755819659851
 41
0.5307755819659851
  0
SEQEND
  5
4E7
  8
PROFILEEDGES
  0
POLYLINE
  5
1C0
  8
PROFILEEDGES
 66
     1
 10
0.0
 20
0.0
 30
0.0
  0
VERTEX
  5
3D4
  8
PROFILEEDGES
 10
-46.52096781818936
 20
-53.46729798118124
 30
0.0
 40
0.5307755819659851
 41
0.5307755819659851
  0
VERTEX
  5
3D5
  8
PROFILEEDGES
 10
-46.62260056657649
 20
-52.17593147227414
 30
0.0
 40
0.5307755819659851
 41
0.5307755819659851
  0
SEQEND
  5
4E8
  8
PROFILEEDGES
  0
POLYLINE
  5
1C1
  8
PROFILEEDGES
 66
     1
 10
0.0
 20
0.0
 30
0.0
  0
VERTEX
  5
3D6
  8
PROFILEEDGES
 10
-46.52096781818936
 20
-53.46729798118124
 30
0.0
 40
0.5307755819659851
 41
0.5307755819659851
  0
VERTEX
  5
3D7
  8
PROFILEEDGES
 10
-46.57713609902692
 20
-54.1809836571822
 30
0.0
 40
0.5307755819659851
 41
0.5307755819659851
  0
SEQEND
  5
4E9
  8
PROFILEEDGES
  0
POLYLINE
  5
1C2
  8
PROFILEEDGES
 66
     1
 10
0.0
 20
0.0
 30
0.0
  0
VERTEX
  5
3D8
  8
PROFILEEDGES
 10
-56.06733432709646
 20
-61.6206652327941
 30
0.0
 40
0.5307755819659851
 41
0.5307755819659851
  0
VERTEX
  5
3D9
  8
PROFILEEDGES
 10
-56.70714400294851
 20
-61.46706051976808
 30
0.0
 40
0.5307755819659851
 41
0.5307755819659851
  0
SEQEND
  5
4EA
  8
PROFILEEDGES
  0
POLYLINE
  5
1C3
  8
PROFILEEDGES
 66
     1
 10
0.0
 20
0.0
 30
0.0
  0
VERTEX
  5
3DA
  8
PROFILEEDGES
 10
-59.62813507586371
 20
-60.14573326974642
 30
0.0
 40
0.5307755819659851
 41
0.5307755819659851
  0
VERTEX
  5
3DB
  8
PROFILEEDGES
 10
-59.91563634489152
 20
-59.90018398882353
 30
0.0
 40
0.5307755819659851
 41
0.5307755819659851
  0
SEQEND
  5
4EB
  8
PROFILEEDGES
  0
POLYLINE
  5
1C4
  8
PROFILEEDGES
 66
     1
 10
0.0
 20
0.0
 30
0.0
  0
VERTEX
  5
3DC
  8
PROFILEEDGES
 10
132.1340321818113
 20
-28.70229798118075
 30
0.0
 40
0.5307755819659851
 41
0.5307755819659851
  0
VERTEX
  5
3DD
  8
PROFILEEDGES
 10
132.1340321818103
 20
28.44770201881926
 30
0.0
 40
0.5307755819659851
 41
0.5307755819659851
  0
SEQEND
  5
4EC
  8
PROFILEEDGES
  0
POLYLINE
  5
1C5
  8
PROFILEEDGES
 66
     1
 10
0.0
 20
0.0
 30
0.0
  0
VERTEX
  5
3DE
  8
PROFILEEDGES
 10
73.71403218181209
 20
-76.3272979811817
 30
0.0
 40
0.5307755819659851
 41
0.5307755819659851
  0
VERTEX
  5
3DF
  8
PROFILEEDGES
 10
73.71403218180957
 20
76.07270201881829
 30
0.0
 40
0.5307755819659851
 41
0.5307755819659851
  0
SEQEND
  5
4ED
  8
PROFILEEDGES
  0
POLYLINE
  5
1C6
  8
PROFILEEDGES
 66
     1
 10
0.0
 20
0.0
 30
0.0
  0
VERTEX
  5
3E0
  8
PROFILEEDGES
 10
111.8140321818113
 20
-28.70229798118108
 30
0.0
 40
0.5307755819659851
 41
0.5307755819659851
  0
VERTEX
  5
3E1
  8
PROFILEEDGES
 10
111.8140321818161
 20
28.44770201881892
 30
0.0
 40
0.5307755819659851
 41
0.5307755819659851
  0
SEQEND
  5
4EE
  8
PROFILEEDGES
  0
POLYLINE
  5
1C7
  8
PROFILEEDGES
 66
     1
 10
0.0
 20
0.0
 30
0.0
  0
VERTEX
  5
3E2
  8
PROFILEEDGES
 10
111.8140321818095
 20
82.42270201881891
 30
0.0
 40
0.5307755819659851
 41
0.5307755819659851
  0
VERTEX
  5
3E3
  8
PROFILEEDGES
 10
111.8140321818161
 20
28.44770201881892
 30
0.0
 40
0.5307755819659851
 41
0.5307755819659851
  0
SEQEND
  5
4EF
  8
PROFILEEDGES
  0
POLYLINE
  5
1C8
  8
PROFILEEDGES
 66
     1
 10
0.0
 20
0.0
 30
0.0
  0
VERTEX
  5
3E4
  8
PROFILEEDGES
 10
111.8140321818113
 20
-28.70229798118108
 30
0.0
 40
0.5307755819659851
 41
0.5307755819659851
  0
VERTEX
  5
3E5
  8
PROFILEEDGES
 10
111.8140321818122
 20
-82.67729798118107
 30
0.0
 40
0.5307755819659851
 41
0.5307755819659851
  0
SEQEND
  5
4F0
  8
PROFILEEDGES
  0
ENDSEC
  0
EOF
