  0
SECTION
  2
HEADER
  9
$ACADVER
  1
AC1009
  9
$DWGCODEPAGE
  3
ansi_1252
  9
$INSBASE
 10
0.0
 20
0.0
 30
0.0
  9
$EXTMIN
 10
1.000000000000000E+20
 20
1.000000000000000E+20
 30
1.000000000000000E+20
  9
$EXTMAX
 10
-1.000000000000000E+20
 20
-1.000000000000000E+20
 30
-1.000000000000000E+20
  9
$LIMMIN
 10
0.0
 20
0.0
  9
$LIMMAX
 10
12.0
 20
9.0
  9
$ORTHOMODE
 70
     0
  9
$REGENMODE
 70
     1
  9
$FILLMODE
 70
     1
  9
$QTEXTMODE
 70
     0
  9
$MIRRTEXT
 70
     1
  9
$DRAGMODE
 70
     2
  9
$LTSCALE
 40
1.0
  9
$OSMODE
 70
    37
  9
$ATTMODE
 70
     1
  9
$TEXTSIZE
 40
0.2
  9
$TRACEWID
 40
0.05
  9
$TEXTSTYLE
  7
STANDARD
  9
$CLAYER
  8
0
  9
$CELTYPE
  6
BYLAYER
  9
$CECOLOR
 62
   256
  9
$DIMSCALE
 40
1.0
  9
$DIMASZ
 40
0.18
  9
$DIMEXO
 40
0.0625
  9
$DIMDLI
 40
0.38
  9
$DIMRND
 40
0.0
  9
$DIMDLE
 40
0.0
  9
$DIMEXE
 40
0.18
  9
$DIMTP
 40
0.0
  9
$DIMTM
 40
0.0
  9
$DIMTXT
 40
0.18
  9
$DIMCEN
 40
0.09
  9
$DIMTSZ
 40
0.0
  9
$DIMTOL
 70
     0
  9
$DIMLIM
 70
     0
  9
$DIMTIH
 70
     1
  9
$DIMTOH
 70
     1
  9
$DIMSE1
 70
     0
  9
$DIMSE2
 70
     0
  9
$DIMTAD
 70
     0
  9
$DIMZIN
 70
     0
  9
$DIMBLK
  1

  9
$DIMASO
 70
     1
  9
$DIMSHO
 70
     1
  9
$DIMPOST
  1

  9
$DIMAPOST
  1

  9
$DIMALT
 70
     0
  9
$DIMALTD
 70
     2
  9
$DIMALTF
 40
25.4
  9
$DIMLFAC
 40
1.0
  9
$DIMTOFL
 70
     0
  9
$DIMTVP
 40
0.0
  9
$DIMTIX
 70
     0
  9
$DIMSOXD
 70
     0
  9
$DIMSAH
 70
     0
  9
$DIMBLK1
  1

  9
$DIMBLK2
  1

  9
$DIMSTYLE
  2
STANDARD
  9
$DIMCLRD
 70
     0
  9
$DIMCLRE
 70
     0
  9
$DIMCLRT
 70
     0
  9
$DIMTFAC
 40
1.0
  9
$DIMGAP
 40
0.09
  9
$LUNITS
 70
     2
  9
$LUPREC
 70
     4
  9
$SKETCHINC
 40
0.1
  9
$FILLETRAD
 40
0.0
  9
$AUNITS
 70
     0
  9
$AUPREC
 70
     0
  9
$MENU
  1
.
  9
$ELEVATION
 40
0.0
  9
$PELEVATION
 40
0.0
  9
$THICKNESS
 40
0.0
  9
$LIMCHECK
 70
     0
  9
$CHAMFERA
 40
0.0
  9
$CHAMFERB
 40
0.0
  9
$SKPOLY
 70
     0
  9
$TDCREATE
 40
2460276.414438843
  9
$TDUPDATE
 40
2460276.414439213
  9
$TDINDWG
 40
0.0000000116
  9
$TDUSRTIMER
 40
0.0000000116
  9
$USRTIMER
 70
     1
  9
$ANGBASE
 50
0.0
  9
$ANGDIR
 70
     0
  9
$PDMODE
 70
     0
  9
$PDSIZE
 40
0.0
  9
$PLINEWID
 40
0.0
  9
$COORDS
 70
     1
  9
$SPLFRAME
 70
     0
  9
$SPLINETYPE
 70
     6
  9
$SPLINESEGS
 70
     8
  9
$ATTDIA
 70
     0
  9
$ATTREQ
 70
     1
  9
$HANDLING
 70
     1
  9
$HANDSEED
  5
570
  9
$SURFTAB1
 70
     6
  9
$SURFTAB2
 70
     6
  9
$SURFTYPE
 70
     6
  9
$SURFU
 70
     6
  9
$SURFV
 70
     6
  9
$UCSNAME
  2

  9
$UCSORG
 10
0.0
 20
0.0
 30
0.0
  9
$UCSXDIR
 10
1.0
 20
0.0
 30
0.0
  9
$UCSYDIR
 10
0.0
 20
1.0
 30
0.0
  9
$PUCSNAME
  2

  9
$PUCSORG
 10
0.0
 20
0.0
 30
0.0
  9
$PUCSXDIR
 10
1.0
 20
0.0
 30
0.0
  9
$PUCSYDIR
 10
0.0
 20
1.0
 30
0.0
  9
$USERI1
 70
     0
  9
$USERI2
 70
     0
  9
$USERI3
 70
     0
  9
$USERI4
 70
     0
  9
$USERI5
 70
     0
  9
$USERR1
 40
0.0
  9
$USERR2
 40
0.0
  9
$USERR3
 40
0.0
  9
$USERR4
 40
0.0
  9
$USERR5
 40
0.0
  9
$WORLDVIEW
 70
     1
  9
$SHADEDGE
 70
     3
  9
$SHADEDIF
 70
    70
  9
$TILEMODE
 70
     1
  9
$MAXACTVP
 70
    64
  9
$PLIMCHECK
 70
     0
  9
$PEXTMIN
 10
1.000000000000000E+20
 20
1.000000000000000E+20
 30
1.000000000000000E+20
  9
$PEXTMAX
 10
-1.000000000000000E+20
 20
-1.000000000000000E+20
 30
-1.000000000000000E+20
  9
$PLIMMIN
 10
0.0
 20
0.0
  9
$PLIMMAX
 10
12.0
 20
9.0
  9
$UNITMODE
 70
     0
  9
$VISRETAIN
 70
     1
  9
$PLINEGEN
 70
     0
  9
$PSLTSCALE
 70
     1
  0
ENDSEC
  0
SECTION
  2
TABLES
  0
TABLE
  2
VPORT
 70
     1
  0
VPORT
  2
*ACTIVE
 70
     0
 10
0.0
 20
0.0
 11
1.0
 21
1.0
 12
0.0
 22
0.0
 13
0.0
 23
0.0
 14
0.5
 24
0.5
 15
0.5
 25
0.5
 16
0.0
 26
0.0
 36
1.0
 17
0.0
 27
0.0
 37
-1000.0
 40
1965.319718940602
 41
1.658454647256439
 42
50.0
 43
2655.823116560372
 44
3898.579684087704
 50
0.0
 51
0.0
 71
     0
 72
   100
 73
     1
 74
     3
 75
     0
 76
     0
 77
     0
 78
     0
  0
ENDTAB
  0
TABLE
  2
LTYPE
 70
     1
  0
LTYPE
  2
CONTINUOUS
 70
     0
  3
Solid line
 72
    65
 73
     0
 40
0.0
  0
ENDTAB
  0
TABLE
  2
LAYER
 70
     3
  0
LAYER
  2
0
 70
     0
 62
     7
  6
CONTINUOUS
  0
LAYER
  2
PROFILEEDGES
 70
     0
 62
     7
  6
CONTINUOUS
  0
LAYER
  2
SECTIONCUTEDGES
 70
     0
 62
     7
  6
CONTINUOUS
  0
ENDTAB
  0
TABLE
  2
STYLE
 70
     1
  0
STYLE
  2
STANDARD
 70
     0
 40
0.0
 41
1.0
 50
0.0
 71
     0
 42
0.2
  3
txt
  4

  0
ENDTAB
  0
TABLE
  2
VIEW
 70
     0
  0
ENDTAB
  0
TABLE
  2
UCS
 70
     0
  0
ENDTAB
  0
TABLE
  2
APPID
 70
     1
  0
APPID
  2
ACAD
 70
     0
  0
ENDTAB
  0
TABLE
  2
DIMSTYLE
 70
     1
  0
DIMSTYLE
  2
STANDARD
 70
     0
  3

  4

  5

  6

  7

 40
1.0
 41
0.18
 42
0.0625
 43
0.38
 44
0.18
 45
0.0
 46
0.0
 47
0.0
 48
0.0
140
0.18
141
0.09
142
0.0
143
25.4
144
1.0
145
0.0
146
1.0
147
0.09
 71
     0
 72
     0
 73
     1
 74
     1
 75
     0
 76
     0
 77
     0
 78
     0
170
     0
171
     2
172
     0
173
     0
174
     0
175
     0
176
     0
177
     0
178
     0
  0
ENDTAB
  0
ENDSEC
  0
SECTION
  2
BLOCKS
  0
BLOCK
  8
0
  2
$MODEL_SPACE
 70
     0
 10
0.0
 20
0.0
 30
0.0
  3
$MODEL_SPACE
  1

  0
ENDBLK
  5
21
  8
0
  0
BLOCK
 67
     1
  8
0
  2
$PAPER_SPACE
 70
     0
 10
0.0
 20
0.0
 30
0.0
  3
$PAPER_SPACE
  1

  0
ENDBLK
  5
1D
 67
     1
  8
0
  0
ENDSEC
  0
SECTION
  2
ENTITIES
  0
POLYLINE
  5
60
  8
PROFILEEDGES
 66
     1
 10
0.0
 20
0.0
 30
0.0
  0
VERTEX
  5
1B3
  8
PROFILEEDGES
 10
-340.4408069316403
 20
749.4532349992274
 30
0.0
 40
4.401611912520944
 41
4.401611912520944
  0
VERTEX
  5
1B4
  8
PROFILEEDGES
 10
-342.3490377746256
 20
748.147877432521
 30
0.0
 40
4.401611912520944
 41
4.401611912520944
  0
SEQEND
  5
431
  8
PROFILEEDGES
  0
POLYLINE
  5
61
  8
PROFILEEDGES
 66
     1
 10
0.0
 20
0.0
 30
0.0
  0
VERTEX
  5
1B5
  8
PROFILEEDGES
 10
-338.3981120342395
 20
750.4901689991503
 30
0.0
 40
4.401611912520944
 41
4.401611912520944
  0
VERTEX
  5
1B6
  8
PROFILEEDGES
 10
-340.4408069316403
 20
749.4532349992274
 30
0.0
 40
4.401611912520944
 41
4.401611912520944
  0
SEQEND
  5
432
  8
PROFILEEDGES
  0
POLYLINE
  5
62
  8
PROFILEEDGES
 66
     1
 10
0.0
 20
0.0
 30
0.0
  0
VERTEX
  5
1B7
  8
PROFILEEDGES
 10
-342.3490377746256
 20
748.147877432521
 30
0.0
 40
4.401611912520944
 41
4.401611912520944
  0
VERTEX
  5
1B8
  8
PROFILEEDGES
 10
-344.093150283177
 20
746.5943818106022
 30
0.0
 40
4.401611912520944
 41
4.401611912520944
  0
SEQEND
  5
433
  8
PROFILEEDGES
  0
POLYLINE
  5
63
  8
PROFILEEDGES
 66
     1
 10
0.0
 20
0.0
 30
0.0
  0
VERTEX
  5
1B9
  8
PROFILEEDGES
 10
-349.5148164796781
 20
736.0622839285722
 30
0.0
 40
4.401611912520944
 41
4.401611912520944
  0
VERTEX
  5
1BA
  8
PROFILEEDGES
 10
-349.8210444723312
 20
733.6327997676128
 30
0.0
 40
4.401611912520944
 41
4.401611912520944
  0
SEQEND
  5
434
  8
PROFILEEDGES
  0
POLYLINE
  5
64
  8
PROFILEEDGES
 66
     1
 10
0.0
 20
0.0
 30
0.0
  0
VERTEX
  5
1BB
  8
PROFILEEDGES
 10
-334.0379018786814
 20
751.6987314428462
 30
0.0
 40
4.401611912520944
 41
4.401611912520944
  0
VERTEX
  5
1BC
  8
PROFILEEDGES
 10
-336.2526969601585
 20
751.2425652753885
 30
0.0
 40
4.401611912520944
 41
4.401611912520944
  0
SEQEND
  5
435
  8
PROFILEEDGES
  0
POLYLINE
  5
65
  8
PROFILEEDGES
 66
     1
 10
0.0
 20
0.0
 30
0.0
  0
VERTEX
  5
1BD
  8
PROFILEEDGES
 10
-345.6460406082294
 20
744.816889758871
 30
0.0
 40
4.401611912520944
 41
4.401611912520944
  0
VERTEX
  5
1BE
  8
PROFILEEDGES
 10
-346.9835765308014
 20
742.8430238510178
 30
0.0
 40
4.401611912520944
 41
4.401611912520944
  0
SEQEND
  5
436
  8
PROFILEEDGES
  0
POLYLINE
  5
66
  8
PROFILEEDGES
 66
     1
 10
0.0
 20
0.0
 30
0.0
  0
VERTEX
  5
1BF
  8
PROFILEEDGES
 10
-348.9331125518122
 20
738.4314425180518
 30
0.0
 40
4.401611912520944
 41
4.401611912520944
  0
VERTEX
  5
1C0
  8
PROFILEEDGES
 10
-349.5148164796781
 20
736.0622839285722
 30
0.0
 40
4.401611912520944
 41
4.401611912520944
  0
SEQEND
  5
437
  8
PROFILEEDGES
  0
POLYLINE
  5
67
  8
PROFILEEDGES
 66
     1
 10
0.0
 20
0.0
 30
0.0
  0
VERTEX
  5
1C1
  8
PROFILEEDGES
 10
-336.2526969601585
 20
751.2425652753885
 30
0.0
 40
4.401611912520944
 41
4.401611912520944
  0
VERTEX
  5
1C2
  8
PROFILEEDGES
 10
-338.3981120342395
 20
750.4901689991503
 30
0.0
 40
4.401611912520944
 41
4.401611912520944
  0
SEQEND
  5
438
  8
PROFILEEDGES
  0
POLYLINE
  5
68
  8
PROFILEEDGES
 66
     1
 10
0.0
 20
0.0
 30
0.0
  0
VERTEX
  5
1C3
  8
PROFILEEDGES
 10
-348.0849724814021
 20
740.7034583488003
 30
0.0
 40
4.401611912520944
 41
4.401611912520944
  0
VERTEX
  5
1C4
  8
PROFILEEDGES
 10
-348.9331125518122
 20
738.4314425180518
 30
0.0
 40
4.401611912520944
 41
4.401611912520944
  0
SEQEND
  5
439
  8
PROFILEEDGES
  0
POLYLINE
  5
69
  8
PROFILEEDGES
 66
     1
 10
0.0
 20
0.0
 30
0.0
  0
VERTEX
  5
1C5
  8
PROFILEEDGES
 10
-346.9835765308014
 20
742.8430238510178
 30
0.0
 40
4.401611912520944
 41
4.401611912520944
  0
VERTEX
  5
1C6
  8
PROFILEEDGES
 10
-348.0849724814021
 20
740.7034583488003
 30
0.0
 40
4.401611912520944
 41
4.401611912520944
  0
SEQEND
  5
43A
  8
PROFILEEDGES
  0
POLYLINE
  5
6A
  8
PROFILEEDGES
 66
     1
 10
0.0
 20
0.0
 30
0.0
  0
VERTEX
  5
1C7
  8
PROFILEEDGES
 10
-344.093150283177
 20
746.5943818106022
 30
0.0
 40
4.401611912520944
 41
4.401611912520944
  0
VERTEX
  5
1C8
  8
PROFILEEDGES
 10
-345.6460406082294
 20
744.816889758871
 30
0.0
 40
4.401611912520944
 41
4.401611912520944
  0
SEQEND
  5
43B
  8
PROFILEEDGES
  0
POLYLINE
  5
6B
  8
PROFILEEDGES
 66
     1
 10
0.0
 20
0.0
 30
0.0
  0
VERTEX
  5
1C9
  8
PROFILEEDGES
 10
-403.8124131718508
 20
9.268804360412773
 30
0.0
 40
4.401611912520944
 41
4.401611912520944
  0
VERTEX
  5
1CA
  8
PROFILEEDGES
 10
-408.4796709579925
 20
9.93725471149261
 30
0.0
 40
4.401611912520944
 41
4.401611912520944
  0
SEQEND
  5
43C
  8
PROFILEEDGES
  0
POLYLINE
  5
6C
  8
PROFILEEDGES
 66
     1
 10
0.0
 20
0.0
 30
0.0
  0
VERTEX
  5
1CB
  8
PROFILEEDGES
 10
-408.4796709579925
 20
9.93725471149261
 30
0.0
 40
4.401611912520944
 41
4.401611912520944
  0
VERTEX
  5
1CC
  8
PROFILEEDGES
 10
-413.1469287441282
 20
9.268804360407685
 30
0.0
 40
4.401611912520944
 41
4.401611912520944
  0
SEQEND
  5
43D
  8
PROFILEEDGES
  0
POLYLINE
  5
6D
  8
PROFILEEDGES
 66
     1
 10
0.0
 20
0.0
 30
0.0
  0
VERTEX
  5
1CD
  8
PROFILEEDGES
 10
-413.1469287441282
 20
9.268804360407685
 30
0.0
 40
4.401611912520944
 41
4.401611912520944
  0
VERTEX
  5
1CE
  8
PROFILEEDGES
 10
-417.4961206251503
 20
7.30900709391505
 30
0.0
 40
4.401611912520944
 41
4.401611912520944
  0
SEQEND
  5
43E
  8
PROFILEEDGES
  0
POLYLINE
  5
6E
  8
PROFILEEDGES
 66
     1
 10
0.0
 20
0.0
 30
0.0
  0
VERTEX
  5
1CF
  8
PROFILEEDGES
 10
-417.4961206251503
 20
7.30900709391505
 30
0.0
 40
4.401611912520944
 41
4.401611912520944
  0
VERTEX
  5
1D0
  8
PROFILEEDGES
 10
-421.2308563617441
 20
4.191419857013384
 30
0.0
 40
4.401611912520944
 41
4.401611912520944
  0
SEQEND
  5
43F
  8
PROFILEEDGES
  0
POLYLINE
  5
6F
  8
PROFILEEDGES
 66
     1
 10
0.0
 20
0.0
 30
0.0
  0
VERTEX
  5
1D1
  8
PROFILEEDGES
 10
-421.2308563617441
 20
4.191419857013384
 30
0.0
 40
4.401611912520944
 41
4.401611912520944
  0
VERTEX
  5
1D2
  8
PROFILEEDGES
 10
-424.0966198853974
 20
0.1285010678352187
 30
0.0
 40
4.401611912520944
 41
4.401611912520944
  0
SEQEND
  5
440
  8
PROFILEEDGES
  0
POLYLINE
  5
70
  8
PROFILEEDGES
 66
     1
 10
0.0
 20
0.0
 30
0.0
  0
VERTEX
  5
1D3
  8
PROFILEEDGES
 10
-424.0966198853974
 20
0.1285010678352187
 30
0.0
 40
4.401611912520944
 41
4.401611912520944
  0
VERTEX
  5
1D4
  8
PROFILEEDGES
 10
-425.8981141478698
 20
-4.602868072424748
 30
0.0
 40
4.401611912520944
 41
4.401611912520944
  0
SEQEND
  5
441
  8
PROFILEEDGES
  0
POLYLINE
  5
71
  8
PROFILEEDGES
 66
     1
 10
0.0
 20
0.0
 30
0.0
  0
VERTEX
  5
1D5
  8
PROFILEEDGES
 10
-425.8981141478698
 20
-4.602868072424748
 30
0.0
 40
4.401611912520944
 41
4.401611912520944
  0
VERTEX
  5
1D6
  8
PROFILEEDGES
 10
-426.5125702923029
 20
-9.680252575814983
 30
0.0
 40
4.401611912520944
 41
4.401611912520944
  0
SEQEND
  5
442
  8
PROFILEEDGES
  0
POLYLINE
  5
72
  8
PROFILEEDGES
 66
     1
 10
0.0
 20
0.0
 30
0.0
  0
VERTEX
  5
1D7
  8
PROFILEEDGES
 10
-426.5125702923029
 20
-9.680252575814983
 30
0.0
 40
4.401611912520944
 41
4.401611912520944
  0
VERTEX
  5
1D8
  8
PROFILEEDGES
 10
-425.8981141478642
 20
-14.7576370792053
 30
0.0
 40
4.401611912520944
 41
4.401611912520944
  0
SEQEND
  5
443
  8
PROFILEEDGES
  0
POLYLINE
  5
73
  8
PROFILEEDGES
 66
     1
 10
0.0
 20
0.0
 30
0.0
  0
VERTEX
  5
1D9
  8
PROFILEEDGES
 10
-425.8981141478642
 20
-14.7576370792053
 30
0.0
 40
4.401611912520944
 41
4.401611912520944
  0
VERTEX
  5
1DA
  8
PROFILEEDGES
 10
-424.0966198853868
 20
-19.4890062194618
 30
0.0
 40
4.401611912520944
 41
4.401611912520944
  0
SEQEND
  5
444
  8
PROFILEEDGES
  0
POLYLINE
  5
74
  8
PROFILEEDGES
 66
     1
 10
0.0
 20
0.0
 30
0.0
  0
VERTEX
  5
1DB
  8
PROFILEEDGES
 10
-424.0966198853868
 20
-19.4890062194618
 30
0.0
 40
4.401611912520944
 41
4.401611912520944
  0
VERTEX
  5
1DC
  8
PROFILEEDGES
 10
-421.2308563617291
 20
-23.55192500863685
 30
0.0
 40
4.401611912520944
 41
4.401611912520944
  0
SEQEND
  5
445
  8
PROFILEEDGES
  0
POLYLINE
  5
75
  8
PROFILEEDGES
 66
     1
 10
0.0
 20
0.0
 30
0.0
  0
VERTEX
  5
1DD
  8
PROFILEEDGES
 10
-421.2308563617291
 20
-23.55192500863685
 30
0.0
 40
4.401611912520944
 41
4.401611912520944
  0
VERTEX
  5
1DE
  8
PROFILEEDGES
 10
-417.4961206251345
 20
-26.66951224553668
 30
0.0
 40
4.401611912520944
 41
4.401611912520944
  0
SEQEND
  5
446
  8
PROFILEEDGES
  0
POLYLINE
  5
76
  8
PROFILEEDGES
 66
     1
 10
0.0
 20
0.0
 30
0.0
  0
VERTEX
  5
1DF
  8
PROFILEEDGES
 10
-417.4961206251345
 20
-26.66951224553668
 30
0.0
 40
4.401611912520944
 41
4.401611912520944
  0
VERTEX
  5
1E0
  8
PROFILEEDGES
 10
-413.1469287441075
 20
-28.62930951202085
 30
0.0
 40
4.401611912520944
 41
4.401611912520944
  0
SEQEND
  5
447
  8
PROFILEEDGES
  0
POLYLINE
  5
77
  8
PROFILEEDGES
 66
     1
 10
0.0
 20
0.0
 30
0.0
  0
VERTEX
  5
1E1
  8
PROFILEEDGES
 10
-413.1469287441075
 20
-28.62930951202085
 30
0.0
 40
4.401611912520944
 41
4.401611912520944
  0
VERTEX
  5
1E2
  8
PROFILEEDGES
 10
-408.4796709579766
 20
-29.29775986310218
 30
0.0
 40
4.401611912520944
 41
4.401611912520944
  0
SEQEND
  5
448
  8
PROFILEEDGES
  0
POLYLINE
  5
78
  8
PROFILEEDGES
 66
     1
 10
0.0
 20
0.0
 30
0.0
  0
VERTEX
  5
1E3
  8
PROFILEEDGES
 10
-408.4796709579766
 20
-29.29775986310218
 30
0.0
 40
4.401611912520944
 41
4.401611912520944
  0
VERTEX
  5
1E4
  8
PROFILEEDGES
 10
-403.8124131718301
 20
-28.62930951201727
 30
0.0
 40
4.401611912520944
 41
4.401611912520944
  0
SEQEND
  5
449
  8
PROFILEEDGES
  0
POLYLINE
  5
79
  8
PROFILEEDGES
 66
     1
 10
0.0
 20
0.0
 30
0.0
  0
VERTEX
  5
1E5
  8
PROFILEEDGES
 10
-403.8124131718301
 20
-28.62930951201727
 30
0.0
 40
4.401611912520944
 41
4.401611912520944
  0
VERTEX
  5
1E6
  8
PROFILEEDGES
 10
-399.4632212908025
 20
-26.66951224552685
 30
0.0
 40
4.401611912520944
 41
4.401611912520944
  0
SEQEND
  5
44A
  8
PROFILEEDGES
  0
POLYLINE
  5
7A
  8
PROFILEEDGES
 66
     1
 10
0.0
 20
0.0
 30
0.0
  0
VERTEX
  5
1E7
  8
PROFILEEDGES
 10
-399.4632212908025
 20
-26.66951224552685
 30
0.0
 40
4.401611912520944
 41
4.401611912520944
  0
VERTEX
  5
1E8
  8
PROFILEEDGES
 10
-395.7284855542196
 20
-23.55192500862222
 30
0.0
 40
4.401611912520944
 41
4.401611912520944
  0
SEQEND
  5
44B
  8
PROFILEEDGES
  0
POLYLINE
  5
7B
  8
PROFILEEDGES
 66
     1
 10
0.0
 20
0.0
 30
0.0
  0
VERTEX
  5
1E9
  8
PROFILEEDGES
 10
-395.7284855542196
 20
-23.55192500862222
 30
0.0
 40
4.401611912520944
 41
4.401611912520944
  0
VERTEX
  5
1EA
  8
PROFILEEDGES
 10
-392.8627220305608
 20
-19.48900621944404
 30
0.0
 40
4.401611912520944
 41
4.401611912520944
  0
SEQEND
  5
44C
  8
PROFILEEDGES
  0
POLYLINE
  5
7C
  8
PROFILEEDGES
 66
     1
 10
0.0
 20
0.0
 30
0.0
  0
VERTEX
  5
1EB
  8
PROFILEEDGES
 10
-392.8627220305608
 20
-19.48900621944404
 30
0.0
 40
4.401611912520944
 41
4.401611912520944
  0
VERTEX
  5
1EC
  8
PROFILEEDGES
 10
-391.061227768083
 20
-14.75763707918557
 30
0.0
 40
4.401611912520944
 41
4.401611912520944
  0
SEQEND
  5
44D
  8
PROFILEEDGES
  0
POLYLINE
  5
7D
  8
PROFILEEDGES
 66
     1
 10
0.0
 20
0.0
 30
0.0
  0
VERTEX
  5
1ED
  8
PROFILEEDGES
 10
-391.061227768083
 20
-14.75763707918557
 30
0.0
 40
4.401611912520944
 41
4.401611912520944
  0
VERTEX
  5
1EE
  8
PROFILEEDGES
 10
-390.4467716236636
 20
-9.68025257579385
 30
0.0
 40
4.401611912520944
 41
4.401611912520944
  0
SEQEND
  5
44E
  8
PROFILEEDGES
  0
POLYLINE
  5
7E
  8
PROFILEEDGES
 66
     1
 10
0.0
 20
0.0
 30
0.0
  0
VERTEX
  5
1EF
  8
PROFILEEDGES
 10
-390.4467716236636
 20
-9.68025257579385
 30
0.0
 40
4.401611912520944
 41
4.401611912520944
  0
VERTEX
  5
1F0
  8
PROFILEEDGES
 10
-391.0612277680885
 20
-4.60286807240503
 30
0.0
 40
4.401611912520944
 41
4.401611912520944
  0
SEQEND
  5
44F
  8
PROFILEEDGES
  0
POLYLINE
  5
7F
  8
PROFILEEDGES
 66
     1
 10
0.0
 20
0.0
 30
0.0
  0
VERTEX
  5
1F1
  8
PROFILEEDGES
 10
-391.0612277680885
 20
-4.60286807240503
 30
0.0
 40
4.401611912520944
 41
4.401611912520944
  0
VERTEX
  5
1F2
  8
PROFILEEDGES
 10
-392.862722030566
 20
0.1285010678522287
 30
0.0
 40
4.401611912520944
 41
4.401611912520944
  0
SEQEND
  5
450
  8
PROFILEEDGES
  0
POLYLINE
  5
80
  8
PROFILEEDGES
 66
     1
 10
0.0
 20
0.0
 30
0.0
  0
VERTEX
  5
1F3
  8
PROFILEEDGES
 10
-392.862722030566
 20
0.1285010678522287
 30
0.0
 40
4.401611912520944
 41
4.401611912520944
  0
VERTEX
  5
1F4
  8
PROFILEEDGES
 10
-395.7284855542347
 20
4.191419857027281
 30
0.0
 40
4.401611912520944
 41
4.401611912520944
  0
SEQEND
  5
451
  8
PROFILEEDGES
  0
POLYLINE
  5
81
  8
PROFILEEDGES
 66
     1
 10
0.0
 20
0.0
 30
0.0
  0
VERTEX
  5
1F5
  8
PROFILEEDGES
 10
-395.7284855542347
 20
4.191419857027281
 30
0.0
 40
4.401611912520944
 41
4.401611912520944
  0
VERTEX
  5
1F6
  8
PROFILEEDGES
 10
-399.4632212908292
 20
7.309007093927108
 30
0.0
 40
4.401611912520944
 41
4.401611912520944
  0
SEQEND
  5
452
  8
PROFILEEDGES
  0
POLYLINE
  5
82
  8
PROFILEEDGES
 66
     1
 10
0.0
 20
0.0
 30
0.0
  0
VERTEX
  5
1F7
  8
PROFILEEDGES
 10
-399.4632212908292
 20
7.309007093927108
 30
0.0
 40
4.401611912520944
 41
4.401611912520944
  0
VERTEX
  5
1F8
  8
PROFILEEDGES
 10
-403.8124131718508
 20
9.268804360412773
 30
0.0
 40
4.401611912520944
 41
4.401611912520944
  0
SEQEND
  5
453
  8
PROFILEEDGES
  0
POLYLINE
  5
83
  8
PROFILEEDGES
 66
     1
 10
0.0
 20
0.0
 30
0.0
  0
VERTEX
  5
1F9
  8
PROFILEEDGES
 10
334.6847637552659
 20
0.1285010682485581
 30
0.0
 40
4.401611912520944
 41
4.401611912520944
  0
VERTEX
  5
1FA
  8
PROFILEEDGES
 10
332.883269492788
 20
-4.602868072010664
 30
0.0
 40
4.401611912520944
 41
4.401611912520944
  0
SEQEND
  5
454
  8
PROFILEEDGES
  0
POLYLINE
  5
84
  8
PROFILEEDGES
 66
     1
 10
0.0
 20
0.0
 30
0.0
  0
VERTEX
  5
1FB
  8
PROFILEEDGES
 10
332.883269492788
 20
-4.602868072010664
 30
0.0
 40
4.401611912520944
 41
4.401611912520944
  0
VERTEX
  5
1FC
  8
PROFILEEDGES
 10
332.268813348363
 20
-9.680252575400893
 30
0.0
 40
4.401611912520944
 41
4.401611912520944
  0
SEQEND
  5
455
  8
PROFILEEDGES
  0
POLYLINE
  5
85
  8
PROFILEEDGES
 66
     1
 10
0.0
 20
0.0
 30
0.0
  0
VERTEX
  5
1FD
  8
PROFILEEDGES
 10
332.268813348363
 20
-9.680252575400893
 30
0.0
 40
4.401611912520944
 41
4.401611912520944
  0
VERTEX
  5
1FE
  8
PROFILEEDGES
 10
332.8832694927963
 20
-14.75763707879046
 30
0.0
 40
4.401611912520944
 41
4.401611912520944
  0
SEQEND
  5
456
  8
PROFILEEDGES
  0
POLYLINE
  5
86
  8
PROFILEEDGES
 66
     1
 10
0.0
 20
0.0
 30
0.0
  0
VERTEX
  5
1FF
  8
PROFILEEDGES
 10
332.8832694927963
 20
-14.75763707879046
 30
0.0
 40
4.401611912520944
 41
4.401611912520944
  0
VERTEX
  5
200
  8
PROFILEEDGES
 10
334.684763755282
 20
-19.48900621904771
 30
0.0
 40
4.401611912520944
 41
4.401611912520944
  0
SEQEND
  5
457
  8
PROFILEEDGES
  0
POLYLINE
  5
87
  8
PROFILEEDGES
 66
     1
 10
0.0
 20
0.0
 30
0.0
  0
VERTEX
  5
201
  8
PROFILEEDGES
 10
334.684763755282
 20
-19.48900621904771
 30
0.0
 40
4.401611912520944
 41
4.401611912520944
  0
VERTEX
  5
202
  8
PROFILEEDGES
 10
337.5505272789397
 20
-23.55192500822276
 30
0.0
 40
4.401611912520944
 41
4.401611912520944
  0
SEQEND
  5
458
  8
PROFILEEDGES
  0
POLYLINE
  5
88
  8
PROFILEEDGES
 66
     1
 10
0.0
 20
0.0
 30
0.0
  0
VERTEX
  5
203
  8
PROFILEEDGES
 10
337.5505272789397
 20
-23.55192500822276
 30
0.0
 40
4.401611912520944
 41
4.401611912520944
  0
VERTEX
  5
204
  8
PROFILEEDGES
 10
341.2852630155343
 20
-26.66951224512185
 30
0.0
 40
4.401611912520944
 41
4.401611912520944
  0
SEQEND
  5
459
  8
PROFILEEDGES
  0
POLYLINE
  5
89
  8
PROFILEEDGES
 66
     1
 10
0.0
 20
0.0
 30
0.0
  0
VERTEX
  5
205
  8
PROFILEEDGES
 10
341.2852630155343
 20
-26.66951224512185
 30
0.0
 40
4.401611912520944
 41
4.401611912520944
  0
VERTEX
  5
206
  8
PROFILEEDGES
 10
345.6344548965559
 20
-28.62930951160975
 30
0.0
 40
4.401611912520944
 41
4.401611912520944
  0
SEQEND
  5
45A
  8
PROFILEEDGES
  0
POLYLINE
  5
8A
  8
PROFILEEDGES
 66
     1
 10
0.0
 20
0.0
 30
0.0
  0
VERTEX
  5
207
  8
PROFILEEDGES
 10
345.6344548965559
 20
-28.62930951160975
 30
0.0
 40
4.401611912520944
 41
4.401611912520944
  0
VERTEX
  5
208
  8
PROFILEEDGES
 10
350.3017126826949
 20
-29.29775986268809
 30
0.0
 40
4.401611912520944
 41
4.401611912520944
  0
SEQEND
  5
45B
  8
PROFILEEDGES
  0
POLYLINE
  5
8B
  8
PROFILEEDGES
 66
     1
 10
0.0
 20
0.0
 30
0.0
  0
VERTEX
  5
209
  8
PROFILEEDGES
 10
350.3017126826949
 20
-29.29775986268809
 30
0.0
 40
4.401611912520944
 41
4.401611912520944
  0
VERTEX
  5
20A
  8
PROFILEEDGES
 10
354.9689704688304
 20
-28.62930951160317
 30
0.0
 40
4.401611912520944
 41
4.401611912520944
  0
SEQEND
  5
45C
  8
PROFILEEDGES
  0
POLYLINE
  5
8C
  8
PROFILEEDGES
 66
     1
 10
0.0
 20
0.0
 30
0.0
  0
VERTEX
  5
20B
  8
PROFILEEDGES
 10
354.9689704688304
 20
-28.62930951160317
 30
0.0
 40
4.401611912520944
 41
4.401611912520944
  0
VERTEX
  5
20C
  8
PROFILEEDGES
 10
359.3181623498581
 20
-26.66951224511202
 30
0.0
 40
4.401611912520944
 41
4.401611912520944
  0
SEQEND
  5
45D
  8
PROFILEEDGES
  0
POLYLINE
  5
8D
  8
PROFILEEDGES
 66
     1
 10
0.0
 20
0.0
 30
0.0
  0
VERTEX
  5
20D
  8
PROFILEEDGES
 10
359.3181623498581
 20
-26.66951224511202
 30
0.0
 40
4.401611912520944
 41
4.401611912520944
  0
VERTEX
  5
20E
  8
PROFILEEDGES
 10
363.0528980864493
 20
-23.55192500820887
 30
0.0
 40
4.401611912520944
 41
4.401611912520944
  0
SEQEND
  5
45E
  8
PROFILEEDGES
  0
POLYLINE
  5
8E
  8
PROFILEEDGES
 66
     1
 10
0.0
 20
0.0
 30
0.0
  0
VERTEX
  5
20F
  8
PROFILEEDGES
 10
363.0528980864493
 20
-23.55192500820887
 30
0.0
 40
4.401611912520944
 41
4.401611912520944
  0
VERTEX
  5
210
  8
PROFILEEDGES
 10
365.9186616101026
 20
-19.48900621903145
 30
0.0
 40
4.401611912520944
 41
4.401611912520944
  0
SEQEND
  5
45F
  8
PROFILEEDGES
  0
POLYLINE
  5
8F
  8
PROFILEEDGES
 66
     1
 10
0.0
 20
0.0
 30
0.0
  0
VERTEX
  5
211
  8
PROFILEEDGES
 10
365.9186616101026
 20
-19.48900621903145
 30
0.0
 40
4.401611912520944
 41
4.401611912520944
  0
VERTEX
  5
212
  8
PROFILEEDGES
 10
367.7201558725887
 20
-14.75763707877148
 30
0.0
 40
4.401611912520944
 41
4.401611912520944
  0
SEQEND
  5
460
  8
PROFILEEDGES
  0
POLYLINE
  5
90
  8
PROFILEEDGES
 66
     1
 10
0.0
 20
0.0
 30
0.0
  0
VERTEX
  5
213
  8
PROFILEEDGES
 10
367.7201558725887
 20
-14.75763707877148
 30
0.0
 40
4.401611912520944
 41
4.401611912520944
  0
VERTEX
  5
214
  8
PROFILEEDGES
 10
368.3346120170079
 20
-9.68025257537976
 30
0.0
 40
4.401611912520944
 41
4.401611912520944
  0
SEQEND
  5
461
  8
PROFILEEDGES
  0
POLYLINE
  5
91
  8
PROFILEEDGES
 66
     1
 10
0.0
 20
0.0
 30
0.0
  0
VERTEX
  5
215
  8
PROFILEEDGES
 10
368.3346120170079
 20
-9.68025257537976
 30
0.0
 40
4.401611912520944
 41
4.401611912520944
  0
VERTEX
  5
216
  8
PROFILEEDGES
 10
367.7201558725804
 20
-4.602868071990935
 30
0.0
 40
4.401611912520944
 41
4.401611912520944
  0
SEQEND
  5
462
  8
PROFILEEDGES
  0
POLYLINE
  5
92
  8
PROFILEEDGES
 66
     1
 10
0.0
 20
0.0
 30
0.0
  0
VERTEX
  5
217
  8
PROFILEEDGES
 10
367.7201558725804
 20
-4.602868071990935
 30
0.0
 40
4.401611912520944
 41
4.401611912520944
  0
VERTEX
  5
218
  8
PROFILEEDGES
 10
365.9186616100946
 20
0.1285010682663126
 30
0.0
 40
4.401611912520944
 41
4.401611912520944
  0
SEQEND
  5
463
  8
PROFILEEDGES
  0
POLYLINE
  5
93
  8
PROFILEEDGES
 66
     1
 10
0.0
 20
0.0
 30
0.0
  0
VERTEX
  5
219
  8
PROFILEEDGES
 10
365.9186616100946
 20
0.1285010682663126
 30
0.0
 40
4.401611912520944
 41
4.401611912520944
  0
VERTEX
  5
21A
  8
PROFILEEDGES
 10
363.0528980864341
 20
4.191419857441365
 30
0.0
 40
4.401611912520944
 41
4.401611912520944
  0
SEQEND
  5
464
  8
PROFILEEDGES
  0
POLYLINE
  5
94
  8
PROFILEEDGES
 66
     1
 10
0.0
 20
0.0
 30
0.0
  0
VERTEX
  5
21B
  8
PROFILEEDGES
 10
363.0528980864341
 20
4.191419857441365
 30
0.0
 40
4.401611912520944
 41
4.401611912520944
  0
VERTEX
  5
21C
  8
PROFILEEDGES
 10
359.3181623498396
 20
7.309007094341204
 30
0.0
 40
4.401611912520944
 41
4.401611912520944
  0
SEQEND
  5
465
  8
PROFILEEDGES
  0
POLYLINE
  5
95
  8
PROFILEEDGES
 66
     1
 10
0.0
 20
0.0
 30
0.0
  0
VERTEX
  5
21D
  8
PROFILEEDGES
 10
359.3181623498396
 20
7.309007094341204
 30
0.0
 40
4.401611912520944
 41
4.401611912520944
  0
VERTEX
  5
21E
  8
PROFILEEDGES
 10
354.9689704688208
 20
9.268804360826122
 30
0.0
 40
4.401611912520944
 41
4.401611912520944
  0
SEQEND
  5
466
  8
PROFILEEDGES
  0
POLYLINE
  5
96
  8
PROFILEEDGES
 66
     1
 10
0.0
 20
0.0
 30
0.0
  0
VERTEX
  5
21F
  8
PROFILEEDGES
 10
354.9689704688208
 20
9.268804360826122
 30
0.0
 40
4.401611912520944
 41
4.401611912520944
  0
VERTEX
  5
220
  8
PROFILEEDGES
 10
350.3017126826763
 20
9.937254711906695
 30
0.0
 40
4.401611912520944
 41
4.401611912520944
  0
SEQEND
  5
467
  8
PROFILEEDGES
  0
POLYLINE
  5
97
  8
PROFILEEDGES
 66
     1
 10
0.0
 20
0.0
 30
0.0
  0
VERTEX
  5
221
  8
PROFILEEDGES
 10
350.3017126826763
 20
9.937254711906695
 30
0.0
 40
4.401611912520944
 41
4.401611912520944
  0
VERTEX
  5
222
  8
PROFILEEDGES
 10
345.6344548965352
 20
9.26880436082178
 30
0.0
 40
4.401611912520944
 41
4.401611912520944
  0
SEQEND
  5
468
  8
PROFILEEDGES
  0
POLYLINE
  5
98
  8
PROFILEEDGES
 66
     1
 10
0.0
 20
0.0
 30
0.0
  0
VERTEX
  5
223
  8
PROFILEEDGES
 10
345.6344548965352
 20
9.26880436082178
 30
0.0
 40
4.401611912520944
 41
4.401611912520944
  0
VERTEX
  5
224
  8
PROFILEEDGES
 10
341.2852630155131
 20
7.309007094329146
 30
0.0
 40
4.401611912520944
 41
4.401611912520944
  0
SEQEND
  5
469
  8
PROFILEEDGES
  0
POLYLINE
  5
99
  8
PROFILEEDGES
 66
     1
 10
0.0
 20
0.0
 30
0.0
  0
VERTEX
  5
225
  8
PROFILEEDGES
 10
341.2852630155131
 20
7.309007094329146
 30
0.0
 40
4.401611912520944
 41
4.401611912520944
  0
VERTEX
  5
226
  8
PROFILEEDGES
 10
337.5505272789247
 20
4.191419857427467
 30
0.0
 40
4.401611912520944
 41
4.401611912520944
  0
SEQEND
  5
46A
  8
PROFILEEDGES
  0
POLYLINE
  5
9A
  8
PROFILEEDGES
 66
     1
 10
0.0
 20
0.0
 30
0.0
  0
VERTEX
  5
227
  8
PROFILEEDGES
 10
337.5505272789247
 20
4.191419857427467
 30
0.0
 40
4.401611912520944
 41
4.401611912520944
  0
VERTEX
  5
228
  8
PROFILEEDGES
 10
334.6847637552659
 20
0.1285010682485581
 30
0.0
 40
4.401611912520944
 41
4.401611912520944
  0
SEQEND
  5
46B
  8
PROFILEEDGES
  0
POLYLINE
  5
9B
  8
PROFILEEDGES
 66
     1
 10
0.0
 20
0.0
 30
0.0
  0
VERTEX
  5
229
  8
PROFILEEDGES
 10
341.2852630150847
 20
798.7883937226981
 30
0.0
 40
4.401611912520944
 41
4.401611912520944
  0
VERTEX
  5
22A
  8
PROFILEEDGES
 10
345.634454896109
 20
796.8285964562132
 30
0.0
 40
4.401611912520944
 41
4.401611912520944
  0
SEQEND
  5
46C
  8
PROFILEEDGES
  0
POLYLINE
  5
9C
  8
PROFILEEDGES
 66
     1
 10
0.0
 20
0.0
 30
0.0
  0
VERTEX
  5
22B
  8
PROFILEEDGES
 10
345.634454896109
 20
796.8285964562132
 30
0.0
 40
4.401611912520944
 41
4.401611912520944
  0
VERTEX
  5
22C
  8
PROFILEEDGES
 10
350.3017126822481
 20
796.1601461051309
 30
0.0
 40
4.401611912520944
 41
4.401611912520944
  0
SEQEND
  5
46D
  8
PROFILEEDGES
  0
POLYLINE
  5
9D
  8
PROFILEEDGES
 66
     1
 10
0.0
 20
0.0
 30
0.0
  0
VERTEX
  5
22D
  8
PROFILEEDGES
 10
350.3017126822481
 20
796.1601461051309
 30
0.0
 40
4.401611912520944
 41
4.401611912520944
  0
VERTEX
  5
22E
  8
PROFILEEDGES
 10
354.968970468389
 20
796.8285964562173
 30
0.0
 40
4.401611912520944
 41
4.401611912520944
  0
SEQEND
  5
46E
  8
PROFILEEDGES
  0
POLYLINE
  5
9E
  8
PROFILEEDGES
 66
     1
 10
0.0
 20
0.0
 30
0.0
  0
VERTEX
  5
22F
  8
PROFILEEDGES
 10
354.968970468389
 20
796.8285964562173
 30
0.0
 40
4.401611912520944
 41
4.401611912520944
  0
VERTEX
  5
230
  8
PROFILEEDGES
 10
359.3181623494058
 20
798.7883937227085
 30
0.0
 40
4.401611912520944
 41
4.401611912520944
  0
SEQEND
  5
46F
  8
PROFILEEDGES
  0
POLYLINE
  5
9F
  8
PROFILEEDGES
 66
     1
 10
0.0
 20
0.0
 30
0.0
  0
VERTEX
  5
231
  8
PROFILEEDGES
 10
359.3181623494058
 20
798.7883937227085
 30
0.0
 40
4.401611912520944
 41
4.401611912520944
  0
VERTEX
  5
232
  8
PROFILEEDGES
 10
363.0528980860051
 20
801.9059809596108
 30
0.0
 40
4.401611912520944
 41
4.401611912520944
  0
SEQEND
  5
470
  8
PROFILEEDGES
  0
POLYLINE
  5
A0
  8
PROFILEEDGES
 66
     1
 10
0.0
 20
0.0
 30
0.0
  0
VERTEX
  5
233
  8
PROFILEEDGES
 10
363.0528980860051
 20
801.9059809596108
 30
0.0
 40
4.401611912520944
 41
4.401611912520944
  0
VERTEX
  5
234
  8
PROFILEEDGES
 10
365.9186616096557
 20
805.9688997487884
 30
0.0
 40
4.401611912520944
 41
4.401611912520944
  0
SEQEND
  5
471
  8
PROFILEEDGES
  0
POLYLINE
  5
A1
  8
PROFILEEDGES
 66
     1
 10
0.0
 20
0.0
 30
0.0
  0
VERTEX
  5
235
  8
PROFILEEDGES
 10
365.9186616096557
 20
805.9688997487884
 30
0.0
 40
4.401611912520944
 41
4.401611912520944
  0
VERTEX
  5
236
  8
PROFILEEDGES
 10
367.7201558721281
 20
810.700268889049
 30
0.0
 40
4.401611912520944
 41
4.401611912520944
  0
SEQEND
  5
472
  8
PROFILEEDGES
  0
POLYLINE
  5
A2
  8
PROFILEEDGES
 66
     1
 10
0.0
 20
0.0
 30
0.0
  0
VERTEX
  5
237
  8
PROFILEEDGES
 10
367.7201558721281
 20
810.700268889049
 30
0.0
 40
4.401611912520944
 41
4.401611912520944
  0
VERTEX
  5
238
  8
PROFILEEDGES
 10
368.334612016561
 20
815.7776533924385
 30
0.0
 40
4.401611912520944
 41
4.401611912520944
  0
SEQEND
  5
473
  8
PROFILEEDGES
  0
POLYLINE
  5
A3
  8
PROFILEEDGES
 66
     1
 10
0.0
 20
0.0
 30
0.0
  0
VERTEX
  5
239
  8
PROFILEEDGES
 10
368.334612016561
 20
815.7776533924385
 30
0.0
 40
4.401611912520944
 41
4.401611912520944
  0
VERTEX
  5
23A
  8
PROFILEEDGES
 10
367.7201558721335
 20
820.8550378958288
 30
0.0
 40
4.401611912520944
 41
4.401611912520944
  0
SEQEND
  5
474
  8
PROFILEEDGES
  0
POLYLINE
  5
A4
  8
PROFILEEDGES
 66
     1
 10
0.0
 20
0.0
 30
0.0
  0
VERTEX
  5
23B
  8
PROFILEEDGES
 10
367.7201558721335
 20
820.8550378958288
 30
0.0
 40
4.401611912520944
 41
4.401611912520944
  0
VERTEX
  5
23C
  8
PROFILEEDGES
 10
365.9186616096423
 20
825.5864070360868
 30
0.0
 40
4.401611912520944
 41
4.401611912520944
  0
SEQEND
  5
475
  8
PROFILEEDGES
  0
POLYLINE
  5
A5
  8
PROFILEEDGES
 66
     1
 10
0.0
 20
0.0
 30
0.0
  0
VERTEX
  5
23D
  8
PROFILEEDGES
 10
365.9186616096423
 20
825.5864070360868
 30
0.0
 40
4.401611912520944
 41
4.401611912520944
  0
VERTEX
  5
23E
  8
PROFILEEDGES
 10
363.0528980859901
 20
829.6493258252605
 30
0.0
 40
4.401611912520944
 41
4.401611912520944
  0
SEQEND
  5
476
  8
PROFILEEDGES
  0
POLYLINE
  5
A6
  8
PROFILEEDGES
 66
     1
 10
0.0
 20
0.0
 30
0.0
  0
VERTEX
  5
23F
  8
PROFILEEDGES
 10
363.0528980859901
 20
829.6493258252605
 30
0.0
 40
4.401611912520944
 41
4.401611912520944
  0
VERTEX
  5
240
  8
PROFILEEDGES
 10
359.31816234939
 20
832.7669130621596
 30
0.0
 40
4.401611912520944
 41
4.401611912520944
  0
SEQEND
  5
477
  8
PROFILEEDGES
  0
POLYLINE
  5
A7
  8
PROFILEEDGES
 66
     1
 10
0.0
 20
0.0
 30
0.0
  0
VERTEX
  5
241
  8
PROFILEEDGES
 10
359.31816234939
 20
832.7669130621596
 30
0.0
 40
4.401611912520944
 41
4.401611912520944
  0
VERTEX
  5
242
  8
PROFILEEDGES
 10
354.9689704683685
 20
834.7267103286467
 30
0.0
 40
4.401611912520944
 41
4.401611912520944
  0
SEQEND
  5
478
  8
PROFILEEDGES
  0
POLYLINE
  5
A8
  8
PROFILEEDGES
 66
     1
 10
0.0
 20
0.0
 30
0.0
  0
VERTEX
  5
243
  8
PROFILEEDGES
 10
354.9689704683685
 20
834.7267103286467
 30
0.0
 40
4.401611912520944
 41
4.401611912520944
  0
VERTEX
  5
244
  8
PROFILEEDGES
 10
350.3017126822322
 20
835.3951606797267
 30
0.0
 40
4.401611912520944
 41
4.401611912520944
  0
SEQEND
  5
479
  8
PROFILEEDGES
  0
POLYLINE
  5
A9
  8
PROFILEEDGES
 66
     1
 10
0.0
 20
0.0
 30
0.0
  0
VERTEX
  5
245
  8
PROFILEEDGES
 10
350.3017126822322
 20
835.3951606797267
 30
0.0
 40
4.401611912520944
 41
4.401611912520944
  0
VERTEX
  5
246
  8
PROFILEEDGES
 10
345.6344548960857
 20
834.7267103286417
 30
0.0
 40
4.401611912520944
 41
4.401611912520944
  0
SEQEND
  5
47A
  8
PROFILEEDGES
  0
POLYLINE
  5
AA
  8
PROFILEEDGES
 66
     1
 10
0.0
 20
0.0
 30
0.0
  0
VERTEX
  5
247
  8
PROFILEEDGES
 10
345.6344548960857
 20
834.7267103286417
 30
0.0
 40
4.401611912520944
 41
4.401611912520944
  0
VERTEX
  5
248
  8
PROFILEEDGES
 10
341.2852630150635
 20
832.7669130621529
 30
0.0
 40
4.401611912520944
 41
4.401611912520944
  0
SEQEND
  5
47B
  8
PROFILEEDGES
  0
POLYLINE
  5
AB
  8
PROFILEEDGES
 66
     1
 10
0.0
 20
0.0
 30
0.0
  0
VERTEX
  5
249
  8
PROFILEEDGES
 10
341.2852630150635
 20
832.7669130621529
 30
0.0
 40
4.401611912520944
 41
4.401611912520944
  0
VERTEX
  5
24A
  8
PROFILEEDGES
 10
337.5505272784806
 20
829.6493258252466
 30
0.0
 40
4.401611912520944
 41
4.401611912520944
  0
SEQEND
  5
47C
  8
PROFILEEDGES
  0
POLYLINE
  5
AC
  8
PROFILEEDGES
 66
     1
 10
0.0
 20
0.0
 30
0.0
  0
VERTEX
  5
24B
  8
PROFILEEDGES
 10
337.5505272784806
 20
829.6493258252466
 30
0.0
 40
4.401611912520944
 41
4.401611912520944
  0
VERTEX
  5
24C
  8
PROFILEEDGES
 10
334.6847637548191
 20
825.5864070360692
 30
0.0
 40
4.401611912520944
 41
4.401611912520944
  0
SEQEND
  5
47D
  8
PROFILEEDGES
  0
POLYLINE
  5
AD
  8
PROFILEEDGES
 66
     1
 10
0.0
 20
0.0
 30
0.0
  0
VERTEX
  5
24D
  8
PROFILEEDGES
 10
334.6847637548191
 20
825.5864070360692
 30
0.0
 40
4.401611912520944
 41
4.401611912520944
  0
VERTEX
  5
24E
  8
PROFILEEDGES
 10
332.8832694923385
 20
820.8550378958122
 30
0.0
 40
4.401611912520944
 41
4.401611912520944
  0
SEQEND
  5
47E
  8
PROFILEEDGES
  0
POLYLINE
  5
AE
  8
PROFILEEDGES
 66
     1
 10
0.0
 20
0.0
 30
0.0
  0
VERTEX
  5
24F
  8
PROFILEEDGES
 10
332.8832694923385
 20
820.8550378958122
 30
0.0
 40
4.401611912520944
 41
4.401611912520944
  0
VERTEX
  5
250
  8
PROFILEEDGES
 10
332.2688133479135
 20
815.777653392421
 30
0.0
 40
4.401611912520944
 41
4.401611912520944
  0
SEQEND
  5
47F
  8
PROFILEEDGES
  0
POLYLINE
  5
AF
  8
PROFILEEDGES
 66
     1
 10
0.0
 20
0.0
 30
0.0
  0
VERTEX
  5
251
  8
PROFILEEDGES
 10
332.2688133479135
 20
815.777653392421
 30
0.0
 40
4.401611912520944
 41
4.401611912520944
  0
VERTEX
  5
252
  8
PROFILEEDGES
 10
332.883269492344
 20
810.70026888903
 30
0.0
 40
4.401611912520944
 41
4.401611912520944
  0
SEQEND
  5
480
  8
PROFILEEDGES
  0
POLYLINE
  5
B0
  8
PROFILEEDGES
 66
     1
 10
0.0
 20
0.0
 30
0.0
  0
VERTEX
  5
253
  8
PROFILEEDGES
 10
332.883269492344
 20
810.70026888903
 30
0.0
 40
4.401611912520944
 41
4.401611912520944
  0
VERTEX
  5
254
  8
PROFILEEDGES
 10
334.684763754827
 20
805.9688997487714
 30
0.0
 40
4.401611912520944
 41
4.401611912520944
  0
SEQEND
  5
481
  8
PROFILEEDGES
  0
POLYLINE
  5
B1
  8
PROFILEEDGES
 66
     1
 10
0.0
 20
0.0
 30
0.0
  0
VERTEX
  5
255
  8
PROFILEEDGES
 10
334.684763754827
 20
805.9688997487714
 30
0.0
 40
4.401611912520944
 41
4.401611912520944
  0
VERTEX
  5
256
  8
PROFILEEDGES
 10
337.5505272784957
 20
801.9059809595968
 30
0.0
 40
4.401611912520944
 41
4.401611912520944
  0
SEQEND
  5
482
  8
PROFILEEDGES
  0
POLYLINE
  5
B2
  8
PROFILEEDGES
 66
     1
 10
0.0
 20
0.0
 30
0.0
  0
VERTEX
  5
257
  8
PROFILEEDGES
 10
337.5505272784957
 20
801.9059809595968
 30
0.0
 40
4.401611912520944
 41
4.401611912520944
  0
VERTEX
  5
258
  8
PROFILEEDGES
 10
341.2852630150847
 20
798.7883937226981
 30
0.0
 40
4.401611912520944
 41
4.401611912520944
  0
SEQEND
  5
483
  8
PROFILEEDGES
  0
POLYLINE
  5
B3
  8
PROFILEEDGES
 66
     1
 10
0.0
 20
0.0
 30
0.0
  0
VERTEX
  5
259
  8
PROFILEEDGES
 10
-395.7284855546815
 20
829.6493258248463
 30
0.0
 40
4.401611912520944
 41
4.401611912520944
  0
VERTEX
  5
25A
  8
PROFILEEDGES
 10
-399.463221291276
 20
832.7669130617462
 30
0.0
 40
4.401611912520944
 41
4.401611912520944
  0
SEQEND
  5
484
  8
PROFILEEDGES
  0
POLYLINE
  5
B4
  8
PROFILEEDGES
 66
     1
 10
0.0
 20
0.0
 30
0.0
  0
VERTEX
  5
25B
  8
PROFILEEDGES
 10
-399.463221291276
 20
832.7669130617462
 30
0.0
 40
4.401611912520944
 41
4.401611912520944
  0
VERTEX
  5
25C
  8
PROFILEEDGES
 10
-403.8124131723031
 20
834.7267103282335
 30
0.0
 40
4.401611912520944
 41
4.401611912520944
  0
SEQEND
  5
485
  8
PROFILEEDGES
  0
POLYLINE
  5
B5
  8
PROFILEEDGES
 66
     1
 10
0.0
 20
0.0
 30
0.0
  0
VERTEX
  5
25D
  8
PROFILEEDGES
 10
-403.8124131723031
 20
834.7267103282335
 30
0.0
 40
4.401611912520944
 41
4.401611912520944
  0
VERTEX
  5
25E
  8
PROFILEEDGES
 10
-408.4796709584394
 20
835.3951606793141
 30
0.0
 40
4.401611912520944
 41
4.401611912520944
  0
SEQEND
  5
486
  8
PROFILEEDGES
  0
POLYLINE
  5
B6
  8
PROFILEEDGES
 66
     1
 10
0.0
 20
0.0
 30
0.0
  0
VERTEX
  5
25F
  8
PROFILEEDGES
 10
-408.4796709584394
 20
835.3951606793141
 30
0.0
 40
4.401611912520944
 41
4.401611912520944
  0
VERTEX
  5
260
  8
PROFILEEDGES
 10
-413.1469287445776
 20
834.7267103282306
 30
0.0
 40
4.401611912520944
 41
4.401611912520944
  0
SEQEND
  5
487
  8
PROFILEEDGES
  0
POLYLINE
  5
B7
  8
PROFILEEDGES
 66
     1
 10
0.0
 20
0.0
 30
0.0
  0
VERTEX
  5
261
  8
PROFILEEDGES
 10
-413.1469287445776
 20
834.7267103282306
 30
0.0
 40
4.401611912520944
 41
4.401611912520944
  0
VERTEX
  5
262
  8
PROFILEEDGES
 10
-417.4961206255998
 20
832.7669130617378
 30
0.0
 40
4.401611912520944
 41
4.401611912520944
  0
SEQEND
  5
488
  8
PROFILEEDGES
  0
POLYLINE
  5
B8
  8
PROFILEEDGES
 66
     1
 10
0.0
 20
0.0
 30
0.0
  0
VERTEX
  5
263
  8
PROFILEEDGES
 10
-417.4961206255998
 20
832.7669130617378
 30
0.0
 40
4.401611912520944
 41
4.401611912520944
  0
VERTEX
  5
264
  8
PROFILEEDGES
 10
-421.2308563621937
 20
829.6493258248347
 30
0.0
 40
4.401611912520944
 41
4.401611912520944
  0
SEQEND
  5
489
  8
PROFILEEDGES
  0
POLYLINE
  5
B9
  8
PROFILEEDGES
 66
     1
 10
0.0
 20
0.0
 30
0.0
  0
VERTEX
  5
265
  8
PROFILEEDGES
 10
-421.2308563621937
 20
829.6493258248347
 30
0.0
 40
4.401611912520944
 41
4.401611912520944
  0
VERTEX
  5
266
  8
PROFILEEDGES
 10
-424.096619885847
 20
825.5864070356573
 30
0.0
 40
4.401611912520944
 41
4.401611912520944
  0
SEQEND
  5
48A
  8
PROFILEEDGES
  0
POLYLINE
  5
BA
  8
PROFILEEDGES
 66
     1
 10
0.0
 20
0.0
 30
0.0
  0
VERTEX
  5
267
  8
PROFILEEDGES
 10
-424.096619885847
 20
825.5864070356573
 30
0.0
 40
4.401611912520944
 41
4.401611912520944
  0
VERTEX
  5
268
  8
PROFILEEDGES
 10
-425.8981141483248
 20
820.8550378953981
 30
0.0
 40
4.401611912520944
 41
4.401611912520944
  0
SEQEND
  5
48B
  8
PROFILEEDGES
  0
POLYLINE
  5
BB
  8
PROFILEEDGES
 66
     1
 10
0.0
 20
0.0
 30
0.0
  0
VERTEX
  5
269
  8
PROFILEEDGES
 10
-425.8981141483248
 20
820.8550378953981
 30
0.0
 40
4.401611912520944
 41
4.401611912520944
  0
VERTEX
  5
26A
  8
PROFILEEDGES
 10
-426.5125702927552
 20
815.7776533920071
 30
0.0
 40
4.401611912520944
 41
4.401611912520944
  0
SEQEND
  5
48C
  8
PROFILEEDGES
  0
POLYLINE
  5
BC
  8
PROFILEEDGES
 66
     1
 10
0.0
 20
0.0
 30
0.0
  0
VERTEX
  5
26B
  8
PROFILEEDGES
 10
-426.5125702927552
 20
815.7776533920071
 30
0.0
 40
4.401611912520944
 41
4.401611912520944
  0
VERTEX
  5
26C
  8
PROFILEEDGES
 10
-425.898114148322
 20
810.7002688886159
 30
0.0
 40
4.401611912520944
 41
4.401611912520944
  0
SEQEND
  5
48D
  8
PROFILEEDGES
  0
POLYLINE
  5
BD
  8
PROFILEEDGES
 66
     1
 10
0.0
 20
0.0
 30
0.0
  0
VERTEX
  5
26D
  8
PROFILEEDGES
 10
-425.898114148322
 20
810.7002688886159
 30
0.0
 40
4.401611912520944
 41
4.401611912520944
  0
VERTEX
  5
26E
  8
PROFILEEDGES
 10
-424.0966198858363
 20
805.9688997483594
 30
0.0
 40
4.401611912520944
 41
4.401611912520944
  0
SEQEND
  5
48E
  8
PROFILEEDGES
  0
POLYLINE
  5
BE
  8
PROFILEEDGES
 66
     1
 10
0.0
 20
0.0
 30
0.0
  0
VERTEX
  5
26F
  8
PROFILEEDGES
 10
-424.0966198858363
 20
805.9688997483594
 30
0.0
 40
4.401611912520944
 41
4.401611912520944
  0
VERTEX
  5
270
  8
PROFILEEDGES
 10
-421.2308563621758
 20
801.9059809591836
 30
0.0
 40
4.401611912520944
 41
4.401611912520944
  0
SEQEND
  5
48F
  8
PROFILEEDGES
  0
POLYLINE
  5
BF
  8
PROFILEEDGES
 66
     1
 10
0.0
 20
0.0
 30
0.0
  0
VERTEX
  5
271
  8
PROFILEEDGES
 10
-421.2308563621758
 20
801.9059809591836
 30
0.0
 40
4.401611912520944
 41
4.401611912520944
  0
VERTEX
  5
272
  8
PROFILEEDGES
 10
-417.4961206255868
 20
798.7883937222853
 30
0.0
 40
4.401611912520944
 41
4.401611912520944
  0
SEQEND
  5
490
  8
PROFILEEDGES
  0
POLYLINE
  5
C0
  8
PROFILEEDGES
 66
     1
 10
0.0
 20
0.0
 30
0.0
  0
VERTEX
  5
273
  8
PROFILEEDGES
 10
-417.4961206255868
 20
798.7883937222853
 30
0.0
 40
4.401611912520944
 41
4.401611912520944
  0
VERTEX
  5
274
  8
PROFILEEDGES
 10
-413.1469287445598
 20
796.8285964557989
 30
0.0
 40
4.401611912520944
 41
4.401611912520944
  0
SEQEND
  5
491
  8
PROFILEEDGES
  0
POLYLINE
  5
C1
  8
PROFILEEDGES
 66
     1
 10
0.0
 20
0.0
 30
0.0
  0
VERTEX
  5
275
  8
PROFILEEDGES
 10
-413.1469287445598
 20
796.8285964557989
 30
0.0
 40
4.401611912520944
 41
4.401611912520944
  0
VERTEX
  5
276
  8
PROFILEEDGES
 10
-408.479670958418
 20
796.1601461047176
 30
0.0
 40
4.401611912520944
 41
4.401611912520944
  0
SEQEND
  5
492
  8
PROFILEEDGES
  0
POLYLINE
  5
C2
  8
PROFILEEDGES
 66
     1
 10
0.0
 20
0.0
 30
0.0
  0
VERTEX
  5
277
  8
PROFILEEDGES
 10
-408.479670958418
 20
796.1601461047176
 30
0.0
 40
4.401611912520944
 41
4.401611912520944
  0
VERTEX
  5
278
  8
PROFILEEDGES
 10
-403.8124131722797
 20
796.828596455804
 30
0.0
 40
4.401611912520944
 41
4.401611912520944
  0
SEQEND
  5
493
  8
PROFILEEDGES
  0
POLYLINE
  5
C3
  8
PROFILEEDGES
 66
     1
 10
0.0
 20
0.0
 30
0.0
  0
VERTEX
  5
279
  8
PROFILEEDGES
 10
-403.8124131722797
 20
796.828596455804
 30
0.0
 40
4.401611912520944
 41
4.401611912520944
  0
VERTEX
  5
27A
  8
PROFILEEDGES
 10
-399.4632212912575
 20
798.7883937222945
 30
0.0
 40
4.401611912520944
 41
4.401611912520944
  0
SEQEND
  5
494
  8
PROFILEEDGES
  0
POLYLINE
  5
C4
  8
PROFILEEDGES
 66
     1
 10
0.0
 20
0.0
 30
0.0
  0
VERTEX
  5
27B
  8
PROFILEEDGES
 10
-399.4632212912575
 20
798.7883937222945
 30
0.0
 40
4.401611912520944
 41
4.401611912520944
  0
VERTEX
  5
27C
  8
PROFILEEDGES
 10
-395.7284855546663
 20
801.9059809591984
 30
0.0
 40
4.401611912520944
 41
4.401611912520944
  0
SEQEND
  5
495
  8
PROFILEEDGES
  0
POLYLINE
  5
C5
  8
PROFILEEDGES
 66
     1
 10
0.0
 20
0.0
 30
0.0
  0
VERTEX
  5
27D
  8
PROFILEEDGES
 10
-395.7284855546663
 20
801.9059809591984
 30
0.0
 40
4.401611912520944
 41
4.401611912520944
  0
VERTEX
  5
27E
  8
PROFILEEDGES
 10
-392.8627220310076
 20
805.9688997483759
 30
0.0
 40
4.401611912520944
 41
4.401611912520944
  0
SEQEND
  5
496
  8
PROFILEEDGES
  0
POLYLINE
  5
C6
  8
PROFILEEDGES
 66
     1
 10
0.0
 20
0.0
 30
0.0
  0
VERTEX
  5
27F
  8
PROFILEEDGES
 10
-392.8627220310076
 20
805.9688997483759
 30
0.0
 40
4.401611912520944
 41
4.401611912520944
  0
VERTEX
  5
280
  8
PROFILEEDGES
 10
-391.0612277685353
 20
810.7002688886371
 30
0.0
 40
4.401611912520944
 41
4.401611912520944
  0
SEQEND
  5
497
  8
PROFILEEDGES
  0
POLYLINE
  5
C7
  8
PROFILEEDGES
 66
     1
 10
0.0
 20
0.0
 30
0.0
  0
VERTEX
  5
281
  8
PROFILEEDGES
 10
-391.0612277685353
 20
810.7002688886371
 30
0.0
 40
4.401611912520944
 41
4.401611912520944
  0
VERTEX
  5
282
  8
PROFILEEDGES
 10
-390.4467716241076
 20
815.7776533920253
 30
0.0
 40
4.401611912520944
 41
4.401611912520944
  0
SEQEND
  5
498
  8
PROFILEEDGES
  0
POLYLINE
  5
C8
  8
PROFILEEDGES
 66
     1
 10
0.0
 20
0.0
 30
0.0
  0
VERTEX
  5
283
  8
PROFILEEDGES
 10
-390.4467716241076
 20
815.7776533920253
 30
0.0
 40
4.401611912520944
 41
4.401611912520944
  0
VERTEX
  5
284
  8
PROFILEEDGES
 10
-391.0612277685381
 20
820.8550378954155
 30
0.0
 40
4.401611912520944
 41
4.401611912520944
  0
SEQEND
  5
499
  8
PROFILEEDGES
  0
POLYLINE
  5
C9
  8
PROFILEEDGES
 66
     1
 10
0.0
 20
0.0
 30
0.0
  0
VERTEX
  5
285
  8
PROFILEEDGES
 10
-391.0612277685381
 20
820.8550378954155
 30
0.0
 40
4.401611912520944
 41
4.401611912520944
  0
VERTEX
  5
286
  8
PROFILEEDGES
 10
-392.8627220310211
 20
825.5864070356752
 30
0.0
 40
4.401611912520944
 41
4.401611912520944
  0
SEQEND
  5
49A
  8
PROFILEEDGES
  0
POLYLINE
  5
CA
  8
PROFILEEDGES
 66
     1
 10
0.0
 20
0.0
 30
0.0
  0
VERTEX
  5
287
  8
PROFILEEDGES
 10
-392.8627220310211
 20
825.5864070356752
 30
0.0
 40
4.401611912520944
 41
4.401611912520944
  0
VERTEX
  5
288
  8
PROFILEEDGES
 10
-395.7284855546815
 20
829.6493258248463
 30
0.0
 40
4.401611912520944
 41
4.401611912520944
  0
SEQEND
  5
49B
  8
PROFILEEDGES
  0
POLYLINE
  5
CB
  8
PROFILEEDGES
 66
     1
 10
0.0
 20
0.0
 30
0.0
  0
VERTEX
  5
289
  8
PROFILEEDGES
 10
-409.3832505579519
 20
-55.67529959190113
 30
0.0
 40
4.401611912520944
 41
4.401611912520944
  0
VERTEX
  5
28A
  8
PROFILEEDGES
 10
356.3911062966056
 20
-55.67529959148398
 30
0.0
 40
4.401611912520944
 41
4.401611912520944
  0
SEQEND
  5
49C
  8
PROFILEEDGES
  0
POLYLINE
  5
CC
  8
PROFILEEDGES
 66
     1
 10
0.0
 20
0.0
 30
0.0
  0
VERTEX
  5
28B
  8
PROFILEEDGES
 10
-409.3832505579519
 20
-55.67529959190113
 30
0.0
 40
4.401611912520944
 41
4.401611912520944
  0
VERTEX
  5
28C
  8
PROFILEEDGES
 10
-414.6752910909919
 20
-54.9847324069952
 30
0.0
 40
4.401611912520944
 41
4.401611912520944
  0
SEQEND
  5
49D
  8
PROFILEEDGES
  0
POLYLINE
  5
CD
  8
PROFILEEDGES
 66
     1
 10
0.0
 20
0.0
 30
0.0
  0
VERTEX
  5
28D
  8
PROFILEEDGES
 10
-414.6752910909919
 20
-54.9847324069952
 30
0.0
 40
4.401611912520944
 41
4.401611912520944
  0
VERTEX
  5
28E
  8
PROFILEEDGES
 10
-419.8518972234334
 20
-53.60377786462959
 30
0.0
 40
4.401611912520944
 41
4.401611912520944
  0
SEQEND
  5
49E
  8
PROFILEEDGES
  0
POLYLINE
  5
CE
  8
PROFILEEDGES
 66
     1
 10
0.0
 20
0.0
 30
0.0
  0
VERTEX
  5
28F
  8
PROFILEEDGES
 10
-419.8518972234334
 20
-53.60377786462959
 30
0.0
 40
4.401611912520944
 41
4.401611912520944
  0
VERTEX
  5
290
  8
PROFILEEDGES
 10
-424.8372530912631
 20
-51.55266123578313
 30
0.0
 40
4.401611912520944
 41
4.401611912520944
  0
SEQEND
  5
49F
  8
PROFILEEDGES
  0
POLYLINE
  5
CF
  8
PROFILEEDGES
 66
     1
 10
0.0
 20
0.0
 30
0.0
  0
VERTEX
  5
291
  8
PROFILEEDGES
 10
-424.8372530912631
 20
-51.55266123578313
 30
0.0
 40
4.401611912520944
 41
4.401611912520944
  0
VERTEX
  5
292
  8
PROFILEEDGES
 10
-429.558343855657
 20
-48.86142289351248
 30
0.0
 40
4.401611912520944
 41
4.401611912520944
  0
SEQEND
  5
4A0
  8
PROFILEEDGES
  0
POLYLINE
  5
D0
  8
PROFILEEDGES
 66
     1
 10
0.0
 20
0.0
 30
0.0
  0
VERTEX
  5
293
  8
PROFILEEDGES
 10
-429.558343855657
 20
-48.86142289351248
 30
0.0
 40
4.401611912520944
 41
4.401611912520944
  0
VERTEX
  5
294
  8
PROFILEEDGES
 10
-433.9460250682698
 20
-45.56947834576264
 30
0.0
 40
4.401611912520944
 41
4.401611912520944
  0
SEQEND
  5
4A1
  8
PROFILEEDGES
  0
POLYLINE
  5
D1
  8
PROFILEEDGES
 66
     1
 10
0.0
 20
0.0
 30
0.0
  0
VERTEX
  5
295
  8
PROFILEEDGES
 10
-433.9460250682698
 20
-45.56947834576264
 30
0.0
 40
4.401611912520944
 41
4.401611912520944
  0
VERTEX
  5
296
  8
PROFILEEDGES
 10
-437.9360353513432
 20
-41.72504096124874
 30
0.0
 40
4.401611912520944
 41
4.401611912520944
  0
SEQEND
  5
4A2
  8
PROFILEEDGES
  0
POLYLINE
  5
D2
  8
PROFILEEDGES
 66
     1
 10
0.0
 20
0.0
 30
0.0
  0
VERTEX
  5
297
  8
PROFILEEDGES
 10
-437.9360353513432
 20
-41.72504096124874
 30
0.0
 40
4.401611912520944
 41
4.401611912520944
  0
VERTEX
  5
298
  8
PROFILEEDGES
 10
-441.4699375610936
 20
-37.38441584305178
 30
0.0
 40
4.401611912520944
 41
4.401611912520944
  0
SEQEND
  5
4A3
  8
PROFILEEDGES
  0
POLYLINE
  5
D3
  8
PROFILEEDGES
 66
     1
 10
0.0
 20
0.0
 30
0.0
  0
VERTEX
  5
299
  8
PROFILEEDGES
 10
-441.4699375610936
 20
-37.38441584305178
 30
0.0
 40
4.401611912520944
 41
4.401611912520944
  0
VERTEX
  5
29A
  8
PROFILEEDGES
 10
-444.4959746500361
 20
-32.61117519180415
 30
0.0
 40
4.401611912520944
 41
4.401611912520944
  0
SEQEND
  5
4A4
  8
PROFILEEDGES
  0
POLYLINE
  5
D4
  8
PROFILEEDGES
 66
     1
 10
0.0
 20
0.0
 30
0.0
  0
VERTEX
  5
29B
  8
PROFILEEDGES
 10
-444.4959746500361
 20
-32.61117519180415
 30
0.0
 40
4.401611912520944
 41
4.401611912520944
  0
VERTEX
  5
29C
  8
PROFILEEDGES
 10
-446.9698276936668
 20
-27.4752272359437
 30
0.0
 40
4.401611912520944
 41
4.401611912520944
  0
SEQEND
  5
4A5
  8
PROFILEEDGES
  0
POLYLINE
  5
D5
  8
PROFILEEDGES
 66
     1
 10
0.0
 20
0.0
 30
0.0
  0
VERTEX
  5
29D
  8
PROFILEEDGES
 10
-446.9698276936668
 20
-27.4752272359437
 30
0.0
 40
4.401611912520944
 41
4.401611912520944
  0
VERTEX
  5
29E
  8
PROFILEEDGES
 10
-448.8552649793328
 20
-22.05179236539501
 30
0.0
 40
4.401611912520944
 41
4.401611912520944
  0
SEQEND
  5
4A6
  8
PROFILEEDGES
  0
POLYLINE
  5
D6
  8
PROFILEEDGES
 66
     1
 10
0.0
 20
0.0
 30
0.0
  0
VERTEX
  5
29F
  8
PROFILEEDGES
 10
-448.8552649793328
 20
-22.05179236539501
 30
0.0
 40
4.401611912520944
 41
4.401611912520944
  0
VERTEX
  5
2A0
  8
PROFILEEDGES
 10
-450.1246726509279
 20
-16.42030146402969
 30
0.0
 40
4.401611912520944
 41
4.401611912520944
  0
SEQEND
  5
4A7
  8
PROFILEEDGES
  0
POLYLINE
  5
D7
  8
PROFILEEDGES
 66
     1
 10
0.0
 20
0.0
 30
0.0
  0
VERTEX
  5
2A1
  8
PROFILEEDGES
 10
-450.1246726509279
 20
-16.42030146402969
 30
0.0
 40
4.401611912520944
 41
4.401611912520944
  0
VERTEX
  5
2A2
  8
PROFILEEDGES
 10
-450.7594591376569
 20
-10.66323257583773
 30
0.0
 40
4.401611912520944
 41
4.401611912520944
  0
SEQEND
  5
4A8
  8
PROFILEEDGES
  0
POLYLINE
  5
D8
  8
PROFILEEDGES
 66
     1
 10
0.0
 20
0.0
 30
0.0
  0
VERTEX
  5
2A3
  8
PROFILEEDGES
 10
-450.7594591376569
 20
-10.66323257583773
 30
0.0
 40
4.401611912520944
 41
4.401611912520944
  0
VERTEX
  5
2A4
  8
PROFILEEDGES
 10
-450.7594591381076
 20
816.760633392002
 30
0.0
 40
4.401611912520944
 41
4.401611912520944
  0
SEQEND
  5
4A9
  8
PROFILEEDGES
  0
POLYLINE
  5
D9
  8
PROFILEEDGES
 66
     1
 10
0.0
 20
0.0
 30
0.0
  0
VERTEX
  5
2A5
  8
PROFILEEDGES
 10
-450.7594591381076
 20
816.760633392002
 30
0.0
 40
4.401611912520944
 41
4.401611912520944
  0
VERTEX
  5
2A6
  8
PROFILEEDGES
 10
-450.4331953749749
 20
822.4021413005437
 30
0.0
 40
4.401611912520944
 41
4.401611912520944
  0
SEQEND
  5
4AA
  8
PROFILEEDGES
  0
POLYLINE
  5
DA
  8
PROFILEEDGES
 66
     1
 10
0.0
 20
0.0
 30
0.0
  0
VERTEX
  5
2A7
  8
PROFILEEDGES
 10
-450.4331953749749
 20
822.4021413005437
 30
0.0
 40
4.401611912520944
 41
4.401611912520944
  0
VERTEX
  5
2A8
  8
PROFILEEDGES
 10
-449.4595494600271
 20
827.9546792592886
 30
0.0
 40
4.401611912520944
 41
4.401611912520944
  0
SEQEND
  5
4AB
  8
PROFILEEDGES
  0
POLYLINE
  5
DB
  8
PROFILEEDGES
 66
     1
 10
0.0
 20
0.0
 30
0.0
  0
VERTEX
  5
2A9
  8
PROFILEEDGES
 10
-449.4595494600271
 20
827.9546792592886
 30
0.0
 40
4.401611912520944
 41
4.401611912520944
  0
VERTEX
  5
2AA
  8
PROFILEEDGES
 10
-447.8538763709888
 20
833.3306804277101
 30
0.0
 40
4.401611912520944
 41
4.401611912520944
  0
SEQEND
  5
4AC
  8
PROFILEEDGES
  0
POLYLINE
  5
DC
  8
PROFILEEDGES
 66
     1
 10
0.0
 20
0.0
 30
0.0
  0
VERTEX
  5
2AB
  8
PROFILEEDGES
 10
-447.8538763709888
 20
833.3306804277101
 30
0.0
 40
4.401611912520944
 41
4.401611912520944
  0
VERTEX
  5
2AC
  8
PROFILEEDGES
 10
-445.6414985316513
 20
838.4453620559094
 30
0.0
 40
4.401611912520944
 41
4.401611912520944
  0
SEQEND
  5
4AD
  8
PROFILEEDGES
  0
POLYLINE
  5
DD
  8
PROFILEEDGES
 66
     1
 10
0.0
 20
0.0
 30
0.0
  0
VERTEX
  5
2AD
  8
PROFILEEDGES
 10
-445.6414985316513
 20
838.4453620559094
 30
0.0
 40
4.401611912520944
 41
4.401611912520944
  0
VERTEX
  5
2AE
  8
PROFILEEDGES
 10
-442.8573064621525
 20
843.218062559251
 30
0.0
 40
4.401611912520944
 41
4.401611912520944
  0
SEQEND
  5
4AE
  8
PROFILEEDGES
  0
POLYLINE
  5
DE
  8
PROFILEEDGES
 66
     1
 10
0.0
 20
0.0
 30
0.0
  0
VERTEX
  5
2AF
  8
PROFILEEDGES
 10
-442.8573064621525
 20
843.218062559251
 30
0.0
 40
4.401611912520944
 41
4.401611912520944
  0
VERTEX
  5
2B0
  8
PROFILEEDGES
 10
-439.5452085346271
 20
847.5735135997244
 30
0.0
 40
4.401611912520944
 41
4.401611912520944
  0
SEQEND
  5
4AF
  8
PROFILEEDGES
  0
POLYLINE
  5
DF
  8
PROFILEEDGES
 66
     1
 10
0.0
 20
0.0
 30
0.0
  0
VERTEX
  5
2B1
  8
PROFILEEDGES
 10
-439.5452085346271
 20
847.5735135997244
 30
0.0
 40
4.401611912520944
 41
4.401611912520944
  0
VERTEX
  5
2B2
  8
PROFILEEDGES
 10
-435.7574385119327
 20
851.4430271125974
 30
0.0
 40
4.401611912520944
 41
4.401611912520944
  0
SEQEND
  5
4B0
  8
PROFILEEDGES
  0
POLYLINE
  5
E0
  8
PROFILEEDGES
 66
     1
 10
0.0
 20
0.0
 30
0.0
  0
VERTEX
  5
2B3
  8
PROFILEEDGES
 10
-435.7574385119327
 20
851.4430271125974
 30
0.0
 40
4.401611912520944
 41
4.401611912520944
  0
VERTEX
  5
2B4
  8
PROFILEEDGES
 10
-431.5537317900402
 20
854.7655785582439
 30
0.0
 40
4.401611912520944
 41
4.401611912520944
  0
SEQEND
  5
4B1
  8
PROFILEEDGES
  0
POLYLINE
  5
E1
  8
PROFILEEDGES
 66
     1
 10
0.0
 20
0.0
 30
0.0
  0
VERTEX
  5
2B5
  8
PROFILEEDGES
 10
-431.5537317900402
 20
854.7655785582439
 30
0.0
 40
4.401611912520944
 41
4.401611912520944
  0
VERTEX
  5
2B6
  8
PROFILEEDGES
 10
-427.0003833351214
 20
857.488769315563
 30
0.0
 40
4.401611912520944
 41
4.401611912520944
  0
SEQEND
  5
4B2
  8
PROFILEEDGES
  0
POLYLINE
  5
E2
  8
PROFILEEDGES
 66
     1
 10
0.0
 20
0.0
 30
0.0
  0
VERTEX
  5
2B7
  8
PROFILEEDGES
 10
-427.0003833351214
 20
857.488769315563
 30
0.0
 40
4.401611912520944
 41
4.401611912520944
  0
VERTEX
  5
2B8
  8
PROFILEEDGES
 10
-422.1692021723513
 20
859.5696530395638
 30
0.0
 40
4.401611912520944
 41
4.401611912520944
  0
SEQEND
  5
4B3
  8
PROFILEEDGES
  0
POLYLINE
  5
E3
  8
PROFILEEDGES
 66
     1
 10
0.0
 20
0.0
 30
0.0
  0
VERTEX
  5
2B9
  8
PROFILEEDGES
 10
-422.1692021723513
 20
859.5696530395638
 30
0.0
 40
4.401611912520944
 41
4.401611912520944
  0
VERTEX
  5
2BA
  8
PROFILEEDGES
 10
-417.1363789146653
 20
860.9754129508548
 30
0.0
 40
4.401611912520944
 41
4.401611912520944
  0
SEQEND
  5
4B4
  8
PROFILEEDGES
  0
POLYLINE
  5
E4
  8
PROFILEEDGES
 66
     1
 10
0.0
 20
0.0
 30
0.0
  0
VERTEX
  5
2BB
  8
PROFILEEDGES
 10
351.2052922821883
 20
861.6838793762936
 30
0.0
 40
4.401611912520944
 41
4.401611912520944
  0
VERTEX
  5
2BC
  8
PROFILEEDGES
 10
356.5992293591758
 20
861.2997606256765
 30
0.0
 40
4.401611912520944
 41
4.401611912520944
  0
SEQEND
  5
4B5
  8
PROFILEEDGES
  0
POLYLINE
  5
E5
  8
PROFILEEDGES
 66
     1
 10
0.0
 20
0.0
 30
0.0
  0
VERTEX
  5
2BD
  8
PROFILEEDGES
 10
356.5992293591758
 20
861.2997606256765
 30
0.0
 40
4.401611912520944
 41
4.401611912520944
  0
VERTEX
  5
2BE
  8
PROFILEEDGES
 10
361.9011063079951
 20
860.15396025701
 30
0.0
 40
4.401611912520944
 41
4.401611912520944
  0
SEQEND
  5
4B6
  8
PROFILEEDGES
  0
POLYLINE
  5
E6
  8
PROFILEEDGES
 66
     1
 10
0.0
 20
0.0
 30
0.0
  0
VERTEX
  5
2BF
  8
PROFILEEDGES
 10
361.9011063079951
 20
860.15396025701
 30
0.0
 40
4.401611912520944
 41
4.401611912520944
  0
VERTEX
  5
2C0
  8
PROFILEEDGES
 10
367.0204342214954
 20
858.2660340284142
 30
0.0
 40
4.401611912520944
 41
4.401611912520944
  0
SEQEND
  5
4B7
  8
PROFILEEDGES
  0
POLYLINE
  5
E7
  8
PROFILEEDGES
 66
     1
 10
0.0
 20
0.0
 30
0.0
  0
VERTEX
  5
2C1
  8
PROFILEEDGES
 10
367.0204342214954
 20
858.2660340284142
 30
0.0
 40
4.401611912520944
 41
4.401611912520944
  0
VERTEX
  5
2C2
  8
PROFILEEDGES
 10
371.8698398179485
 20
855.6682038082746
 30
0.0
 40
4.401611912520944
 41
4.401611912520944
  0
SEQEND
  5
4B8
  8
PROFILEEDGES
  0
POLYLINE
  5
E8
  8
PROFILEEDGES
 66
     1
 10
0.0
 20
0.0
 30
0.0
  0
VERTEX
  5
2C3
  8
PROFILEEDGES
 10
371.8698398179485
 20
855.6682038082746
 30
0.0
 40
4.401611912520944
 41
4.401611912520944
  0
VERTEX
  5
2C4
  8
PROFILEEDGES
 10
376.3665566700963
 20
852.4048076338273
 30
0.0
 40
4.401611912520944
 41
4.401611912520944
  0
SEQEND
  5
4B9
  8
PROFILEEDGES
  0
POLYLINE
  5
E9
  8
PROFILEEDGES
 66
     1
 10
0.0
 20
0.0
 30
0.0
  0
VERTEX
  5
2C5
  8
PROFILEEDGES
 10
376.3665566700963
 20
852.4048076338273
 30
0.0
 40
4.401611912520944
 41
4.401611912520944
  0
VERTEX
  5
2C6
  8
PROFILEEDGES
 10
380.4338378074434
 20
848.531542979073
 30
0.0
 40
4.401611912520944
 41
4.401611912520944
  0
SEQEND
  5
4BA
  8
PROFILEEDGES
  0
POLYLINE
  5
EA
  8
PROFILEEDGES
 66
     1
 10
0.0
 20
0.0
 30
0.0
  0
VERTEX
  5
2C7
  8
PROFILEEDGES
 10
380.4338378074434
 20
848.531542979073
 30
0.0
 40
4.401611912520944
 41
4.401611912520944
  0
VERTEX
  5
2C8
  8
PROFILEEDGES
 10
384.0022655824626
 20
844.1145161473302
 30
0.0
 40
4.401611912520944
 41
4.401611912520944
  0
SEQEND
  5
4BB
  8
PROFILEEDGES
  0
POLYLINE
  5
EB
  8
PROFILEEDGES
 66
     1
 10
0.0
 20
0.0
 30
0.0
  0
VERTEX
  5
2C9
  8
PROFILEEDGES
 10
384.0022655824626
 20
844.1145161473302
 30
0.0
 40
4.401611912520944
 41
4.401611912520944
  0
VERTEX
  5
2CA
  8
PROFILEEDGES
 10
387.0109364448165
 20
839.2291140128667
 30
0.0
 40
4.401611912520944
 41
4.401611912520944
  0
SEQEND
  5
4BC
  8
PROFILEEDGES
  0
POLYLINE
  5
EC
  8
PROFILEEDGES
 66
     1
 10
0.0
 20
0.0
 30
0.0
  0
VERTEX
  5
2CB
  8
PROFILEEDGES
 10
387.0109364448165
 20
839.2291140128667
 30
0.0
 40
4.401611912520944
 41
4.401611912520944
  0
VERTEX
  5
2CC
  8
PROFILEEDGES
 10
389.4085004026101
 20
833.9587173678948
 30
0.0
 40
4.401611912520944
 41
4.401611912520944
  0
SEQEND
  5
4BD
  8
PROFILEEDGES
  0
POLYLINE
  5
ED
  8
PROFILEEDGES
 66
     1
 10
0.0
 20
0.0
 30
0.0
  0
VERTEX
  5
2CD
  8
PROFILEEDGES
 10
389.4085004026101
 20
833.9587173678948
 30
0.0
 40
4.401611912520944
 41
4.401611912520944
  0
VERTEX
  5
2CE
  8
PROFILEEDGES
 10
391.1540374298796
 20
828.3932778347004
 30
0.0
 40
4.401611912520944
 41
4.401611912520944
  0
SEQEND
  5
4BE
  8
PROFILEEDGES
  0
POLYLINE
  5
EE
  8
PROFILEEDGES
 66
     1
 10
0.0
 20
0.0
 30
0.0
  0
VERTEX
  5
2CF
  8
PROFILEEDGES
 10
391.1540374298796
 20
828.3932778347004
 30
0.0
 40
4.401611912520944
 41
4.401611912520944
  0
VERTEX
  5
2D0
  8
PROFILEEDGES
 10
392.2177558623635
 20
822.6277826312329
 30
0.0
 40
4.401611912520944
 41
4.401611912520944
  0
SEQEND
  5
4BF
  8
PROFILEEDGES
  0
POLYLINE
  5
EF
  8
PROFILEEDGES
 66
     1
 10
0.0
 20
0.0
 30
0.0
  0
VERTEX
  5
2D1
  8
PROFILEEDGES
 10
392.2177558623635
 20
822.6277826312329
 30
0.0
 40
4.401611912520944
 41
4.401611912520944
  0
VERTEX
  5
2D2
  8
PROFILEEDGES
 10
392.5815008618056
 20
816.7606333924628
 30
0.0
 40
4.401611912520944
 41
4.401611912520944
  0
SEQEND
  5
4C0
  8
PROFILEEDGES
  0
POLYLINE
  5
F0
  8
PROFILEEDGES
 66
     1
 10
0.0
 20
0.0
 30
0.0
  0
VERTEX
  5
2D3
  8
PROFILEEDGES
 10
392.5815008618056
 20
816.7606333924628
 30
0.0
 40
4.401611912520944
 41
4.401611912520944
  0
VERTEX
  5
2D4
  8
PROFILEEDGES
 10
392.5815008622534
 20
-10.66323257537758
 30
0.0
 40
4.401611912520944
 41
4.401611912520944
  0
SEQEND
  5
4C1
  8
PROFILEEDGES
  0
POLYLINE
  5
F1
  8
PROFILEEDGES
 66
     1
 10
0.0
 20
0.0
 30
0.0
  0
VERTEX
  5
2D5
  8
PROFILEEDGES
 10
392.2824082938187
 20
-16.08990212804759
 30
0.0
 40
4.401611912520944
 41
4.401611912520944
  0
VERTEX
  5
2D6
  8
PROFILEEDGES
 10
392.5815008622534
 20
-10.66323257537758
 30
0.0
 40
4.401611912520944
 41
4.401611912520944
  0
SEQEND
  5
4C2
  8
PROFILEEDGES
  0
POLYLINE
  5
F2
  8
PROFILEEDGES
 66
     1
 10
0.0
 20
0.0
 30
0.0
  0
VERTEX
  5
2D7
  8
PROFILEEDGES
 10
391.3894161539719
 20
-21.43881532622753
 30
0.0
 40
4.401611912520944
 41
4.401611912520944
  0
VERTEX
  5
2D8
  8
PROFILEEDGES
 10
392.2824082938187
 20
-16.08990212804759
 30
0.0
 40
4.401611912520944
 41
4.401611912520944
  0
SEQEND
  5
4C3
  8
PROFILEEDGES
  0
POLYLINE
  5
F3
  8
PROFILEEDGES
 66
     1
 10
0.0
 20
0.0
 30
0.0
  0
VERTEX
  5
2D9
  8
PROFILEEDGES
 10
389.9153197332545
 20
-26.63332995193762
 30
0.0
 40
4.401611912520944
 41
4.401611912520944
  0
VERTEX
  5
2DA
  8
PROFILEEDGES
 10
391.3894161539719
 20
-21.43881532622753
 30
0.0
 40
4.401611912520944
 41
4.401611912520944
  0
SEQEND
  5
4C4
  8
PROFILEEDGES
  0
POLYLINE
  5
F4
  8
PROFILEEDGES
 66
     1
 10
0.0
 20
0.0
 30
0.0
  0
VERTEX
  5
2DB
  8
PROFILEEDGES
 10
387.8812407090547
 20
-31.59901609623638
 30
0.0
 40
4.401611912520944
 41
4.401611912520944
  0
VERTEX
  5
2DC
  8
PROFILEEDGES
 10
389.9153197332545
 20
-26.63332995193762
 30
0.0
 40
4.401611912520944
 41
4.401611912520944
  0
SEQEND
  5
4C5
  8
PROFILEEDGES
  0
POLYLINE
  5
F5
  8
PROFILEEDGES
 66
     1
 10
0.0
 20
0.0
 30
0.0
  0
VERTEX
  5
2DD
  8
PROFILEEDGES
 10
385.3163245025729
 20
-36.26472263257147
 30
0.0
 40
4.401611912520944
 41
4.401611912520944
  0
VERTEX
  5
2DE
  8
PROFILEEDGES
 10
387.8812407090547
 20
-31.59901609623638
 30
0.0
 40
4.401611912520944
 41
4.401611912520944
  0
SEQEND
  5
4C6
  8
PROFILEEDGES
  0
POLYLINE
  5
F6
  8
PROFILEEDGES
 66
     1
 10
0.0
 20
0.0
 30
0.0
  0
VERTEX
  5
2DF
  8
PROFILEEDGES
 10
382.2573226668347
 20
-40.56359670987752
 30
0.0
 40
4.401611912520944
 41
4.401611912520944
  0
VERTEX
  5
2E0
  8
PROFILEEDGES
 10
385.3163245025729
 20
-36.26472263257147
 30
0.0
 40
4.401611912520944
 41
4.401611912520944
  0
SEQEND
  5
4C7
  8
PROFILEEDGES
  0
POLYLINE
  5
F7
  8
PROFILEEDGES
 66
     1
 10
0.0
 20
0.0
 30
0.0
  0
VERTEX
  5
2E1
  8
PROFILEEDGES
 10
378.748066289899
 20
-44.43404165759414
 30
0.0
 40
4.401611912520944
 41
4.401611912520944
  0
VERTEX
  5
2E2
  8
PROFILEEDGES
 10
382.2573226668347
 20
-40.56359670987752
 30
0.0
 40
4.401611912520944
 41
4.401611912520944
  0
SEQEND
  5
4C8
  8
PROFILEEDGES
  0
POLYLINE
  5
F8
  8
PROFILEEDGES
 66
     1
 10
0.0
 20
0.0
 30
0.0
  0
VERTEX
  5
2E3
  8
PROFILEEDGES
 10
374.8388379585777
 20
-47.82059957719792
 30
0.0
 40
4.401611912520944
 41
4.401611912520944
  0
VERTEX
  5
2E4
  8
PROFILEEDGES
 10
378.748066289899
 20
-44.43404165759414
 30
0.0
 40
4.401611912520944
 41
4.401611912520944
  0
SEQEND
  5
4C9
  8
PROFILEEDGES
  0
POLYLINE
  5
F9
  8
PROFILEEDGES
 66
     1
 10
0.0
 20
0.0
 30
0.0
  0
VERTEX
  5
2E5
  8
PROFILEEDGES
 10
370.5856512813885
 20
-50.67474597395833
 30
0.0
 40
4.401611912520944
 41
4.401611912520944
  0
VERTEX
  5
2E6
  8
PROFILEEDGES
 10
374.8388379585777
 20
-47.82059957719792
 30
0.0
 40
4.401611912520944
 41
4.401611912520944
  0
SEQEND
  5
4CA
  8
PROFILEEDGES
  0
POLYLINE
  5
FA
  8
PROFILEEDGES
 66
     1
 10
0.0
 20
0.0
 30
0.0
  0
VERTEX
  5
2E7
  8
PROFILEEDGES
 10
366.0494482942963
 20
-52.95558504303413
 30
0.0
 40
4.401611912520944
 41
4.401611912520944
  0
VERTEX
  5
2E8
  8
PROFILEEDGES
 10
370.5856512813885
 20
-50.67474597395833
 30
0.0
 40
4.401611912520944
 41
4.401611912520944
  0
SEQEND
  5
4CB
  8
PROFILEEDGES
  0
POLYLINE
  5
FB
  8
PROFILEEDGES
 66
     1
 10
0.0
 20
0.0
 30
0.0
  0
VERTEX
  5
2E9
  8
PROFILEEDGES
 10
361.2952262491102
 20
-54.63043564740376
 30
0.0
 40
4.401611912520944
 41
4.401611912520944
  0
VERTEX
  5
2EA
  8
PROFILEEDGES
 10
366.0494482942963
 20
-52.95558504303413
 30
0.0
 40
4.401611912520944
 41
4.401611912520944
  0
SEQEND
  5
4CC
  8
PROFILEEDGES
  0
POLYLINE
  5
FC
  8
PROFILEEDGES
 66
     1
 10
0.0
 20
0.0
 30
0.0
  0
VERTEX
  5
2EB
  8
PROFILEEDGES
 10
356.3911062966056
 20
-55.67529959148398
 30
0.0
 40
4.401611912520944
 41
4.401611912520944
  0
VERTEX
  5
2EC
  8
PROFILEEDGES
 10
361.2952262491102
 20
-54.63043564740376
 30
0.0
 40
4.401611912520944
 41
4.401611912520944
  0
SEQEND
  5
4CD
  8
PROFILEEDGES
  0
POLYLINE
  5
FD
  8
PROFILEEDGES
 66
     1
 10
0.0
 20
0.0
 30
0.0
  0
VERTEX
  5
2ED
  8
PROFILEEDGES
 10
273.6101868623331
 20
54.09080040857965
 30
0.0
 40
4.401611912520944
 41
4.401611912520944
  0
VERTEX
  5
2EE
  8
PROFILEEDGES
 10
275.9690029534567
 20
54.25899101191672
 30
0.0
 40
4.401611912520944
 41
4.401611912520944
  0
SEQEND
  5
4CE
  8
PROFILEEDGES
  0
POLYLINE
  5
FE
  8
PROFILEEDGES
 66
     1
 10
0.0
 20
0.0
 30
0.0
  0
VERTEX
  5
2EF
  8
PROFILEEDGES
 10
275.9690029534567
 20
54.25899101191672
 30
0.0
 40
4.401611912520944
 41
4.401611912520944
  0
VERTEX
  5
2F0
  8
PROFILEEDGES
 10
278.2874590472617
 20
54.76068503406762
 30
0.0
 40
4.401611912520944
 41
4.401611912520944
  0
SEQEND
  5
4CF
  8
PROFILEEDGES
  0
POLYLINE
  5
FF
  8
PROFILEEDGES
 66
     1
 10
0.0
 20
0.0
 30
0.0
  0
VERTEX
  5
2F1
  8
PROFILEEDGES
 10
278.2874590472617
 20
54.76068503406762
 30
0.0
 40
4.401611912520944
 41
4.401611912520944
  0
VERTEX
  5
2F2
  8
PROFILEEDGES
 10
280.5258857172024
 20
55.58729835122524
 30
0.0
 40
4.401611912520944
 41
4.401611912520944
  0
SEQEND
  5
4D0
  8
PROFILEEDGES
  0
POLYLINE
  5
100
  8
PROFILEEDGES
 66
     1
 10
0.0
 20
0.0
 30
0.0
  0
VERTEX
  5
2F3
  8
PROFILEEDGES
 10
280.5258857172024
 20
55.58729835122524
 30
0.0
 40
4.401611912520944
 41
4.401611912520944
  0
VERTEX
  5
2F4
  8
PROFILEEDGES
 10
282.6459828623317
 20
56.72468738034514
 30
0.0
 40
4.401611912520944
 41
4.401611912520944
  0
SEQEND
  5
4D1
  8
PROFILEEDGES
  0
POLYLINE
  5
101
  8
PROFILEEDGES
 66
     1
 10
0.0
 20
0.0
 30
0.0
  0
VERTEX
  5
2F5
  8
PROFILEEDGES
 10
282.6459828623317
 20
56.72468738034514
 30
0.0
 40
4.401611912520944
 41
4.401611912520944
  0
VERTEX
  5
2F6
  8
PROFILEEDGES
 10
284.6114750327225
 20
58.15339107979491
 30
0.0
 40
4.401611912520944
 41
4.401611912520944
  0
SEQEND
  5
4D2
  8
PROFILEEDGES
  0
POLYLINE
  5
102
  8
PROFILEEDGES
 66
     1
 10
0.0
 20
0.0
 30
0.0
  0
VERTEX
  5
2F7
  8
PROFILEEDGES
 10
284.6114750327225
 20
58.15339107979491
 30
0.0
 40
4.401611912520944
 41
4.401611912520944
  0
VERTEX
  5
2F8
  8
PROFILEEDGES
 10
286.3887321123742
 20
59.84896393317147
 30
0.0
 40
4.401611912520944
 41
4.401611912520944
  0
SEQEND
  5
4D3
  8
PROFILEEDGES
  0
POLYLINE
  5
103
  8
PROFILEEDGES
 66
     1
 10
0.0
 20
0.0
 30
0.0
  0
VERTEX
  5
2F9
  8
PROFILEEDGES
 10
286.3887321123742
 20
59.84896393317147
 30
0.0
 40
4.401611912520944
 41
4.401611912520944
  0
VERTEX
  5
2FA
  8
PROFILEEDGES
 10
287.9473447399151
 20
61.78239421884831
 30
0.0
 40
4.401611912520944
 41
4.401611912520944
  0
SEQEND
  5
4D4
  8
PROFILEEDGES
  0
POLYLINE
  5
104
  8
PROFILEEDGES
 66
     1
 10
0.0
 20
0.0
 30
0.0
  0
VERTEX
  5
2FB
  8
PROFILEEDGES
 10
287.9473447399151
 20
61.78239421884831
 30
0.0
 40
4.401611912520944
 41
4.401611912520944
  0
VERTEX
  5
2FC
  8
PROFILEEDGES
 10
289.2606446211626
 20
63.92060040858816
 30
0.0
 40
4.401611912520944
 41
4.401611912520944
  0
SEQEND
  5
4D5
  8
PROFILEEDGES
  0
POLYLINE
  5
105
  8
PROFILEEDGES
 66
     1
 10
0.0
 20
0.0
 30
0.0
  0
VERTEX
  5
2FD
  8
PROFILEEDGES
 10
289.2606446211626
 20
63.92060040858816
 30
0.0
 40
4.401611912520944
 41
4.401611912520944
  0
VERTEX
  5
2FE
  8
PROFILEEDGES
 10
290.3061608310254
 20
66.22699720166366
 30
0.0
 40
4.401611912520944
 41
4.401611912520944
  0
SEQEND
  5
4D6
  8
PROFILEEDGES
  0
POLYLINE
  5
106
  8
PROFILEEDGES
 66
     1
 10
0.0
 20
0.0
 30
0.0
  0
VERTEX
  5
2FF
  8
PROFILEEDGES
 10
290.3061608310254
 20
66.22699720166366
 30
0.0
 40
4.401611912520944
 41
4.401611912520944
  0
VERTEX
  5
300
  8
PROFILEEDGES
 10
291.0660042972901
 20
68.6621215094905
 30
0.0
 40
4.401611912520944
 41
4.401611912520944
  0
SEQEND
  5
4D7
  8
PROFILEEDGES
  0
POLYLINE
  5
107
  8
PROFILEEDGES
 66
     1
 10
0.0
 20
0.0
 30
0.0
  0
VERTEX
  5
301
  8
PROFILEEDGES
 10
291.0660042972901
 20
68.6621215094905
 30
0.0
 40
4.401611912520944
 41
4.401611912520944
  0
VERTEX
  5
302
  8
PROFILEEDGES
 10
291.5271738875772
 20
71.18430768001897
 30
0.0
 40
4.401611912520944
 41
4.401611912520944
  0
SEQEND
  5
4D8
  8
PROFILEEDGES
  0
POLYLINE
  5
108
  8
PROFILEEDGES
 66
     1
 10
0.0
 20
0.0
 30
0.0
  0
VERTEX
  5
303
  8
PROFILEEDGES
 10
291.5271738875772
 20
71.18430768001897
 30
0.0
 40
4.401611912520944
 41
4.401611912520944
  0
VERTEX
  5
304
  8
PROFILEEDGES
 10
291.6817788623225
 20
73.7504004085895
 30
0.0
 40
4.401611912520944
 41
4.401611912520944
  0
SEQEND
  5
4D9
  8
PROFILEEDGES
  0
POLYLINE
  5
109
  8
PROFILEEDGES
 66
     1
 10
0.0
 20
0.0
 30
0.0
  0
VERTEX
  5
305
  8
PROFILEEDGES
 10
291.6817788623225
 20
73.7504004085895
 30
0.0
 40
4.401611912520944
 41
4.401611912520944
  0
VERTEX
  5
306
  8
PROFILEEDGES
 10
291.681778861972
 20
732.3470004085534
 30
0.0
 40
4.401611912520944
 41
4.401611912520944
  0
SEQEND
  5
4DA
  8
PROFILEEDGES
  0
POLYLINE
  5
10A
  8
PROFILEEDGES
 66
     1
 10
0.0
 20
0.0
 30
0.0
  0
VERTEX
  5
307
  8
PROFILEEDGES
 10
291.681778861972
 20
732.3470004085534
 30
0.0
 40
4.401611912520944
 41
4.401611912520944
  0
VERTEX
  5
308
  8
PROFILEEDGES
 10
291.5508925003227
 20
734.7088426053049
 30
0.0
 40
4.401611912520944
 41
4.401611912520944
  0
SEQEND
  5
4DB
  8
PROFILEEDGES
  0
POLYLINE
  5
10B
  8
PROFILEEDGES
 66
     1
 10
0.0
 20
0.0
 30
0.0
  0
VERTEX
  5
309
  8
PROFILEEDGES
 10
291.5508925003227
 20
734.7088426053049
 30
0.0
 40
4.401611912520944
 41
4.401611912520944
  0
VERTEX
  5
30A
  8
PROFILEEDGES
 10
291.1601293457099
 20
737.0364727711633
 30
0.0
 40
4.401611912520944
 41
4.401611912520944
  0
SEQEND
  5
4DC
  8
PROFILEEDGES
  0
POLYLINE
  5
10C
  8
PROFILEEDGES
 66
     1
 10
0.0
 20
0.0
 30
0.0
  0
VERTEX
  5
30B
  8
PROFILEEDGES
 10
291.1601293457099
 20
737.0364727711633
 30
0.0
 40
4.401611912520944
 41
4.401611912520944
  0
VERTEX
  5
30C
  8
PROFILEEDGES
 10
290.5151497259595
 20
739.2961744473153
 30
0.0
 40
4.401611912520944
 41
4.401611912520944
  0
SEQEND
  5
4DD
  8
PROFILEEDGES
  0
POLYLINE
  5
10D
  8
PROFILEEDGES
 66
     1
 10
0.0
 20
0.0
 30
0.0
  0
VERTEX
  5
30D
  8
PROFILEEDGES
 10
-411.9812841913129
 20
861.6838793758764
 30
0.0
 40
4.401611912520944
 41
4.401611912520944
  0
VERTEX
  5
30E
  8
PROFILEEDGES
 10
351.2052922821883
 20
861.6838793762936
 30
0.0
 40
4.401611912520944
 41
4.401611912520944
  0
SEQEND
  5
4DE
  8
PROFILEEDGES
  0
POLYLINE
  5
10E
  8
PROFILEEDGES
 66
     1
 10
0.0
 20
0.0
 30
0.0
  0
VERTEX
  5
30F
  8
PROFILEEDGES
 10
-417.1363789146653
 20
860.9754129508548
 30
0.0
 40
4.401611912520944
 41
4.401611912520944
  0
VERTEX
  5
310
  8
PROFILEEDGES
 10
-411.9812841913129
 20
861.6838793758764
 30
0.0
 40
4.401611912520944
 41
4.401611912520944
  0
SEQEND
  5
4DF
  8
PROFILEEDGES
  0
LINE
  5
10F
  8
0
 10
-340.6323345887909
 20
734.1894549009085
 30
0.0
 11
-340.3052370791709
 21
735.3795986141645
 31
0.0
  0
LINE
  5
110
  8
0
 10
-340.3052370791709
 20
735.3795986141645
 30
0.0
 11
-339.8475055348248
 21
736.5176260928578
 31
0.0
  0
LINE
  5
111
  8
0
 10
-339.8475055348248
 20
736.5176260928578
 30
0.0
 11
-339.2659366081546
 21
737.5866392723763
 31
0.0
  0
LINE
  5
112
  8
0
 10
-339.2659366081546
 20
737.5866392723763
 30
0.0
 11
-338.5691657578705
 21
738.570764850797
 31
0.0
  0
LINE
  5
113
  8
0
 10
-338.5691657578705
 20
738.570764850797
 30
0.0
 11
-337.7675390248768
 21
739.4553899844667
 31
0.0
  0
LINE
  5
114
  8
0
 10
-337.7675390248768
 20
739.4553899844667
 30
0.0
 11
-336.872959408512
 21
740.227379267665
 31
0.0
  0
LINE
  5
115
  8
0
 10
-336.872959408512
 20
740.227379267665
 30
0.0
 11
-335.8987101242015
 21
740.8752697743794
 31
0.0
  0
LINE
  5
116
  8
0
 10
-335.8987101242015
 20
740.8752697743794
 30
0.0
 11
-334.8592573668833
 21
741.3894412662193
 31
0.0
  0
LINE
  5
117
  8
0
 10
-334.8592573668833
 20
741.3894412662193
 30
0.0
 11
-333.7700355089013
 21
741.7622590390545
 31
0.0
  0
POLYLINE
  5
118
  8
PROFILEEDGES
 66
     1
 10
0.0
 20
0.0
 30
0.0
  0
VERTEX
  5
311
  8
PROFILEEDGES
 10
279.13438554999
 20
65.91850134994324
 30
0.0
 40
4.401611912520944
 41
4.401611912520944
  0
VERTEX
  5
312
  8
PROFILEEDGES
 10
280.026819333646
 20
66.76991812826691
 30
0.0
 40
4.401611912520944
 41
4.401611912520944
  0
SEQEND
  5
4E0
  8
PROFILEEDGES
  0
POLYLINE
  5
119
  8
PROFILEEDGES
 66
     1
 10
0.0
 20
0.0
 30
0.0
  0
VERTEX
  5
313
  8
PROFILEEDGES
 10
280.026819333646
 20
66.76991812826691
 30
0.0
 40
4.401611912520944
 41
4.401611912520944
  0
VERTEX
  5
314
  8
PROFILEEDGES
 10
280.8094627566991
 20
67.740772893763
 30
0.0
 40
4.401611912520944
 41
4.401611912520944
  0
SEQEND
  5
4E1
  8
PROFILEEDGES
  0
POLYLINE
  5
11A
  8
PROFILEEDGES
 66
     1
 10
0.0
 20
0.0
 30
0.0
  0
VERTEX
  5
315
  8
PROFILEEDGES
 10
280.8094627566991
 20
67.740772893763
 30
0.0
 40
4.401611912520944
 41
4.401611912520944
  0
VERTEX
  5
316
  8
PROFILEEDGES
 10
281.4689245731823
 20
68.81445405221942
 30
0.0
 40
4.401611912520944
 41
4.401611912520944
  0
SEQEND
  5
4E2
  8
PROFILEEDGES
  0
POLYLINE
  5
11B
  8
PROFILEEDGES
 66
     1
 10
0.0
 20
0.0
 30
0.0
  0
VERTEX
  5
317
  8
PROFILEEDGES
 10
281.4689245731823
 20
68.81445405221942
 30
0.0
 40
4.401611912520944
 41
4.401611912520944
  0
VERTEX
  5
318
  8
PROFILEEDGES
 10
281.9939212085773
 20
69.97259062133762
 30
0.0
 40
4.401611912520944
 41
4.401611912520944
  0
SEQEND
  5
4E3
  8
PROFILEEDGES
  0
POLYLINE
  5
11C
  8
PROFILEEDGES
 66
     1
 10
0.0
 20
0.0
 30
0.0
  0
VERTEX
  5
319
  8
PROFILEEDGES
 10
281.9939212085773
 20
69.97259062133762
 30
0.0
 40
4.401611912520944
 41
4.401611912520944
  0
VERTEX
  5
31A
  8
PROFILEEDGES
 10
282.3754698248969
 20
71.1953665633211
 30
0.0
 40
4.401611912520944
 41
4.401611912520944
  0
SEQEND
  5
4E4
  8
PROFILEEDGES
  0
POLYLINE
  5
11D
  8
PROFILEEDGES
 66
     1
 10
0.0
 20
0.0
 30
0.0
  0
VERTEX
  5
31B
  8
PROFILEEDGES
 10
282.3754698248969
 20
71.1953665633211
 30
0.0
 40
4.401611912520944
 41
4.401611912520944
  0
VERTEX
  5
31C
  8
PROFILEEDGES
 10
282.6070420195318
 20
72.46185984278779
 30
0.0
 40
4.401611912520944
 41
4.401611912520944
  0
SEQEND
  5
4E5
  8
PROFILEEDGES
  0
POLYLINE
  5
11E
  8
PROFILEEDGES
 66
     1
 10
0.0
 20
0.0
 30
0.0
  0
VERTEX
  5
31D
  8
PROFILEEDGES
 10
282.6070420195318
 20
72.46185984278779
 30
0.0
 40
4.401611912520944
 41
4.401611912520944
  0
VERTEX
  5
31E
  8
PROFILEEDGES
 10
282.6846755280288
 20
73.75040040858384
 30
0.0
 40
4.401611912520944
 41
4.401611912520944
  0
SEQEND
  5
4E6
  8
PROFILEEDGES
  0
POLYLINE
  5
11F
  8
PROFILEEDGES
 66
     1
 10
0.0
 20
0.0
 30
0.0
  0
VERTEX
  5
31F
  8
PROFILEEDGES
 10
282.6846755280288
 20
73.75040040858384
 30
0.0
 40
4.401611912520944
 41
4.401611912520944
  0
VERTEX
  5
320
  8
PROFILEEDGES
 10
282.6846755276675
 20
732.0522335273797
 30
0.0
 40
4.401611912520944
 41
4.401611912520944
  0
SEQEND
  5
4E7
  8
PROFILEEDGES
  0
POLYLINE
  5
120
  8
PROFILEEDGES
 66
     1
 10
0.0
 20
0.0
 30
0.0
  0
VERTEX
  5
321
  8
PROFILEEDGES
 10
282.6846755276675
 20
732.0522335273797
 30
0.0
 40
4.401611912520944
 41
4.401611912520944
  0
VERTEX
  5
322
  8
PROFILEEDGES
 10
282.6027353034521
 20
733.5308434966371
 30
0.0
 40
4.401611912520944
 41
4.401611912520944
  0
SEQEND
  5
4E8
  8
PROFILEEDGES
  0
POLYLINE
  5
121
  8
PROFILEEDGES
 66
     1
 10
0.0
 20
0.0
 30
0.0
  0
VERTEX
  5
323
  8
PROFILEEDGES
 10
282.6027353034521
 20
733.5308434966371
 30
0.0
 40
4.401611912520944
 41
4.401611912520944
  0
VERTEX
  5
324
  8
PROFILEEDGES
 10
282.4068702874432
 20
734.6975382433351
 30
0.0
 40
4.401611912520944
 41
4.401611912520944
  0
SEQEND
  5
4E9
  8
PROFILEEDGES
  0
POLYLINE
  5
122
  8
PROFILEEDGES
 66
     1
 10
0.0
 20
0.0
 30
0.0
  0
VERTEX
  5
325
  8
PROFILEEDGES
 10
282.4068702874432
 20
734.6975382433351
 30
0.0
 40
4.401611912520944
 41
4.401611912520944
  0
VERTEX
  5
326
  8
PROFILEEDGES
 10
282.0835825310255
 20
735.8301847063962
 30
0.0
 40
4.401611912520944
 41
4.401611912520944
  0
SEQEND
  5
4EA
  8
PROFILEEDGES
  0
POLYLINE
  5
123
  8
PROFILEEDGES
 66
     1
 10
0.0
 20
0.0
 30
0.0
  0
VERTEX
  5
327
  8
PROFILEEDGES
 10
282.0835825310255
 20
735.8301847063962
 30
0.0
 40
4.401611912520944
 41
4.401611912520944
  0
VERTEX
  5
328
  8
PROFILEEDGES
 10
281.6375549595533
 20
736.9123761437246
 30
0.0
 40
4.401611912520944
 41
4.401611912520944
  0
SEQEND
  5
4EB
  8
PROFILEEDGES
  0
POLYLINE
  5
124
  8
PROFILEEDGES
 66
     1
 10
0.0
 20
0.0
 30
0.0
  0
VERTEX
  5
329
  8
PROFILEEDGES
 10
281.6375549595533
 20
736.9123761437246
 30
0.0
 40
4.401611912520944
 41
4.401611912520944
  0
VERTEX
  5
32A
  8
PROFILEEDGES
 10
281.075248423411
 20
737.9284366702236
 30
0.0
 40
4.401611912520944
 41
4.401611912520944
  0
SEQEND
  5
4EC
  8
PROFILEEDGES
  0
POLYLINE
  5
125
  8
PROFILEEDGES
 66
     1
 10
0.0
 20
0.0
 30
0.0
  0
VERTEX
  5
32B
  8
PROFILEEDGES
 10
281.075248423411
 20
737.9284366702236
 30
0.0
 40
4.401611912520944
 41
4.401611912520944
  0
VERTEX
  5
32C
  8
PROFILEEDGES
 10
280.4048081105332
 20
738.863648327952
 30
0.0
 40
4.401611912520944
 41
4.401611912520944
  0
SEQEND
  5
4ED
  8
PROFILEEDGES
  0
POLYLINE
  5
126
  8
PROFILEEDGES
 66
     1
 10
0.0
 20
0.0
 30
0.0
  0
VERTEX
  5
32D
  8
PROFILEEDGES
 10
280.4048081105332
 20
738.863648327952
 30
0.0
 40
4.401611912520944
 41
4.401611912520944
  0
VERTEX
  5
32E
  8
PROFILEEDGES
 10
279.6359455608099
 20
739.7044642803864
 30
0.0
 40
4.401611912520944
 41
4.401611912520944
  0
SEQEND
  5
4EE
  8
PROFILEEDGES
  0
POLYLINE
  5
127
  8
PROFILEEDGES
 66
     1
 10
0.0
 20
0.0
 30
0.0
  0
VERTEX
  5
32F
  8
PROFILEEDGES
 10
279.6359455608099
 20
739.7044642803864
 30
0.0
 40
4.401611912520944
 41
4.401611912520944
  0
VERTEX
  5
330
  8
PROFILEEDGES
 10
278.7797979913485
 20
740.4387050426416
 30
0.0
 40
4.401611912520944
 41
4.401611912520944
  0
SEQEND
  5
4EF
  8
PROFILEEDGES
  0
POLYLINE
  5
128
  8
PROFILEEDGES
 66
     1
 10
0.0
 20
0.0
 30
0.0
  0
VERTEX
  5
331
  8
PROFILEEDGES
 10
278.7797979913485
 20
740.4387050426416
 30
0.0
 40
4.401611912520944
 41
4.401611912520944
  0
VERTEX
  5
332
  8
PROFILEEDGES
 10
277.8487669703447
 20
741.0557349051517
 30
0.0
 40
4.401611912520944
 41
4.401611912520944
  0
SEQEND
  5
4F0
  8
PROFILEEDGES
  0
POLYLINE
  5
129
  8
PROFILEEDGES
 66
     1
 10
0.0
 20
0.0
 30
0.0
  0
VERTEX
  5
333
  8
PROFILEEDGES
 10
277.8487669703447
 20
741.0557349051517
 30
0.0
 40
4.401611912520944
 41
4.401611912520944
  0
VERTEX
  5
334
  8
PROFILEEDGES
 10
276.8563387764858
 20
741.5466159952882
 30
0.0
 40
4.401611912520944
 41
4.401611912520944
  0
SEQEND
  5
4F1
  8
PROFILEEDGES
  0
POLYLINE
  5
12A
  8
PROFILEEDGES
 66
     1
 10
0.0
 20
0.0
 30
0.0
  0
VERTEX
  5
335
  8
PROFILEEDGES
 10
276.8563387764858
 20
741.5466159952882
 30
0.0
 40
4.401611912520944
 41
4.401611912520944
  0
VERTEX
  5
336
  8
PROFILEEDGES
 10
275.8168890459062
 20
741.904237745276
 30
0.0
 40
4.401611912520944
 41
4.401611912520944
  0
SEQEND
  5
4F2
  8
PROFILEEDGES
  0
POLYLINE
  5
12B
  8
PROFILEEDGES
 66
     1
 10
0.0
 20
0.0
 30
0.0
  0
VERTEX
  5
337
  8
PROFILEEDGES
 10
275.8168890459062
 20
741.904237745276
 30
0.0
 40
4.401611912520944
 41
4.401611912520944
  0
VERTEX
  5
338
  8
PROFILEEDGES
 10
275.0365622104176
 20
742.0638713032289
 30
0.0
 40
4.401611912520944
 41
4.401611912520944
  0
SEQEND
  5
4F3
  8
PROFILEEDGES
  0
POLYLINE
  5
12C
  8
PROFILEEDGES
 66
     1
 10
0.0
 20
0.0
 30
0.0
  0
VERTEX
  5
339
  8
PROFILEEDGES
 10
-334.1434304888652
 20
54.26402561564431
 30
0.0
 40
4.401611912520944
 41
4.401611912520944
  0
VERTEX
  5
33A
  8
PROFILEEDGES
 10
-331.7881451376373
 20
54.09080040824987
 30
0.0
 40
4.401611912520944
 41
4.401611912520944
  0
SEQEND
  5
4F4
  8
PROFILEEDGES
  0
POLYLINE
  5
12D
  8
PROFILEEDGES
 66
     1
 10
0.0
 20
0.0
 30
0.0
  0
VERTEX
  5
33B
  8
PROFILEEDGES
 10
-336.4578650540377
 20
54.76976011058871
 30
0.0
 40
4.401611912520944
 41
4.401611912520944
  0
VERTEX
  5
33C
  8
PROFILEEDGES
 10
-334.1434304888652
 20
54.26402561564431
 30
0.0
 40
4.401611912520944
 41
4.401611912520944
  0
SEQEND
  5
4F5
  8
PROFILEEDGES
  0
POLYLINE
  5
12E
  8
PROFILEEDGES
 66
     1
 10
0.0
 20
0.0
 30
0.0
  0
VERTEX
  5
33D
  8
PROFILEEDGES
 10
-338.6919560595491
 20
55.59937420087994
 30
0.0
 40
4.401611912520944
 41
4.401611912520944
  0
VERTEX
  5
33E
  8
PROFILEEDGES
 10
-336.4578650540377
 20
54.76976011058871
 30
0.0
 40
4.401611912520944
 41
4.401611912520944
  0
SEQEND
  5
4F6
  8
PROFILEEDGES
  0
POLYLINE
  5
12F
  8
PROFILEEDGES
 66
     1
 10
0.0
 20
0.0
 30
0.0
  0
VERTEX
  5
33F
  8
PROFILEEDGES
 10
-340.8075816886645
 20
56.73871161614998
 30
0.0
 40
4.401611912520944
 41
4.401611912520944
  0
VERTEX
  5
340
  8
PROFILEEDGES
 10
-338.6919560595491
 20
55.59937420087994
 30
0.0
 40
4.401611912520944
 41
4.401611912520944
  0
SEQEND
  5
4F7
  8
PROFILEEDGES
  0
POLYLINE
  5
130
  8
PROFILEEDGES
 66
     1
 10
0.0
 20
0.0
 30
0.0
  0
VERTEX
  5
341
  8
PROFILEEDGES
 10
-342.7686415800496
 20
58.1683310659381
 30
0.0
 40
4.401611912520944
 41
4.401611912520944
  0
VERTEX
  5
342
  8
PROFILEEDGES
 10
-340.8075816886645
 20
56.73871161614998
 30
0.0
 40
4.401611912520944
 41
4.401611912520944
  0
SEQEND
  5
4F8
  8
PROFILEEDGES
  0
POLYLINE
  5
131
  8
PROFILEEDGES
 66
     1
 10
0.0
 20
0.0
 30
0.0
  0
VERTEX
  5
343
  8
PROFILEEDGES
 10
-344.5416728329106
 20
59.86383797970083
 30
0.0
 40
4.401611912520944
 41
4.401611912520944
  0
VERTEX
  5
344
  8
PROFILEEDGES
 10
-342.7686415800496
 20
58.1683310659381
 30
0.0
 40
4.401611912520944
 41
4.401611912520944
  0
SEQEND
  5
4F9
  8
PROFILEEDGES
  0
POLYLINE
  5
132
  8
PROFILEEDGES
 66
     1
 10
0.0
 20
0.0
 30
0.0
  0
VERTEX
  5
345
  8
PROFILEEDGES
 10
-346.0964210071249
 20
61.79630076795213
 30
0.0
 40
4.401611912520944
 41
4.401611912520944
  0
VERTEX
  5
346
  8
PROFILEEDGES
 10
-344.5416728329106
 20
59.86383797970083
 30
0.0
 40
4.401611912520944
 41
4.401611912520944
  0
SEQEND
  5
4FA
  8
PROFILEEDGES
  0
POLYLINE
  5
133
  8
PROFILEEDGES
 66
     1
 10
0.0
 20
0.0
 30
0.0
  0
VERTEX
  5
347
  8
PROFILEEDGES
 10
-347.4063563754864
 20
63.93274450170875
 30
0.0
 40
4.401611912520944
 41
4.401611912520944
  0
VERTEX
  5
348
  8
PROFILEEDGES
 10
-346.0964210071249
 20
61.79630076795213
 30
0.0
 40
4.401611912520944
 41
4.401611912520944
  0
SEQEND
  5
4FB
  8
PROFILEEDGES
  0
POLYLINE
  5
134
  8
PROFILEEDGES
 66
     1
 10
0.0
 20
0.0
 30
0.0
  0
VERTEX
  5
349
  8
PROFILEEDGES
 10
-348.4491266184635
 20
66.2367135861618
 30
0.0
 40
4.401611912520944
 41
4.401611912520944
  0
VERTEX
  5
34A
  8
PROFILEEDGES
 10
-347.4063563754864
 20
63.93274450170875
 30
0.0
 40
4.401611912520944
 41
4.401611912520944
  0
SEQEND
  5
4FC
  8
PROFILEEDGES
  0
POLYLINE
  5
135
  8
PROFILEEDGES
 66
     1
 10
0.0
 20
0.0
 30
0.0
  0
VERTEX
  5
34B
  8
PROFILEEDGES
 10
-349.2069382370311
 20
68.66889382731179
 30
0.0
 40
4.401611912520944
 41
4.401611912520944
  0
VERTEX
  5
34C
  8
PROFILEEDGES
 10
-348.4491266184635
 20
66.2367135861618
 30
0.0
 40
4.401611912520944
 41
4.401611912520944
  0
SEQEND
  5
4FD
  8
PROFILEEDGES
  0
POLYLINE
  5
136
  8
PROFILEEDGES
 66
     1
 10
0.0
 20
0.0
 30
0.0
  0
VERTEX
  5
34D
  8
PROFILEEDGES
 10
-349.6668601753138
 20
71.18778327687151
 30
0.0
 40
4.401611912520944
 41
4.401611912520944
  0
VERTEX
  5
34E
  8
PROFILEEDGES
 10
-349.2069382370311
 20
68.66889382731179
 30
0.0
 40
4.401611912520944
 41
4.401611912520944
  0
SEQEND
  5
4FE
  8
PROFILEEDGES
  0
POLYLINE
  5
137
  8
PROFILEEDGES
 66
     1
 10
0.0
 20
0.0
 30
0.0
  0
VERTEX
  5
34F
  8
PROFILEEDGES
 10
-349.8210444719745
 20
73.75040040824078
 30
0.0
 40
4.401611912520944
 41
4.401611912520944
  0
VERTEX
  5
350
  8
PROFILEEDGES
 10
-349.6668601753138
 20
71.18778327687151
 30
0.0
 40
4.401611912520944
 41
4.401611912520944
  0
SEQEND
  5
4FF
  8
PROFILEEDGES
  0
POLYLINE
  5
138
  8
PROFILEEDGES
 66
     1
 10
0.0
 20
0.0
 30
0.0
  0
VERTEX
  5
351
  8
PROFILEEDGES
 10
-349.8210444723312
 20
733.6327997676128
 30
0.0
 40
4.401611912520944
 41
4.401611912520944
  0
VERTEX
  5
352
  8
PROFILEEDGES
 10
-349.8210444719745
 20
73.75040040824078
 30
0.0
 40
4.401611912520944
 41
4.401611912520944
  0
SEQEND
  5
500
  8
PROFILEEDGES
  0
POLYLINE
  5
139
  8
PROFILEEDGES
 66
     1
 10
0.0
 20
0.0
 30
0.0
  0
VERTEX
  5
353
  8
PROFILEEDGES
 10
278.0126979600334
 20
751.4142962802358
 30
0.0
 40
4.401611912520944
 41
4.401611912520944
  0
VERTEX
  5
354
  8
PROFILEEDGES
 10
275.8751579229754
 20
751.8515785905033
 30
0.0
 40
4.401611912520944
 41
4.401611912520944
  0
SEQEND
  5
501
  8
PROFILEEDGES
  0
POLYLINE
  5
13A
  8
PROFILEEDGES
 66
     1
 10
0.0
 20
0.0
 30
0.0
  0
VERTEX
  5
355
  8
PROFILEEDGES
 10
280.0864662320245
 20
750.7008181613085
 30
0.0
 40
4.401611912520944
 41
4.401611912520944
  0
VERTEX
  5
356
  8
PROFILEEDGES
 10
278.0126979600334
 20
751.4142962802358
 30
0.0
 40
4.401611912520944
 41
4.401611912520944
  0
SEQEND
  5
502
  8
PROFILEEDGES
  0
POLYLINE
  5
13B
  8
PROFILEEDGES
 66
     1
 10
0.0
 20
0.0
 30
0.0
  0
VERTEX
  5
357
  8
PROFILEEDGES
 10
282.0664235499171
 20
749.7214791898389
 30
0.0
 40
4.401611912520944
 41
4.401611912520944
  0
VERTEX
  5
358
  8
PROFILEEDGES
 10
280.0864662320245
 20
750.7008181613085
 30
0.0
 40
4.401611912520944
 41
4.401611912520944
  0
SEQEND
  5
503
  8
PROFILEEDGES
  0
POLYLINE
  5
13C
  8
PROFILEEDGES
 66
     1
 10
0.0
 20
0.0
 30
0.0
  0
VERTEX
  5
359
  8
PROFILEEDGES
 10
283.9238896060142
 20
748.4904654004321
 30
0.0
 40
4.401611912520944
 41
4.401611912520944
  0
VERTEX
  5
35A
  8
PROFILEEDGES
 10
282.0664235499171
 20
749.7214791898389
 30
0.0
 40
4.401611912520944
 41
4.401611912520944
  0
SEQEND
  5
504
  8
PROFILEEDGES
  0
POLYLINE
  5
13D
  8
PROFILEEDGES
 66
     1
 10
0.0
 20
0.0
 30
0.0
  0
VERTEX
  5
35B
  8
PROFILEEDGES
 10
285.6319584172899
 20
747.0256084170081
 30
0.0
 40
4.401611912520944
 41
4.401611912520944
  0
VERTEX
  5
35C
  8
PROFILEEDGES
 10
283.9238896060142
 20
748.4904654004321
 30
0.0
 40
4.401611912520944
 41
4.401611912520944
  0
SEQEND
  5
505
  8
PROFILEEDGES
  0
POLYLINE
  5
13E
  8
PROFILEEDGES
 66
     1
 10
0.0
 20
0.0
 30
0.0
  0
VERTEX
  5
35D
  8
PROFILEEDGES
 10
287.1658880670044
 20
745.3481271560677
 30
0.0
 40
4.401611912520944
 41
4.401611912520944
  0
VERTEX
  5
35E
  8
PROFILEEDGES
 10
285.6319584172899
 20
747.0256084170081
 30
0.0
 40
4.401611912520944
 41
4.401611912520944
  0
SEQEND
  5
506
  8
PROFILEEDGES
  0
POLYLINE
  5
13F
  8
PROFILEEDGES
 66
     1
 10
0.0
 20
0.0
 30
0.0
  0
VERTEX
  5
35F
  8
PROFILEEDGES
 10
288.5034590992615
 20
743.4823204639978
 30
0.0
 40
4.401611912520944
 41
4.401611912520944
  0
VERTEX
  5
360
  8
PROFILEEDGES
 10
287.1658880670044
 20
745.3481271560677
 30
0.0
 40
4.401611912520944
 41
4.401611912520944
  0
SEQEND
  5
507
  8
PROFILEEDGES
  0
POLYLINE
  5
140
  8
PROFILEEDGES
 66
     1
 10
0.0
 20
0.0
 30
0.0
  0
VERTEX
  5
361
  8
PROFILEEDGES
 10
289.6252963747716
 20
741.4552151405952
 30
0.0
 40
4.401611912520944
 41
4.401611912520944
  0
VERTEX
  5
362
  8
PROFILEEDGES
 10
288.5034590992615
 20
743.4823204639978
 30
0.0
 40
4.401611912520944
 41
4.401611912520944
  0
SEQEND
  5
508
  8
PROFILEEDGES
  0
POLYLINE
  5
141
  8
PROFILEEDGES
 66
     1
 10
0.0
 20
0.0
 30
0.0
  0
VERTEX
  5
363
  8
PROFILEEDGES
 10
290.5151497259595
 20
739.2961744473153
 30
0.0
 40
4.401611912520944
 41
4.401611912520944
  0
VERTEX
  5
364
  8
PROFILEEDGES
 10
289.6252963747716
 20
741.4552151405952
 30
0.0
 40
4.401611912520944
 41
4.401611912520944
  0
SEQEND
  5
509
  8
PROFILEEDGES
  0
POLYLINE
  5
142
  8
PROFILEEDGES
 66
     1
 10
0.0
 20
0.0
 30
0.0
  0
VERTEX
  5
365
  8
PROFILEEDGES
 10
-331.78814513802
 20
751.8515785901731
 30
0.0
 40
4.401611912520944
 41
4.401611912520944
  0
VERTEX
  5
366
  8
PROFILEEDGES
 10
-334.0379018786814
 20
751.6987314428462
 30
0.0
 40
4.401611912520944
 41
4.401611912520944
  0
SEQEND
  5
50A
  8
PROFILEEDGES
  0
POLYLINE
  5
143
  8
PROFILEEDGES
 66
     1
 10
0.0
 20
0.0
 30
0.0
  0
VERTEX
  5
367
  8
PROFILEEDGES
 10
-334.026963002362
 20
741.7394038123168
 30
0.0
 40
4.401611912520944
 41
4.401611912520944
  0
VERTEX
  5
368
  8
PROFILEEDGES
 10
-335.102814237979
 20
741.3621031802658
 30
0.0
 40
4.401611912520944
 41
4.401611912520944
  0
SEQEND
  5
50B
  8
PROFILEEDGES
  0
POLYLINE
  5
144
  8
PROFILEEDGES
 66
     1
 10
0.0
 20
0.0
 30
0.0
  0
VERTEX
  5
369
  8
PROFILEEDGES
 10
-335.102814237979
 20
741.3621031802658
 30
0.0
 40
4.401611912520944
 41
4.401611912520944
  0
VERTEX
  5
36A
  8
PROFILEEDGES
 10
-336.1271548683223
 20
740.8421167503485
 30
0.0
 40
4.401611912520944
 41
4.401611912520944
  0
SEQEND
  5
50C
  8
PROFILEEDGES
  0
POLYLINE
  5
145
  8
PROFILEEDGES
 66
     1
 10
0.0
 20
0.0
 30
0.0
  0
VERTEX
  5
36B
  8
PROFILEEDGES
 10
-336.1271548683223
 20
740.8421167503485
 30
0.0
 40
4.401611912520944
 41
4.401611912520944
  0
VERTEX
  5
36C
  8
PROFILEEDGES
 10
-337.0840664399204
 20
740.1875252132508
 30
0.0
 40
4.401611912520944
 41
4.401611912520944
  0
SEQEND
  5
50D
  8
PROFILEEDGES
  0
POLYLINE
  5
146
  8
PROFILEEDGES
 66
     1
 10
0.0
 20
0.0
 30
0.0
  0
VERTEX
  5
36D
  8
PROFILEEDGES
 10
-337.0840664399204
 20
740.1875252132508
 30
0.0
 40
4.401611912520944
 41
4.401611912520944
  0
VERTEX
  5
36E
  8
PROFILEEDGES
 10
-337.9586783600288
 20
739.408501049323
 30
0.0
 40
4.401611912520944
 41
4.401611912520944
  0
SEQEND
  5
50E
  8
PROFILEEDGES
  0
POLYLINE
  5
147
  8
PROFILEEDGES
 66
     1
 10
0.0
 20
0.0
 30
0.0
  0
VERTEX
  5
36F
  8
PROFILEEDGES
 10
-337.9586783600288
 20
739.408501049323
 30
0.0
 40
4.401611912520944
 41
4.401611912520944
  0
VERTEX
  5
370
  8
PROFILEEDGES
 10
-338.7373989885734
 20
738.5171504462409
 30
0.0
 40
4.401611912520944
 41
4.401611912520944
  0
SEQEND
  5
50F
  8
PROFILEEDGES
  0
POLYLINE
  5
148
  8
PROFILEEDGES
 66
     1
 10
0.0
 20
0.0
 30
0.0
  0
VERTEX
  5
371
  8
PROFILEEDGES
 10
-338.7373989885734
 20
738.5171504462409
 30
0.0
 40
4.401611912520944
 41
4.401611912520944
  0
VERTEX
  5
372
  8
PROFILEEDGES
 10
-339.4081268548794
 20
737.5273251664827
 30
0.0
 40
4.401611912520944
 41
4.401611912520944
  0
SEQEND
  5
510
  8
PROFILEEDGES
  0
POLYLINE
  5
149
  8
PROFILEEDGES
 66
     1
 10
0.0
 20
0.0
 30
0.0
  0
VERTEX
  5
373
  8
PROFILEEDGES
 10
-339.4081268548794
 20
737.5273251664827
 30
0.0
 40
4.401611912520944
 41
4.401611912520944
  0
VERTEX
  5
374
  8
PROFILEEDGES
 10
-339.9604387168891
 20
736.454407288241
 30
0.0
 40
4.401611912520944
 41
4.401611912520944
  0
SEQEND
  5
511
  8
PROFILEEDGES
  0
POLYLINE
  5
14A
  8
PROFILEEDGES
 66
     1
 10
0.0
 20
0.0
 30
0.0
  0
VERTEX
  5
375
  8
PROFILEEDGES
 10
-339.9604387168891
 20
736.454407288241
 30
0.0
 40
4.401611912520944
 41
4.401611912520944
  0
VERTEX
  5
376
  8
PROFILEEDGES
 10
-340.3857515403826
 20
735.3150701649183
 30
0.0
 40
4.401611912520944
 41
4.401611912520944
  0
SEQEND
  5
512
  8
PROFILEEDGES
  0
POLYLINE
  5
14B
  8
PROFILEEDGES
 66
     1
 10
0.0
 20
0.0
 30
0.0
  0
VERTEX
  5
377
  8
PROFILEEDGES
 10
-340.6774558810095
 20
734.1270193179533
 30
0.0
 40
4.401611912520944
 41
4.401611912520944
  0
VERTEX
  5
378
  8
PROFILEEDGES
 10
-340.8239411380289
 20
732.9648668685181
 30
0.0
 40
4.401611912520944
 41
4.401611912520944
  0
SEQEND
  5
513
  8
PROFILEEDGES
  0
POLYLINE
  5
14C
  8
PROFILEEDGES
 66
     1
 10
0.0
 20
0.0
 30
0.0
  0
VERTEX
  5
379
  8
PROFILEEDGES
 10
-340.8239411380289
 20
732.9648668685181
 30
0.0
 40
4.401611912520944
 41
4.401611912520944
  0
VERTEX
  5
37A
  8
PROFILEEDGES
 10
-340.8239411376699
 20
73.75040040824271
 30
0.0
 40
4.401611912520944
 41
4.401611912520944
  0
SEQEND
  5
514
  8
PROFILEEDGES
  0
POLYLINE
  5
14D
  8
PROFILEEDGES
 66
     1
 10
0.0
 20
0.0
 30
0.0
  0
VERTEX
  5
37B
  8
PROFILEEDGES
 10
-340.8239411376699
 20
73.75040040824271
 30
0.0
 40
4.401611912520944
 41
4.401611912520944
  0
VERTEX
  5
37C
  8
PROFILEEDGES
 10
-340.7465186926039
 20
72.46360215198372
 30
0.0
 40
4.401611912520944
 41
4.401611912520944
  0
SEQEND
  5
515
  8
PROFILEEDGES
  0
POLYLINE
  5
14E
  8
PROFILEEDGES
 66
     1
 10
0.0
 20
0.0
 30
0.0
  0
VERTEX
  5
37D
  8
PROFILEEDGES
 10
-340.7465186926039
 20
72.46360215198372
 30
0.0
 40
4.401611912520944
 41
4.401611912520944
  0
VERTEX
  5
37E
  8
PROFILEEDGES
 10
-340.5155724693249
 20
71.19876141095678
 30
0.0
 40
4.401611912520944
 41
4.401611912520944
  0
SEQEND
  5
516
  8
PROFILEEDGES
  0
POLYLINE
  5
14F
  8
PROFILEEDGES
 66
     1
 10
0.0
 20
0.0
 30
0.0
  0
VERTEX
  5
37F
  8
PROFILEEDGES
 10
-340.5155724693249
 20
71.19876141095678
 30
0.0
 40
4.401611912520944
 41
4.401611912520944
  0
VERTEX
  5
380
  8
PROFILEEDGES
 10
-340.135043260569
 20
69.97746102436464
 30
0.0
 40
4.401611912520944
 41
4.401611912520944
  0
SEQEND
  5
517
  8
PROFILEEDGES
  0
POLYLINE
  5
150
  8
PROFILEEDGES
 66
     1
 10
0.0
 20
0.0
 30
0.0
  0
VERTEX
  5
381
  8
PROFILEEDGES
 10
-340.135043260569
 20
69.97746102436464
 30
0.0
 40
4.401611912520944
 41
4.401611912520944
  0
VERTEX
  5
382
  8
PROFILEEDGES
 10
-339.6114242954442
 20
68.82054087267214
 30
0.0
 40
4.401611912520944
 41
4.401611912520944
  0
SEQEND
  5
518
  8
PROFILEEDGES
  0
POLYLINE
  5
151
  8
PROFILEEDGES
 66
     1
 10
0.0
 20
0.0
 30
0.0
  0
VERTEX
  5
383
  8
PROFILEEDGES
 10
-339.6114242954442
 20
68.82054087267214
 30
0.0
 40
4.401611912520944
 41
4.401611912520944
  0
VERTEX
  5
384
  8
PROFILEEDGES
 10
-338.9536504410524
 20
67.74774227254096
 30
0.0
 40
4.401611912520944
 41
4.401611912520944
  0
SEQEND
  5
519
  8
PROFILEEDGES
  0
POLYLINE
  5
152
  8
PROFILEEDGES
 66
     1
 10
0.0
 20
0.0
 30
0.0
  0
VERTEX
  5
385
  8
PROFILEEDGES
 10
-338.9536504410524
 20
67.74774227254096
 30
0.0
 40
4.401611912520944
 41
4.401611912520944
  0
VERTEX
  5
386
  8
PROFILEEDGES
 10
-338.1729457407533
 20
66.77737111729817
 30
0.0
 40
4.401611912520944
 41
4.401611912520944
  0
SEQEND
  5
51A
  8
PROFILEEDGES
  0
POLYLINE
  5
153
  8
PROFILEEDGES
 66
     1
 10
0.0
 20
0.0
 30
0.0
  0
VERTEX
  5
387
  8
PROFILEEDGES
 10
-338.1729457407533
 20
66.77737111729817
 30
0.0
 40
4.401611912520944
 41
4.401611912520944
  0
VERTEX
  5
388
  8
PROFILEEDGES
 10
-337.2826318906909
 20
65.92598551099785
 30
0.0
 40
4.401611912520944
 41
4.401611912520944
  0
SEQEND
  5
51B
  8
PROFILEEDGES
  0
POLYLINE
  5
154
  8
PROFILEEDGES
 66
     1
 10
0.0
 20
0.0
 30
0.0
  0
VERTEX
  5
389
  8
PROFILEEDGES
 10
-337.2826318906909
 20
65.92598551099785
 30
0.0
 40
4.401611912520944
 41
4.401611912520944
  0
VERTEX
  5
38A
  8
PROFILEEDGES
 10
-336.297900922584
 20
65.2081132262203
 30
0.0
 40
4.401611912520944
 41
4.401611912520944
  0
SEQEND
  5
51C
  8
PROFILEEDGES
  0
POLYLINE
  5
155
  8
PROFILEEDGES
 66
     1
 10
0.0
 20
0.0
 30
0.0
  0
VERTEX
  5
38B
  8
PROFILEEDGES
 10
-336.297900922584
 20
65.2081132262203
 30
0.0
 40
4.401611912520944
 41
4.401611912520944
  0
VERTEX
  5
38C
  8
PROFILEEDGES
 10
-335.2355559717461
 20
64.6360038067859
 30
0.0
 40
4.401611912520944
 41
4.401611912520944
  0
SEQEND
  5
51D
  8
PROFILEEDGES
  0
POLYLINE
  5
156
  8
PROFILEEDGES
 66
     1
 10
0.0
 20
0.0
 30
0.0
  0
VERTEX
  5
38D
  8
PROFILEEDGES
 10
-335.2355559717461
 20
64.6360038067859
 30
0.0
 40
4.401611912520944
 41
4.401611912520944
  0
VERTEX
  5
38E
  8
PROFILEEDGES
 10
-334.1137245537677
 20
64.21941954545012
 30
0.0
 40
4.401611912520944
 41
4.401611912520944
  0
SEQEND
  5
51E
  8
PROFILEEDGES
  0
POLYLINE
  5
157
  8
PROFILEEDGES
 66
     1
 10
0.0
 20
0.0
 30
0.0
  0
VERTEX
  5
38F
  8
PROFILEEDGES
 10
-334.1137245537677
 20
64.21941954545012
 30
0.0
 40
4.401611912520944
 41
4.401611912520944
  0
VERTEX
  5
390
  8
PROFILEEDGES
 10
-332.9515492423437
 20
63.96546890324905
 30
0.0
 40
4.401611912520944
 41
4.401611912520944
  0
SEQEND
  5
51F
  8
PROFILEEDGES
  0
POLYLINE
  5
158
  8
PROFILEEDGES
 66
     1
 10
0.0
 20
0.0
 30
0.0
  0
VERTEX
  5
391
  8
PROFILEEDGES
 10
-332.9515492423437
 20
63.96546890324905
 30
0.0
 40
4.401611912520944
 41
4.401611912520944
  0
VERTEX
  5
392
  8
PROFILEEDGES
 10
-331.7688610265142
 20
63.87848521298548
 30
0.0
 40
4.401611912520944
 41
4.401611912520944
  0
SEQEND
  5
520
  8
PROFILEEDGES
  0
POLYLINE
  5
159
  8
PROFILEEDGES
 66
     1
 10
0.0
 20
0.0
 30
0.0
  0
VERTEX
  5
393
  8
PROFILEEDGES
 10
273.6101868623361
 20
63.87850769585359
 30
0.0
 40
4.401611912520944
 41
4.401611912520944
  0
VERTEX
  5
394
  8
PROFILEEDGES
 10
274.7946453142126
 20
63.96296310651388
 30
0.0
 40
4.401611912520944
 41
4.401611912520944
  0
SEQEND
  5
521
  8
PROFILEEDGES
  0
POLYLINE
  5
15A
  8
PROFILEEDGES
 66
     1
 10
0.0
 20
0.0
 30
0.0
  0
VERTEX
  5
395
  8
PROFILEEDGES
 10
274.7946453142126
 20
63.96296310651388
 30
0.0
 40
4.401611912520944
 41
4.401611912520944
  0
VERTEX
  5
396
  8
PROFILEEDGES
 10
275.9588373535864
 20
64.21488428300286
 30
0.0
 40
4.401611912520944
 41
4.401611912520944
  0
SEQEND
  5
522
  8
PROFILEEDGES
  0
POLYLINE
  5
15B
  8
PROFILEEDGES
 66
     1
 10
0.0
 20
0.0
 30
0.0
  0
VERTEX
  5
397
  8
PROFILEEDGES
 10
275.9588373535864
 20
64.21488428300286
 30
0.0
 40
4.401611912520944
 41
4.401611912520944
  0
VERTEX
  5
398
  8
PROFILEEDGES
 10
277.0828433318891
 20
64.6299607841461
 30
0.0
 40
4.401611912520944
 41
4.401611912520944
  0
SEQEND
  5
523
  8
PROFILEEDGES
  0
POLYLINE
  5
15C
  8
PROFILEEDGES
 66
     1
 10
0.0
 20
0.0
 30
0.0
  0
VERTEX
  5
399
  8
PROFILEEDGES
 10
277.0828433318891
 20
64.6299607841461
 30
0.0
 40
4.401611912520944
 41
4.401611912520944
  0
VERTEX
  5
39A
  8
PROFILEEDGES
 10
278.1474311951844
 20
65.20109053592651
 30
0.0
 40
4.401611912520944
 41
4.401611912520944
  0
SEQEND
  5
524
  8
PROFILEEDGES
  0
POLYLINE
  5
15D
  8
PROFILEEDGES
 66
     1
 10
0.0
 20
0.0
 30
0.0
  0
VERTEX
  5
39B
  8
PROFILEEDGES
 10
278.1474311951844
 20
65.20109053592651
 30
0.0
 40
4.401611912520944
 41
4.401611912520944
  0
VERTEX
  5
39C
  8
PROFILEEDGES
 10
279.13438554999
 20
65.91850134994324
 30
0.0
 40
4.401611912520944
 41
4.401611912520944
  0
SEQEND
  5
525
  8
PROFILEEDGES
  0
POLYLINE
  5
15E
  8
PROFILEEDGES
 66
     1
 10
0.0
 20
0.0
 30
0.0
  0
VERTEX
  5
39D
  8
PROFILEEDGES
 10
-15.49478396049535
 20
-702.7622197840697
 30
0.0
 40
4.401611912520944
 41
4.401611912520944
  0
VERTEX
  5
39E
  8
PROFILEEDGES
 10
-12.15891425329668
 20
-699.9490390561203
 30
0.0
 40
4.401611912520944
 41
4.401611912520944
  0
SEQEND
  5
526
  8
PROFILEEDGES
  0
POLYLINE
  5
15F
  8
PROFILEEDGES
 66
     1
 10
0.0
 20
0.0
 30
0.0
  0
VERTEX
  5
39F
  8
PROFILEEDGES
 10
-15.49478396049535
 20
-702.7622197840697
 30
0.0
 40
4.401611912520944
 41
4.401611912520944
  0
VERTEX
  5
3A0
  8
PROFILEEDGES
 10
-19.58037327601828
 20
-704.7514389534977
 30
0.0
 40
4.401611912520944
 41
4.401611912520944
  0
SEQEND
  5
527
  8
PROFILEEDGES
  0
LINE
  5
160
  8
0
 10
-409.3832505580611
 20
-874.5053099609822
 30
0.0
 11
-409.3832505580627
 21
-871.5053099609821
 31
0.0
  0
LINE
  5
161
  8
0
 10
356.3911062964964
 20
-874.5053099605651
 30
0.0
 11
356.3911062964949
 21
-871.5053099605651
 31
0.0
  0
POLYLINE
  5
162
  8
PROFILEEDGES
 66
     1
 10
0.0
 20
0.0
 30
0.0
  0
VERTEX
  5
3A1
  8
PROFILEEDGES
 10
-450.7594591377416
 20
-874.5053099610022
 30
0.0
 40
4.401611912520944
 41
4.401611912520944
  0
VERTEX
  5
3A2
  8
PROFILEEDGES
 10
-450.7594591377432
 20
-871.5053099610022
 30
0.0
 40
4.401611912520944
 41
4.401611912520944
  0
SEQEND
  5
528
  8
PROFILEEDGES
  0
POLYLINE
  5
163
  8
PROFILEEDGES
 66
     1
 10
0.0
 20
0.0
 30
0.0
  0
VERTEX
  5
3A3
  8
PROFILEEDGES
 10
392.5815008621717
 20
-874.505309960497
 30
0.0
 40
4.401611912520944
 41
4.401611912520944
  0
VERTEX
  5
3A4
  8
PROFILEEDGES
 10
392.58150086217
 20
-871.505309960497
 30
0.0
 40
4.401611912520944
 41
4.401611912520944
  0
SEQEND
  5
529
  8
PROFILEEDGES
  0
POLYLINE
  5
164
  8
PROFILEEDGES
 66
     1
 10
0.0
 20
0.0
 30
0.0
  0
VERTEX
  5
3A5
  8
PROFILEEDGES
 10
273.6101868622821
 20
-871.505309960604
 30
0.0
 40
4.401611912520944
 41
4.401611912520944
  0
VERTEX
  5
3A6
  8
PROFILEEDGES
 10
-331.7881451376883
 20
-871.5053099609338
 30
0.0
 40
4.401611912520944
 41
4.401611912520944
  0
SEQEND
  5
52A
  8
PROFILEEDGES
  0
LINE
  5
165
  8
0
 10
273.6101868622821
 20
-871.505309960604
 30
0.0
 11
273.6101868620028
 21
-358.886110254712
 31
0.0
  0
LINE
  5
166
  8
0
 10
-331.7881451376883
 20
-871.5053099609338
 30
0.0
 11
-331.7881451379675
 21
-358.8861102550417
 31
0.0
  0
POLYLINE
  5
167
  8
PROFILEEDGES
 66
     1
 10
0.0
 20
0.0
 30
0.0
  0
VERTEX
  5
3A7
  8
PROFILEEDGES
 10
-37.49736030126196
 20
-702.7622197840817
 30
0.0
 40
4.401611912520944
 41
4.401611912520944
  0
VERTEX
  5
3A8
  8
PROFILEEDGES
 10
-33.41177098573388
 20
-704.7514389535139
 30
0.0
 40
4.401611912520944
 41
4.401611912520944
  0
SEQEND
  5
52B
  8
PROFILEEDGES
  0
POLYLINE
  5
168
  8
PROFILEEDGES
 66
     1
 10
0.0
 20
0.0
 30
0.0
  0
VERTEX
  5
3A9
  8
PROFILEEDGES
 10
-33.41177098573388
 20
-704.7514389535139
 30
0.0
 40
4.401611912520944
 41
4.401611912520944
  0
VERTEX
  5
3AA
  8
PROFILEEDGES
 10
-28.85488822199232
 20
-705.7811345653738
 30
0.0
 40
4.401611912520944
 41
4.401611912520944
  0
SEQEND
  5
52C
  8
PROFILEEDGES
  0
POLYLINE
  5
169
  8
PROFILEEDGES
 66
     1
 10
0.0
 20
0.0
 30
0.0
  0
VERTEX
  5
3AB
  8
PROFILEEDGES
 10
-28.85488822199232
 20
-705.7811345653738
 30
0.0
 40
4.401611912520944
 41
4.401611912520944
  0
VERTEX
  5
3AC
  8
PROFILEEDGES
 10
-24.13725603976165
 20
-705.7811345653712
 30
0.0
 40
4.401611912520944
 41
4.401611912520944
  0
SEQEND
  5
52D
  8
PROFILEEDGES
  0
POLYLINE
  5
16A
  8
PROFILEEDGES
 66
     1
 10
0.0
 20
0.0
 30
0.0
  0
VERTEX
  5
3AD
  8
PROFILEEDGES
 10
-24.13725603976165
 20
-705.7811345653712
 30
0.0
 40
4.401611912520944
 41
4.401611912520944
  0
VERTEX
  5
3AE
  8
PROFILEEDGES
 10
-19.58037327601828
 20
-704.7514389534977
 30
0.0
 40
4.401611912520944
 41
4.401611912520944
  0
SEQEND
  5
52E
  8
PROFILEEDGES
  0
POLYLINE
  5
16B
  8
PROFILEEDGES
 66
     1
 10
0.0
 20
0.0
 30
0.0
  0
VERTEX
  5
3AF
  8
PROFILEEDGES
 10
-12.15891425329668
 20
-699.9490390561203
 30
0.0
 40
4.401611912520944
 41
4.401611912520944
  0
VERTEX
  5
3B0
  8
PROFILEEDGES
 10
-9.800098162183144
 20
-696.5036103872698
 30
0.0
 40
4.401611912520944
 41
4.401611912520944
  0
SEQEND
  5
52F
  8
PROFILEEDGES
  0
POLYLINE
  5
16C
  8
PROFILEEDGES
 66
     1
 10
0.0
 20
0.0
 30
0.0
  0
VERTEX
  5
3B1
  8
PROFILEEDGES
 10
-9.800098162183144
 20
-696.5036103872698
 30
0.0
 40
4.401611912520944
 41
4.401611912520944
  0
VERTEX
  5
3B2
  8
PROFILEEDGES
 10
-8.57908510563899
 20
-692.6607340474594
 30
0.0
 40
4.401611912520944
 41
4.401611912520944
  0
SEQEND
  5
530
  8
PROFILEEDGES
  0
POLYLINE
  5
16D
  8
PROFILEEDGES
 66
     1
 10
0.0
 20
0.0
 30
0.0
  0
VERTEX
  5
3B3
  8
PROFILEEDGES
 10
-8.57908510563899
 20
-692.6607340474594
 30
0.0
 40
4.401611912520944
 41
4.401611912520944
  0
VERTEX
  5
3B4
  8
PROFILEEDGES
 10
-8.579085105641157
 20
-688.6822957085905
 30
0.0
 40
4.401611912520944
 41
4.401611912520944
  0
SEQEND
  5
531
  8
PROFILEEDGES
  0
POLYLINE
  5
16E
  8
PROFILEEDGES
 66
     1
 10
0.0
 20
0.0
 30
0.0
  0
VERTEX
  5
3B5
  8
PROFILEEDGES
 10
-8.579085105641157
 20
-688.6822957085905
 30
0.0
 40
4.401611912520944
 41
4.401611912520944
  0
VERTEX
  5
3B6
  8
PROFILEEDGES
 10
-9.80009816218946
 20
-684.8394193687813
 30
0.0
 40
4.401611912520944
 41
4.401611912520944
  0
SEQEND
  5
532
  8
PROFILEEDGES
  0
POLYLINE
  5
16F
  8
PROFILEEDGES
 66
     1
 10
0.0
 20
0.0
 30
0.0
  0
VERTEX
  5
3B7
  8
PROFILEEDGES
 10
-9.80009816218946
 20
-684.8394193687813
 30
0.0
 40
4.401611912520944
 41
4.401611912520944
  0
VERTEX
  5
3B8
  8
PROFILEEDGES
 10
-12.1589142533122
 20
-681.3939906999333
 30
0.0
 40
4.401611912520944
 41
4.401611912520944
  0
SEQEND
  5
533
  8
PROFILEEDGES
  0
POLYLINE
  5
170
  8
PROFILEEDGES
 66
     1
 10
0.0
 20
0.0
 30
0.0
  0
VERTEX
  5
3B9
  8
PROFILEEDGES
 10
-12.1589142533122
 20
-681.3939906999333
 30
0.0
 40
4.401611912520944
 41
4.401611912520944
  0
VERTEX
  5
3BA
  8
PROFILEEDGES
 10
-15.49478396050852
 20
-678.5808099719876
 30
0.0
 40
4.401611912520944
 41
4.401611912520944
  0
SEQEND
  5
534
  8
PROFILEEDGES
  0
POLYLINE
  5
171
  8
PROFILEEDGES
 66
     1
 10
0.0
 20
0.0
 30
0.0
  0
VERTEX
  5
3BB
  8
PROFILEEDGES
 10
-15.49478396050852
 20
-678.5808099719876
 30
0.0
 40
4.401611912520944
 41
4.401611912520944
  0
VERTEX
  5
3BC
  8
PROFILEEDGES
 10
-19.58037327603109
 20
-676.5915908025554
 30
0.0
 40
4.401611912520944
 41
4.401611912520944
  0
SEQEND
  5
535
  8
PROFILEEDGES
  0
POLYLINE
  5
172
  8
PROFILEEDGES
 66
     1
 10
0.0
 20
0.0
 30
0.0
  0
VERTEX
  5
3BD
  8
PROFILEEDGES
 10
-19.58037327603109
 20
-676.5915908025554
 30
0.0
 40
4.401611912520944
 41
4.401611912520944
  0
VERTEX
  5
3BE
  8
PROFILEEDGES
 10
-24.13725603977536
 20
-675.5618951906955
 30
0.0
 40
4.401611912520944
 41
4.401611912520944
  0
SEQEND
  5
536
  8
PROFILEEDGES
  0
POLYLINE
  5
173
  8
PROFILEEDGES
 66
     1
 10
0.0
 20
0.0
 30
0.0
  0
VERTEX
  5
3BF
  8
PROFILEEDGES
 10
-24.13725603977536
 20
-675.5618951906955
 30
0.0
 40
4.401611912520944
 41
4.401611912520944
  0
VERTEX
  5
3C0
  8
PROFILEEDGES
 10
-28.85488822201704
 20
-675.5618951906981
 30
0.0
 40
4.401611912520944
 41
4.401611912520944
  0
SEQEND
  5
537
  8
PROFILEEDGES
  0
POLYLINE
  5
174
  8
PROFILEEDGES
 66
     1
 10
0.0
 20
0.0
 30
0.0
  0
VERTEX
  5
3C1
  8
PROFILEEDGES
 10
-28.85488822201704
 20
-675.5618951906981
 30
0.0
 40
4.401611912520944
 41
4.401611912520944
  0
VERTEX
  5
3C2
  8
PROFILEEDGES
 10
-33.41177098575472
 20
-676.5915908025629
 30
0.0
 40
4.401611912520944
 41
4.401611912520944
  0
SEQEND
  5
538
  8
PROFILEEDGES
  0
POLYLINE
  5
175
  8
PROFILEEDGES
 66
     1
 10
0.0
 20
0.0
 30
0.0
  0
VERTEX
  5
3C3
  8
PROFILEEDGES
 10
-33.41177098575472
 20
-676.5915908025629
 30
0.0
 40
4.401611912520944
 41
4.401611912520944
  0
VERTEX
  5
3C4
  8
PROFILEEDGES
 10
-37.49736030127784
 20
-678.5808099719997
 30
0.0
 40
4.401611912520944
 41
4.401611912520944
  0
SEQEND
  5
539
  8
PROFILEEDGES
  0
POLYLINE
  5
176
  8
PROFILEEDGES
 66
     1
 10
0.0
 20
0.0
 30
0.0
  0
VERTEX
  5
3C5
  8
PROFILEEDGES
 10
-37.49736030127784
 20
-678.5808099719997
 30
0.0
 40
4.401611912520944
 41
4.401611912520944
  0
VERTEX
  5
3C6
  8
PROFILEEDGES
 10
-40.8332300084738
 20
-681.393990699949
 30
0.0
 40
4.401611912520944
 41
4.401611912520944
  0
SEQEND
  5
53A
  8
PROFILEEDGES
  0
POLYLINE
  5
177
  8
PROFILEEDGES
 66
     1
 10
0.0
 20
0.0
 30
0.0
  0
VERTEX
  5
3C7
  8
PROFILEEDGES
 10
-40.8332300084738
 20
-681.393990699949
 30
0.0
 40
4.401611912520944
 41
4.401611912520944
  0
VERTEX
  5
3C8
  8
PROFILEEDGES
 10
-43.19204609958454
 20
-684.8394193687996
 30
0.0
 40
4.401611912520944
 41
4.401611912520944
  0
SEQEND
  5
53B
  8
PROFILEEDGES
  0
POLYLINE
  5
178
  8
PROFILEEDGES
 66
     1
 10
0.0
 20
0.0
 30
0.0
  0
VERTEX
  5
3C9
  8
PROFILEEDGES
 10
-43.19204609958454
 20
-684.8394193687996
 30
0.0
 40
4.401611912520944
 41
4.401611912520944
  0
VERTEX
  5
3CA
  8
PROFILEEDGES
 10
-44.41305915613965
 20
-688.68229570861
 30
0.0
 40
4.401611912520944
 41
4.401611912520944
  0
SEQEND
  5
53C
  8
PROFILEEDGES
  0
POLYLINE
  5
179
  8
PROFILEEDGES
 66
     1
 10
0.0
 20
0.0
 30
0.0
  0
VERTEX
  5
3CB
  8
PROFILEEDGES
 10
-44.41305915613965
 20
-688.68229570861
 30
0.0
 40
4.401611912520944
 41
4.401611912520944
  0
VERTEX
  5
3CC
  8
PROFILEEDGES
 10
-44.41305915613469
 20
-692.6607340474789
 30
0.0
 40
4.401611912520944
 41
4.401611912520944
  0
SEQEND
  5
53D
  8
PROFILEEDGES
  0
POLYLINE
  5
17A
  8
PROFILEEDGES
 66
     1
 10
0.0
 20
0.0
 30
0.0
  0
VERTEX
  5
3CD
  8
PROFILEEDGES
 10
-44.41305915613469
 20
-692.6607340474789
 30
0.0
 40
4.401611912520944
 41
4.401611912520944
  0
VERTEX
  5
3CE
  8
PROFILEEDGES
 10
-43.19204609958093
 20
-696.503610387288
 30
0.0
 40
4.401611912520944
 41
4.401611912520944
  0
SEQEND
  5
53E
  8
PROFILEEDGES
  0
POLYLINE
  5
17B
  8
PROFILEEDGES
 66
     1
 10
0.0
 20
0.0
 30
0.0
  0
VERTEX
  5
3CF
  8
PROFILEEDGES
 10
-43.19204609958093
 20
-696.503610387288
 30
0.0
 40
4.401611912520944
 41
4.401611912520944
  0
VERTEX
  5
3D0
  8
PROFILEEDGES
 10
-40.8332300084664
 20
-699.9490390561359
 30
0.0
 40
4.401611912520944
 41
4.401611912520944
  0
SEQEND
  5
53F
  8
PROFILEEDGES
  0
POLYLINE
  5
17C
  8
PROFILEEDGES
 66
     1
 10
0.0
 20
0.0
 30
0.0
  0
VERTEX
  5
3D1
  8
PROFILEEDGES
 10
-40.8332300084664
 20
-699.9490390561359
 30
0.0
 40
4.401611912520944
 41
4.401611912520944
  0
VERTEX
  5
3D2
  8
PROFILEEDGES
 10
-37.49736030126196
 20
-702.7622197840817
 30
0.0
 40
4.401611912520944
 41
4.401611912520944
  0
SEQEND
  5
540
  8
PROFILEEDGES
  0
POLYLINE
  5
17D
  8
PROFILEEDGES
 66
     1
 10
0.0
 20
0.0
 30
0.0
  0
VERTEX
  5
3D3
  8
PROFILEEDGES
 10
-43.95188956595463
 20
-488.6565230500469
 30
0.0
 40
4.401611912520944
 41
4.401611912520944
  0
VERTEX
  5
3D4
  8
PROFILEEDGES
 10
-42.14652988982536
 20
-492.3321208026849
 30
0.0
 40
4.401611912520944
 41
4.401611912520944
  0
SEQEND
  5
541
  8
PROFILEEDGES
  0
POLYLINE
  5
17E
  8
PROFILEEDGES
 66
     1
 10
0.0
 20
0.0
 30
0.0
  0
VERTEX
  5
3D5
  8
PROFILEEDGES
 10
-42.14652988982536
 20
-492.3321208026849
 30
0.0
 40
4.401611912520944
 41
4.401611912520944
  0
VERTEX
  5
3D6
  8
PROFILEEDGES
 10
-39.27461738103023
 20
-495.4884281479681
 30
0.0
 40
4.401611912520944
 41
4.401611912520944
  0
SEQEND
  5
542
  8
PROFILEEDGES
  0
POLYLINE
  5
17F
  8
PROFILEEDGES
 66
     1
 10
0.0
 20
0.0
 30
0.0
  0
VERTEX
  5
3D7
  8
PROFILEEDGES
 10
-39.27461738103023
 20
-495.4884281479681
 30
0.0
 40
4.401611912520944
 41
4.401611912520944
  0
VERTEX
  5
3D8
  8
PROFILEEDGES
 10
-35.53186813099016
 20
-497.9103479563599
 30
0.0
 40
4.401611912520944
 41
4.401611912520944
  0
SEQEND
  5
543
  8
PROFILEEDGES
  0
POLYLINE
  5
180
  8
PROFILEEDGES
 66
     1
 10
0.0
 20
0.0
 30
0.0
  0
VERTEX
  5
3D9
  8
PROFILEEDGES
 10
-35.53186813099016
 20
-497.9103479563599
 30
0.0
 40
4.401611912520944
 41
4.401611912520944
  0
VERTEX
  5
3DA
  8
PROFILEEDGES
 10
-31.17334431590452
 20
-499.4328303953247
 30
0.0
 40
4.401611912520944
 41
4.401611912520944
  0
SEQEND
  5
544
  8
PROFILEEDGES
  0
POLYLINE
  5
181
  8
PROFILEEDGES
 66
     1
 10
0.0
 20
0.0
 30
0.0
  0
VERTEX
  5
3DB
  8
PROFILEEDGES
 10
-31.17334431590452
 20
-499.4328303953247
 30
0.0
 40
4.401611912520944
 41
4.401611912520944
  0
VERTEX
  5
3DC
  8
PROFILEEDGES
 10
-26.49607213098906
 20
-499.9521208026763
 30
0.0
 40
4.401611912520944
 41
4.401611912520944
  0
SEQEND
  5
545
  8
PROFILEEDGES
  0
POLYLINE
  5
182
  8
PROFILEEDGES
 66
     1
 10
0.0
 20
0.0
 30
0.0
  0
VERTEX
  5
3DD
  8
PROFILEEDGES
 10
-26.49607213098906
 20
-499.9521208026763
 30
0.0
 40
4.401611912520944
 41
4.401611912520944
  0
VERTEX
  5
3DE
  8
PROFILEEDGES
 10
-21.81879994606863
 20
-499.4328303953197
 30
0.0
 40
4.401611912520944
 41
4.401611912520944
  0
SEQEND
  5
546
  8
PROFILEEDGES
  0
POLYLINE
  5
183
  8
PROFILEEDGES
 66
     1
 10
0.0
 20
0.0
 30
0.0
  0
VERTEX
  5
3DF
  8
PROFILEEDGES
 10
-21.81879994606863
 20
-499.4328303953197
 30
0.0
 40
4.401611912520944
 41
4.401611912520944
  0
VERTEX
  5
3E0
  8
PROFILEEDGES
 10
-17.46027613099292
 20
-497.9103479563501
 30
0.0
 40
4.401611912520944
 41
4.401611912520944
  0
SEQEND
  5
547
  8
PROFILEEDGES
  0
POLYLINE
  5
184
  8
PROFILEEDGES
 66
     1
 10
0.0
 20
0.0
 30
0.0
  0
VERTEX
  5
3E1
  8
PROFILEEDGES
 10
-17.46027613099292
 20
-497.9103479563501
 30
0.0
 40
4.401611912520944
 41
4.401611912520944
  0
VERTEX
  5
3E2
  8
PROFILEEDGES
 10
-13.71752688095276
 20
-495.4884281479543
 30
0.0
 40
4.401611912520944
 41
4.401611912520944
  0
SEQEND
  5
548
  8
PROFILEEDGES
  0
POLYLINE
  5
185
  8
PROFILEEDGES
 66
     1
 10
0.0
 20
0.0
 30
0.0
  0
VERTEX
  5
3E3
  8
PROFILEEDGES
 10
-13.71752688095276
 20
-495.4884281479543
 30
0.0
 40
4.401611912520944
 41
4.401611912520944
  0
VERTEX
  5
3E4
  8
PROFILEEDGES
 10
-10.84561437216115
 20
-492.3321208026679
 30
0.0
 40
4.401611912520944
 41
4.401611912520944
  0
SEQEND
  5
549
  8
PROFILEEDGES
  0
POLYLINE
  5
186
  8
PROFILEEDGES
 66
     1
 10
0.0
 20
0.0
 30
0.0
  0
VERTEX
  5
3E5
  8
PROFILEEDGES
 10
-10.84561437216115
 20
-492.3321208026679
 30
0.0
 40
4.401611912520944
 41
4.401611912520944
  0
VERTEX
  5
3E6
  8
PROFILEEDGES
 10
-9.040254696038557
 20
-488.6565230500279
 30
0.0
 40
4.401611912520944
 41
4.401611912520944
  0
SEQEND
  5
54A
  8
PROFILEEDGES
  0
POLYLINE
  5
187
  8
PROFILEEDGES
 66
     1
 10
0.0
 20
0.0
 30
0.0
  0
VERTEX
  5
3E7
  8
PROFILEEDGES
 10
-9.040254696038557
 20
-488.6565230500279
 30
0.0
 40
4.401611912520944
 41
4.401611912520944
  0
VERTEX
  5
3E8
  8
PROFILEEDGES
 10
-8.424480131000117
 20
-484.7121208026665
 30
0.0
 40
4.401611912520944
 41
4.401611912520944
  0
SEQEND
  5
54B
  8
PROFILEEDGES
  0
POLYLINE
  5
188
  8
PROFILEEDGES
 66
     1
 10
0.0
 20
0.0
 30
0.0
  0
VERTEX
  5
3E9
  8
PROFILEEDGES
 10
-8.424480131000117
 20
-484.7121208026665
 30
0.0
 40
4.401611912520944
 41
4.401611912520944
  0
VERTEX
  5
3EA
  8
PROFILEEDGES
 10
-9.040254696042888
 20
-480.7677185553059
 30
0.0
 40
4.401611912520944
 41
4.401611912520944
  0
SEQEND
  5
54C
  8
PROFILEEDGES
  0
POLYLINE
  5
189
  8
PROFILEEDGES
 66
     1
 10
0.0
 20
0.0
 30
0.0
  0
VERTEX
  5
3EB
  8
PROFILEEDGES
 10
-9.040254696042888
 20
-480.7677185553059
 30
0.0
 40
4.401611912520944
 41
4.401611912520944
  0
VERTEX
  5
3EC
  8
PROFILEEDGES
 10
-10.84561437216945
 20
-477.0921208026679
 30
0.0
 40
4.401611912520944
 41
4.401611912520944
  0
SEQEND
  5
54D
  8
PROFILEEDGES
  0
POLYLINE
  5
18A
  8
PROFILEEDGES
 66
     1
 10
0.0
 20
0.0
 30
0.0
  0
VERTEX
  5
3ED
  8
PROFILEEDGES
 10
-10.84561437216945
 20
-477.0921208026679
 30
0.0
 40
4.401611912520944
 41
4.401611912520944
  0
VERTEX
  5
3EE
  8
PROFILEEDGES
 10
-13.71752688096449
 20
-473.9358134573847
 30
0.0
 40
4.401611912520944
 41
4.401611912520944
  0
SEQEND
  5
54E
  8
PROFILEEDGES
  0
POLYLINE
  5
18B
  8
PROFILEEDGES
 66
     1
 10
0.0
 20
0.0
 30
0.0
  0
VERTEX
  5
3EF
  8
PROFILEEDGES
 10
-13.71752688096449
 20
-473.9358134573847
 30
0.0
 40
4.401611912520944
 41
4.401611912520944
  0
VERTEX
  5
3F0
  8
PROFILEEDGES
 10
-17.46027613100735
 20
-471.5138936489928
 30
0.0
 40
4.401611912520944
 41
4.401611912520944
  0
SEQEND
  5
54F
  8
PROFILEEDGES
  0
POLYLINE
  5
18C
  8
PROFILEEDGES
 66
     1
 10
0.0
 20
0.0
 30
0.0
  0
VERTEX
  5
3F1
  8
PROFILEEDGES
 10
-17.46027613100735
 20
-471.5138936489928
 30
0.0
 40
4.401611912520944
 41
4.401611912520944
  0
VERTEX
  5
3F2
  8
PROFILEEDGES
 10
-21.8187999460847
 20
-469.991411210028
 30
0.0
 40
4.401611912520944
 41
4.401611912520944
  0
SEQEND
  5
550
  8
PROFILEEDGES
  0
POLYLINE
  5
18D
  8
PROFILEEDGES
 66
     1
 10
0.0
 20
0.0
 30
0.0
  0
VERTEX
  5
3F3
  8
PROFILEEDGES
 10
-21.8187999460847
 20
-469.991411210028
 30
0.0
 40
4.401611912520944
 41
4.401611912520944
  0
VERTEX
  5
3F4
  8
PROFILEEDGES
 10
-26.49607213100566
 20
-469.4721208026764
 30
0.0
 40
4.401611912520944
 41
4.401611912520944
  0
SEQEND
  5
551
  8
PROFILEEDGES
  0
POLYLINE
  5
18E
  8
PROFILEEDGES
 66
     1
 10
0.0
 20
0.0
 30
0.0
  0
VERTEX
  5
3F5
  8
PROFILEEDGES
 10
-26.49607213100566
 20
-469.4721208026764
 30
0.0
 40
4.401611912520944
 41
4.401611912520944
  0
VERTEX
  5
3F6
  8
PROFILEEDGES
 10
-31.17334431592609
 20
-469.991411210033
 30
0.0
 40
4.401611912520944
 41
4.401611912520944
  0
SEQEND
  5
552
  8
PROFILEEDGES
  0
POLYLINE
  5
18F
  8
PROFILEEDGES
 66
     1
 10
0.0
 20
0.0
 30
0.0
  0
VERTEX
  5
3F7
  8
PROFILEEDGES
 10
-31.17334431592609
 20
-469.991411210033
 30
0.0
 40
4.401611912520944
 41
4.401611912520944
  0
VERTEX
  5
3F8
  8
PROFILEEDGES
 10
-35.5318681310046
 20
-471.5138936490027
 30
0.0
 40
4.401611912520944
 41
4.401611912520944
  0
SEQEND
  5
553
  8
PROFILEEDGES
  0
POLYLINE
  5
190
  8
PROFILEEDGES
 66
     1
 10
0.0
 20
0.0
 30
0.0
  0
VERTEX
  5
3F9
  8
PROFILEEDGES
 10
-35.5318681310046
 20
-471.5138936490027
 30
0.0
 40
4.401611912520944
 41
4.401611912520944
  0
VERTEX
  5
3FA
  8
PROFILEEDGES
 10
-39.27461738104476
 20
-473.9358134573985
 30
0.0
 40
4.401611912520944
 41
4.401611912520944
  0
SEQEND
  5
554
  8
PROFILEEDGES
  0
POLYLINE
  5
191
  8
PROFILEEDGES
 66
     1
 10
0.0
 20
0.0
 30
0.0
  0
VERTEX
  5
3FB
  8
PROFILEEDGES
 10
-39.27461738104476
 20
-473.9358134573985
 30
0.0
 40
4.401611912520944
 41
4.401611912520944
  0
VERTEX
  5
3FC
  8
PROFILEEDGES
 10
-42.14652988983366
 20
-477.0921208026848
 30
0.0
 40
4.401611912520944
 41
4.401611912520944
  0
SEQEND
  5
555
  8
PROFILEEDGES
  0
POLYLINE
  5
192
  8
PROFILEEDGES
 66
     1
 10
0.0
 20
0.0
 30
0.0
  0
VERTEX
  5
3FD
  8
PROFILEEDGES
 10
-42.14652988983366
 20
-477.0921208026848
 30
0.0
 40
4.401611912520944
 41
4.401611912520944
  0
VERTEX
  5
3FE
  8
PROFILEEDGES
 10
-43.95188956595896
 20
-480.7677185553249
 30
0.0
 40
4.401611912520944
 41
4.401611912520944
  0
SEQEND
  5
556
  8
PROFILEEDGES
  0
POLYLINE
  5
193
  8
PROFILEEDGES
 66
     1
 10
0.0
 20
0.0
 30
0.0
  0
VERTEX
  5
3FF
  8
PROFILEEDGES
 10
-43.95188956595896
 20
-480.7677185553249
 30
0.0
 40
4.401611912520944
 41
4.401611912520944
  0
VERTEX
  5
400
  8
PROFILEEDGES
 10
-44.56766413099465
 20
-484.7121208026862
 30
0.0
 40
4.401611912520944
 41
4.401611912520944
  0
SEQEND
  5
557
  8
PROFILEEDGES
  0
POLYLINE
  5
194
  8
PROFILEEDGES
 66
     1
 10
0.0
 20
0.0
 30
0.0
  0
VERTEX
  5
401
  8
PROFILEEDGES
 10
-44.56766413099465
 20
-484.7121208026862
 30
0.0
 40
4.401611912520944
 41
4.401611912520944
  0
VERTEX
  5
402
  8
PROFILEEDGES
 10
-43.95188956595463
 20
-488.6565230500469
 30
0.0
 40
4.401611912520944
 41
4.401611912520944
  0
SEQEND
  5
558
  8
PROFILEEDGES
  0
POLYLINE
  5
195
  8
PROFILEEDGES
 66
     1
 10
0.0
 20
0.0
 30
0.0
  0
VERTEX
  5
403
  8
PROFILEEDGES
 10
-349.8210444720149
 20
-871.5053099609427
 30
0.0
 40
4.401611912520944
 41
4.401611912520944
  0
VERTEX
  5
404
  8
PROFILEEDGES
 10
-349.8210444722912
 20
-358.8861102550139
 30
0.0
 40
4.401611912520944
 41
4.401611912520944
  0
SEQEND
  5
559
  8
PROFILEEDGES
  0
POLYLINE
  5
196
  8
PROFILEEDGES
 66
     1
 10
0.0
 20
0.0
 30
0.0
  0
VERTEX
  5
405
  8
PROFILEEDGES
 10
291.6817788622821
 20
-871.5053099605932
 30
0.0
 40
4.401611912520944
 41
4.401611912520944
  0
VERTEX
  5
406
  8
PROFILEEDGES
 10
291.6817788620111
 20
-358.8861102546645
 30
0.0
 40
4.401611912520944
 41
4.401611912520944
  0
SEQEND
  5
55A
  8
PROFILEEDGES
  0
POLYLINE
  5
197
  8
PROFILEEDGES
 66
     1
 10
0.0
 20
0.0
 30
0.0
  0
VERTEX
  5
407
  8
PROFILEEDGES
 10
-340.6774558810095
 20
734.1270193179533
 30
0.0
 40
4.401611912520944
 41
4.401611912520944
  0
VERTEX
  5
408
  8
PROFILEEDGES
 10
-340.6323345887909
 20
734.1894549009085
 30
0.0
 40
4.401611912520944
 41
4.401611912520944
  0
SEQEND
  5
55B
  8
PROFILEEDGES
  0
POLYLINE
  5
198
  8
PROFILEEDGES
 66
     1
 10
0.0
 20
0.0
 30
0.0
  0
VERTEX
  5
409
  8
PROFILEEDGES
 10
-333.7700355089013
 20
741.7622590390545
 30
0.0
 40
4.401611912520944
 41
4.401611912520944
  0
VERTEX
  5
40A
  8
PROFILEEDGES
 10
-332.9163200998241
 20
741.9681553209798
 30
0.0
 40
4.401611912520944
 41
4.401611912520944
  0
SEQEND
  5
55C
  8
PROFILEEDGES
  0
POLYLINE
  5
199
  8
PROFILEEDGES
 66
     1
 10
0.0
 20
0.0
 30
0.0
  0
VERTEX
  5
40B
  8
PROFILEEDGES
 10
-333.7700355089013
 20
741.7622590390545
 30
0.0
 40
4.401611912520944
 41
4.401611912520944
  0
VERTEX
  5
40C
  8
PROFILEEDGES
 10
-334.026963002362
 20
741.7394038123168
 30
0.0
 40
4.401611912520944
 41
4.401611912520944
  0
SEQEND
  5
55D
  8
PROFILEEDGES
  0
POLYLINE
  5
19A
  8
PROFILEEDGES
 66
     1
 10
0.0
 20
0.0
 30
0.0
  0
VERTEX
  5
40D
  8
PROFILEEDGES
 10
-340.3857515403826
 20
735.3150701649183
 30
0.0
 40
4.401611912520944
 41
4.401611912520944
  0
VERTEX
  5
40E
  8
PROFILEEDGES
 10
-340.6323345887909
 20
734.1894549009085
 30
0.0
 40
4.401611912520944
 41
4.401611912520944
  0
SEQEND
  5
55E
  8
PROFILEEDGES
  0
POLYLINE
  5
19B
  8
PROFILEEDGES
 66
     1
 10
0.0
 20
0.0
 30
0.0
  0
VERTEX
  5
40F
  8
PROFILEEDGES
 10
273.6101868622821
 20
-871.505309960604
 30
0.0
 40
4.401611912520944
 41
4.401611912520944
  0
VERTEX
  5
410
  8
PROFILEEDGES
 10
291.6817788622821
 20
-871.5053099605932
 30
0.0
 40
4.401611912520944
 41
4.401611912520944
  0
SEQEND
  5
55F
  8
PROFILEEDGES
  0
POLYLINE
  5
19C
  8
PROFILEEDGES
 66
     1
 10
0.0
 20
0.0
 30
0.0
  0
VERTEX
  5
411
  8
PROFILEEDGES
 10
-332.9163200998241
 20
741.9681553209798
 30
0.0
 40
4.401611912520944
 41
4.401611912520944
  0
VERTEX
  5
412
  8
PROFILEEDGES
 10
-331.5074768254921
 20
742.0638713028993
 30
0.0
 40
4.401611912520944
 41
4.401611912520944
  0
SEQEND
  5
560
  8
PROFILEEDGES
  0
POLYLINE
  5
19D
  8
PROFILEEDGES
 66
     1
 10
0.0
 20
0.0
 30
0.0
  0
VERTEX
  5
413
  8
PROFILEEDGES
 10
-331.7881451376373
 20
54.09080040824987
 30
0.0
 40
4.401611912520944
 41
4.401611912520944
  0
VERTEX
  5
414
  8
PROFILEEDGES
 10
273.6101868623331
 20
54.09080040857965
 30
0.0
 40
4.401611912520944
 41
4.401611912520944
  0
SEQEND
  5
561
  8
PROFILEEDGES
  0
POLYLINE
  5
19E
  8
PROFILEEDGES
 66
     1
 10
0.0
 20
0.0
 30
0.0
  0
VERTEX
  5
415
  8
PROFILEEDGES
 10
275.8751579229754
 20
751.8515785905033
 30
0.0
 40
4.401611912520944
 41
4.401611912520944
  0
VERTEX
  5
416
  8
PROFILEEDGES
 10
-331.78814513802
 20
751.8515785901731
 30
0.0
 40
4.401611912520944
 41
4.401611912520944
  0
SEQEND
  5
562
  8
PROFILEEDGES
  0
POLYLINE
  5
19F
  8
PROFILEEDGES
 66
     1
 10
0.0
 20
0.0
 30
0.0
  0
VERTEX
  5
417
  8
PROFILEEDGES
 10
273.6101868623361
 20
63.87850769585359
 30
0.0
 40
4.401611912520944
 41
4.401611912520944
  0
VERTEX
  5
418
  8
PROFILEEDGES
 10
-331.7688610265142
 20
63.87848521298548
 30
0.0
 40
4.401611912520944
 41
4.401611912520944
  0
SEQEND
  5
563
  8
PROFILEEDGES
  0
POLYLINE
  5
1A0
  8
PROFILEEDGES
 66
     1
 10
0.0
 20
0.0
 30
0.0
  0
VERTEX
  5
419
  8
PROFILEEDGES
 10
-331.5074768254921
 20
742.0638713028993
 30
0.0
 40
4.401611912520944
 41
4.401611912520944
  0
VERTEX
  5
41A
  8
PROFILEEDGES
 10
275.0365622104176
 20
742.0638713032289
 30
0.0
 40
4.401611912520944
 41
4.401611912520944
  0
SEQEND
  5
564
  8
PROFILEEDGES
  0
POLYLINE
  5
1A1
  8
PROFILEEDGES
 66
     1
 10
0.0
 20
0.0
 30
0.0
  0
VERTEX
  5
41B
  8
PROFILEEDGES
 10
-409.3832505580627
 20
-871.5053099609821
 30
0.0
 40
4.401611912520944
 41
4.401611912520944
  0
VERTEX
  5
41C
  8
PROFILEEDGES
 10
-349.8210444720149
 20
-871.5053099609427
 30
0.0
 40
4.401611912520944
 41
4.401611912520944
  0
SEQEND
  5
565
  8
PROFILEEDGES
  0
POLYLINE
  5
1A2
  8
PROFILEEDGES
 66
     1
 10
0.0
 20
0.0
 30
0.0
  0
VERTEX
  5
41D
  8
PROFILEEDGES
 10
291.6817788622821
 20
-871.5053099605932
 30
0.0
 40
4.401611912520944
 41
4.401611912520944
  0
VERTEX
  5
41E
  8
PROFILEEDGES
 10
356.3911062964949
 20
-871.5053099605651
 30
0.0
 40
4.401611912520944
 41
4.401611912520944
  0
SEQEND
  5
566
  8
PROFILEEDGES
  0
POLYLINE
  5
1A3
  8
PROFILEEDGES
 66
     1
 10
0.0
 20
0.0
 30
0.0
  0
VERTEX
  5
41F
  8
PROFILEEDGES
 10
-450.7594591377432
 20
-871.5053099610022
 30
0.0
 40
4.401611912520944
 41
4.401611912520944
  0
VERTEX
  5
420
  8
PROFILEEDGES
 10
-409.3832505580627
 20
-871.5053099609821
 30
0.0
 40
4.401611912520944
 41
4.401611912520944
  0
SEQEND
  5
567
  8
PROFILEEDGES
  0
POLYLINE
  5
1A4
  8
PROFILEEDGES
 66
     1
 10
0.0
 20
0.0
 30
0.0
  0
VERTEX
  5
421
  8
PROFILEEDGES
 10
356.3911062964964
 20
-874.5053099605651
 30
0.0
 40
4.401611912520944
 41
4.401611912520944
  0
VERTEX
  5
422
  8
PROFILEEDGES
 10
392.5815008621717
 20
-874.505309960497
 30
0.0
 40
4.401611912520944
 41
4.401611912520944
  0
SEQEND
  5
568
  8
PROFILEEDGES
  0
POLYLINE
  5
1A5
  8
PROFILEEDGES
 66
     1
 10
0.0
 20
0.0
 30
0.0
  0
VERTEX
  5
423
  8
PROFILEEDGES
 10
356.3911062964949
 20
-871.5053099605651
 30
0.0
 40
4.401611912520944
 41
4.401611912520944
  0
VERTEX
  5
424
  8
PROFILEEDGES
 10
392.58150086217
 20
-871.505309960497
 30
0.0
 40
4.401611912520944
 41
4.401611912520944
  0
SEQEND
  5
569
  8
PROFILEEDGES
  0
POLYLINE
  5
1A6
  8
PROFILEEDGES
 66
     1
 10
0.0
 20
0.0
 30
0.0
  0
VERTEX
  5
425
  8
PROFILEEDGES
 10
-331.7881451376883
 20
-871.5053099609338
 30
0.0
 40
4.401611912520944
 41
4.401611912520944
  0
VERTEX
  5
426
  8
PROFILEEDGES
 10
-349.8210444720149
 20
-871.5053099609427
 30
0.0
 40
4.401611912520944
 41
4.401611912520944
  0
SEQEND
  5
56A
  8
PROFILEEDGES
  0
POLYLINE
  5
1A7
  8
PROFILEEDGES
 66
     1
 10
0.0
 20
0.0
 30
0.0
  0
VERTEX
  5
427
  8
PROFILEEDGES
 10
-409.3832505580611
 20
-874.5053099609822
 30
0.0
 40
4.401611912520944
 41
4.401611912520944
  0
VERTEX
  5
428
  8
PROFILEEDGES
 10
-450.7594591377416
 20
-874.5053099610022
 30
0.0
 40
4.401611912520944
 41
4.401611912520944
  0
SEQEND
  5
56B
  8
PROFILEEDGES
  0
POLYLINE
  5
1A8
  8
PROFILEEDGES
 66
     1
 10
0.0
 20
0.0
 30
0.0
  0
VERTEX
  5
429
  8
PROFILEEDGES
 10
356.3911062964964
 20
-874.5053099605651
 30
0.0
 40
4.401611912520944
 41
4.401611912520944
  0
VERTEX
  5
42A
  8
PROFILEEDGES
 10
-409.3832505580611
 20
-874.5053099609822
 30
0.0
 40
4.401611912520944
 41
4.401611912520944
  0
SEQEND
  5
56C
  8
PROFILEEDGES
  0
POLYLINE
  5
1A9
  8
PROFILEEDGES
 66
     1
 10
0.0
 20
0.0
 30
0.0
  0
VERTEX
  5
42B
  8
PROFILEEDGES
 10
273.6101868620028
 20
-358.886110254712
 30
0.0
 40
4.401611912520944
 41
4.401611912520944
  0
VERTEX
  5
42C
  8
PROFILEEDGES
 10
291.6817788620111
 20
-358.8861102546645
 30
0.0
 40
4.401611912520944
 41
4.401611912520944
  0
SEQEND
  5
56D
  8
PROFILEEDGES
  0
POLYLINE
  5
1AA
  8
PROFILEEDGES
 66
     1
 10
0.0
 20
0.0
 30
0.0
  0
VERTEX
  5
42D
  8
PROFILEEDGES
 10
-331.7881451379675
 20
-358.8861102550417
 30
0.0
 40
4.401611912520944
 41
4.401611912520944
  0
VERTEX
  5
42E
  8
PROFILEEDGES
 10
273.6101868620028
 20
-358.886110254712
 30
0.0
 40
4.401611912520944
 41
4.401611912520944
  0
SEQEND
  5
56E
  8
PROFILEEDGES
  0
POLYLINE
  5
1AB
  8
PROFILEEDGES
 66
     1
 10
0.0
 20
0.0
 30
0.0
  0
VERTEX
  5
42F
  8
PROFILEEDGES
 10
-349.8210444722912
 20
-358.8861102550139
 30
0.0
 40
4.401611912520944
 41
4.401611912520944
  0
VERTEX
  5
430
  8
PROFILEEDGES
 10
-331.7881451379675
 20
-358.8861102550417
 30
0.0
 40
4.401611912520944
 41
4.401611912520944
  0
SEQEND
  5
56F
  8
PROFILEEDGES
  0
ENDSEC
  0
EOF
