  0
SECTION
  2
HEADER
  9
$ACADVER
  1
AC1009
  9
$DWGCODEPAGE
  3
ansi_1252
  9
$INSBASE
 10
0.0
 20
0.0
 30
0.0
  9
$EXTMIN
 10
1.000000000000000E+20
 20
1.000000000000000E+20
 30
1.000000000000000E+20
  9
$EXTMAX
 10
-1.000000000000000E+20
 20
-1.000000000000000E+20
 30
-1.000000000000000E+20
  9
$LIMMIN
 10
0.0
 20
0.0
  9
$LIMMAX
 10
12.0
 20
9.0
  9
$ORTHOMODE
 70
     0
  9
$REGENMODE
 70
     1
  9
$FILLMODE
 70
     1
  9
$QTEXTMODE
 70
     0
  9
$MIRRTEXT
 70
     1
  9
$DRAGMODE
 70
     2
  9
$LTSCALE
 40
1.0
  9
$OSMODE
 70
    37
  9
$ATTMODE
 70
     1
  9
$TEXTSIZE
 40
0.2
  9
$TRACEWID
 40
0.05
  9
$TEXTSTYLE
  7
STANDARD
  9
$CLAYER
  8
0
  9
$CELTYPE
  6
BYLAYER
  9
$CECOLOR
 62
   256
  9
$DIMSCALE
 40
1.0
  9
$DIMASZ
 40
0.18
  9
$DIMEXO
 40
0.0625
  9
$DIMDLI
 40
0.38
  9
$DIMRND
 40
0.0
  9
$DIMDLE
 40
0.0
  9
$DIMEXE
 40
0.18
  9
$DIMTP
 40
0.0
  9
$DIMTM
 40
0.0
  9
$DIMTXT
 40
0.18
  9
$DIMCEN
 40
0.09
  9
$DIMTSZ
 40
0.0
  9
$DIMTOL
 70
     0
  9
$DIMLIM
 70
     0
  9
$DIMTIH
 70
     1
  9
$DIMTOH
 70
     1
  9
$DIMSE1
 70
     0
  9
$DIMSE2
 70
     0
  9
$DIMTAD
 70
     0
  9
$DIMZIN
 70
     0
  9
$DIMBLK
  1

  9
$DIMASO
 70
     1
  9
$DIMSHO
 70
     1
  9
$DIMPOST
  1

  9
$DIMAPOST
  1

  9
$DIMALT
 70
     0
  9
$DIMALTD
 70
     2
  9
$DIMALTF
 40
25.4
  9
$DIMLFAC
 40
1.0
  9
$DIMTOFL
 70
     0
  9
$DIMTVP
 40
0.0
  9
$DIMTIX
 70
     0
  9
$DIMSOXD
 70
     0
  9
$DIMSAH
 70
     0
  9
$DIMBLK1
  1

  9
$DIMBLK2
  1

  9
$DIMSTYLE
  2
STANDARD
  9
$DIMCLRD
 70
     0
  9
$DIMCLRE
 70
     0
  9
$DIMCLRT
 70
     0
  9
$DIMTFAC
 40
1.0
  9
$DIMGAP
 40
0.09
  9
$LUNITS
 70
     2
  9
$LUPREC
 70
     4
  9
$SKETCHINC
 40
0.1
  9
$FILLETRAD
 40
0.0
  9
$AUNITS
 70
     0
  9
$AUPREC
 70
     0
  9
$MENU
  1
.
  9
$ELEVATION
 40
0.0
  9
$PELEVATION
 40
0.0
  9
$THICKNESS
 40
0.0
  9
$LIMCHECK
 70
     0
  9
$CHAMFERA
 40
0.0
  9
$CHAMFERB
 40
0.0
  9
$SKPOLY
 70
     0
  9
$TDCREATE
 40
2460273.365019653
  9
$TDUPDATE
 40
2460273.365019919
  9
$TDINDWG
 40
0.0000000116
  9
$TDUSRTIMER
 40
0.0000000116
  9
$USRTIMER
 70
     1
  9
$ANGBASE
 50
0.0
  9
$ANGDIR
 70
     0
  9
$PDMODE
 70
     0
  9
$PDSIZE
 40
0.0
  9
$PLINEWID
 40
0.0
  9
$COORDS
 70
     1
  9
$SPLFRAME
 70
     0
  9
$SPLINETYPE
 70
     6
  9
$SPLINESEGS
 70
     8
  9
$ATTDIA
 70
     0
  9
$ATTREQ
 70
     1
  9
$HANDLING
 70
     1
  9
$HANDSEED
  5
4CB
  9
$SURFTAB1
 70
     6
  9
$SURFTAB2
 70
     6
  9
$SURFTYPE
 70
     6
  9
$SURFU
 70
     6
  9
$SURFV
 70
     6
  9
$UCSNAME
  2

  9
$UCSORG
 10
0.0
 20
0.0
 30
0.0
  9
$UCSXDIR
 10
1.0
 20
0.0
 30
0.0
  9
$UCSYDIR
 10
0.0
 20
1.0
 30
0.0
  9
$PUCSNAME
  2

  9
$PUCSORG
 10
0.0
 20
0.0
 30
0.0
  9
$PUCSXDIR
 10
1.0
 20
0.0
 30
0.0
  9
$PUCSYDIR
 10
0.0
 20
1.0
 30
0.0
  9
$USERI1
 70
     0
  9
$USERI2
 70
     0
  9
$USERI3
 70
     0
  9
$USERI4
 70
     0
  9
$USERI5
 70
     0
  9
$USERR1
 40
0.0
  9
$USERR2
 40
0.0
  9
$USERR3
 40
0.0
  9
$USERR4
 40
0.0
  9
$USERR5
 40
0.0
  9
$WORLDVIEW
 70
     1
  9
$SHADEDGE
 70
     3
  9
$SHADEDIF
 70
    70
  9
$TILEMODE
 70
     1
  9
$MAXACTVP
 70
    64
  9
$PLIMCHECK
 70
     0
  9
$PEXTMIN
 10
1.000000000000000E+20
 20
1.000000000000000E+20
 30
1.000000000000000E+20
  9
$PEXTMAX
 10
-1.000000000000000E+20
 20
-1.000000000000000E+20
 30
-1.000000000000000E+20
  9
$PLIMMIN
 10
0.0
 20
0.0
  9
$PLIMMAX
 10
12.0
 20
9.0
  9
$UNITMODE
 70
     0
  9
$VISRETAIN
 70
     1
  9
$PLINEGEN
 70
     0
  9
$PSLTSCALE
 70
     1
  0
ENDSEC
  0
SECTION
  2
TABLES
  0
TABLE
  2
VPORT
 70
     1
  0
VPORT
  2
*ACTIVE
 70
     0
 10
0.0
 20
0.0
 11
1.0
 21
1.0
 12
0.0
 22
0.0
 13
0.0
 23
0.0
 14
0.5
 24
0.5
 15
0.5
 25
0.5
 16
0.0
 26
0.0
 36
1.0
 17
0.0
 27
0.0
 37
-1000.0
 40
536.3051291106026
 41
1.658454647256439
 42
50.0
 43
528.9165455147969
 44
925.9618178237138
 50
0.0
 51
0.0
 71
     0
 72
   100
 73
     1
 74
     3
 75
     0
 76
     0
 77
     0
 78
     0
  0
ENDTAB
  0
TABLE
  2
LTYPE
 70
     1
  0
LTYPE
  2
CONTINUOUS
 70
     0
  3
Solid line
 72
    65
 73
     0
 40
0.0
  0
ENDTAB
  0
TABLE
  2
LAYER
 70
     3
  0
LAYER
  2
0
 70
     0
 62
     7
  6
CONTINUOUS
  0
LAYER
  2
PROFILEEDGES
 70
     0
 62
     7
  6
CONTINUOUS
  0
LAYER
  2
SECTIONCUTEDGES
 70
     0
 62
     7
  6
CONTINUOUS
  0
ENDTAB
  0
TABLE
  2
STYLE
 70
     1
  0
STYLE
  2
STANDARD
 70
     0
 40
0.0
 41
1.0
 50
0.0
 71
     0
 42
0.2
  3
txt
  4

  0
ENDTAB
  0
TABLE
  2
VIEW
 70
     0
  0
ENDTAB
  0
TABLE
  2
UCS
 70
     0
  0
ENDTAB
  0
TABLE
  2
APPID
 70
     1
  0
APPID
  2
ACAD
 70
     0
  0
ENDTAB
  0
TABLE
  2
DIMSTYLE
 70
     1
  0
DIMSTYLE
  2
STANDARD
 70
     0
  3

  4

  5

  6

  7

 40
1.0
 41
0.18
 42
0.0625
 43
0.38
 44
0.18
 45
0.0
 46
0.0
 47
0.0
 48
0.0
140
0.18
141
0.09
142
0.0
143
25.4
144
1.0
145
0.0
146
1.0
147
0.09
 71
     0
 72
     0
 73
     1
 74
     1
 75
     0
 76
     0
 77
     0
 78
     0
170
     0
171
     2
172
     0
173
     0
174
     0
175
     0
176
     0
177
     0
178
     0
  0
ENDTAB
  0
ENDSEC
  0
SECTION
  2
BLOCKS
  0
BLOCK
  8
0
  2
$MODEL_SPACE
 70
     0
 10
0.0
 20
0.0
 30
0.0
  3
$MODEL_SPACE
  1

  0
ENDBLK
  5
21
  8
0
  0
BLOCK
 67
     1
  8
0
  2
$PAPER_SPACE
 70
     0
 10
0.0
 20
0.0
 30
0.0
  3
$PAPER_SPACE
  1

  0
ENDBLK
  5
1D
 67
     1
  8
0
  0
ENDSEC
  0
SECTION
  2
ENTITIES
  0
POLYLINE
  5
60
  8
PROFILEEDGES
 66
     1
 10
0.0
 20
0.0
 30
0.0
  0
VERTEX
  5
1C8
  8
PROFILEEDGES
 10
-84.55375339285852
 20
91.09635349742723
 30
0.0
 40
1.201131308198438
 41
1.201131308198438
  0
VERTEX
  5
1C9
  8
PROFILEEDGES
 10
-85.23554054207429
 20
92.19830010911355
 30
0.0
 40
1.201131308198438
 41
1.201131308198438
  0
SEQEND
  5
3CA
  8
PROFILEEDGES
  0
LINE
  5
61
  8
0
 10
-74.9945774305773
 20
-110.1997600369565
 30
0.0
 11
-72.18477015287858
 21
-109.5251849924723
 31
0.0
  0
LINE
  5
62
  8
0
 10
-67.05125268332709
 20
-106.9095271963117
 30
0.0
 11
-64.85394672874281
 21
-105.0328506204473
 31
0.0
  0
POLYLINE
  5
63
  8
PROFILEEDGES
 66
     1
 10
0.0
 20
0.0
 30
0.0
  0
VERTEX
  5
1CA
  8
PROFILEEDGES
 10
-79.16668461320025
 20
104.1018880067159
 30
0.0
 40
1.201131308198438
 41
1.201131308198438
  0
VERTEX
  5
1CB
  8
PROFILEEDGES
 10
-77.87531810429327
 20
104.203520755103
 30
0.0
 40
1.201131308198438
 41
1.201131308198438
  0
SEQEND
  5
3CB
  8
PROFILEEDGES
  0
POLYLINE
  5
64
  8
PROFILEEDGES
 66
     1
 10
0.0
 20
0.0
 30
0.0
  0
VERTEX
  5
1CC
  8
PROFILEEDGES
 10
-82.72748536196758
 20
102.6269560436681
 30
0.0
 40
1.201131308198438
 41
1.201131308198438
  0
VERTEX
  5
1CD
  8
PROFILEEDGES
 10
-83.71248458298804
 20
101.7856872337979
 30
0.0
 40
1.201131308198438
 41
1.201131308198438
  0
SEQEND
  5
3CC
  8
PROFILEEDGES
  0
POLYLINE
  5
65
  8
PROFILEEDGES
 66
     1
 10
0.0
 20
0.0
 30
0.0
  0
VERTEX
  5
1CE
  8
PROFILEEDGES
 10
-81.62300967964318
 20
103.3037796122779
 30
0.0
 40
1.201131308198438
 41
1.201131308198438
  0
VERTEX
  5
1CF
  8
PROFILEEDGES
 10
-82.70327472843064
 20
102.6414582299577
 30
0.0
 40
1.201131308198438
 41
1.201131308198438
  0
SEQEND
  5
3CD
  8
PROFILEEDGES
  0
LINE
  5
66
  8
0
 10
-77.87531810429327
 20
-110.4264792448971
 30
0.0
 11
-77.87531810429327
 21
-100.2664792448969
 31
0.0
  0
LINE
  5
67
  8
0
 10
-64.85394672874281
 20
-105.0328506204473
 30
0.0
 11
-62.9772701528783
 21
-102.8355446658629
 31
0.0
  0
LINE
  5
68
  8
0
 10
-72.18477015287858
 20
-109.5251849924723
 30
0.0
 11
-69.5150830515895
 21
-108.4193643878259
 31
0.0
  0
POLYLINE
  5
69
  8
PROFILEEDGES
 66
     1
 10
0.0
 20
0.0
 30
0.0
  0
VERTEX
  5
1D0
  8
PROFILEEDGES
 10
-77.87531810429327
 20
-100.2664792448969
 30
0.0
 40
1.201131308198438
 41
1.201131308198438
  0
VERTEX
  5
1D1
  8
PROFILEEDGES
 10
-76.58395159538593
 20
-100.1648464965098
 30
0.0
 40
1.201131308198438
 41
1.201131308198438
  0
SEQEND
  5
3CE
  8
PROFILEEDGES
  0
LINE
  5
6A
  8
0
 10
-62.9772701528783
 20
-102.8355446658629
 30
0.0
 11
-61.46743296136433
 21
-100.3717142976008
 31
0.0
  0
LINE
  5
6B
  8
0
 10
-77.87531810429327
 20
-110.4264792448971
 30
0.0
 11
-74.9945774305773
 21
-110.1997600369565
 31
0.0
  0
LINE
  5
6C
  8
0
 10
-69.5150830515895
 20
-108.4193643878259
 30
0.0
 11
-67.05125268332709
 21
-106.9095271963117
 31
0.0
  0
POLYLINE
  5
6D
  8
PROFILEEDGES
 66
     1
 10
0.0
 20
0.0
 30
0.0
  0
VERTEX
  5
1D2
  8
PROFILEEDGES
 10
-82.72748536196758
 20
102.6269560436681
 30
0.0
 40
1.201131308198438
 41
1.201131308198438
  0
VERTEX
  5
1D3
  8
PROFILEEDGES
 10
-82.70327472843064
 20
102.6414582299577
 30
0.0
 40
1.201131308198438
 41
1.201131308198438
  0
SEQEND
  5
3CF
  8
PROFILEEDGES
  0
POLYLINE
  5
6E
  8
PROFILEEDGES
 66
     1
 10
0.0
 20
0.0
 30
0.0
  0
VERTEX
  5
1D4
  8
PROFILEEDGES
 10
-73.02315084661895
 20
-98.68991453346213
 30
0.0
 40
1.201131308198438
 41
1.201131308198438
  0
VERTEX
  5
1D5
  8
PROFILEEDGES
 10
-72.03815162559812
 20
-97.8486457235919
 30
0.0
 40
1.201131308198438
 41
1.201131308198438
  0
SEQEND
  5
3D0
  8
PROFILEEDGES
  0
POLYLINE
  5
6F
  8
PROFILEEDGES
 66
     1
 10
0.0
 20
0.0
 30
0.0
  0
VERTEX
  5
1D6
  8
PROFILEEDGES
 10
-79.16668461320025
 20
87.79515350349011
 30
0.0
 40
1.201131308198438
 41
1.201131308198438
  0
VERTEX
  5
1D7
  8
PROFILEEDGES
 10
-77.87531810429327
 20
87.69352075510297
 30
0.0
 40
1.201131308198438
 41
1.201131308198438
  0
SEQEND
  5
3D1
  8
PROFILEEDGES
  0
POLYLINE
  5
70
  8
PROFILEEDGES
 66
     1
 10
0.0
 20
0.0
 30
0.0
  0
VERTEX
  5
1D8
  8
PROFILEEDGES
 10
-76.58395159538593
 20
87.79515350349011
 30
0.0
 40
1.201131308198438
 41
1.201131308198438
  0
VERTEX
  5
1D9
  8
PROFILEEDGES
 10
-77.87531810429327
 20
87.69352075510297
 30
0.0
 40
1.201131308198438
 41
1.201131308198438
  0
SEQEND
  5
3D2
  8
PROFILEEDGES
  0
POLYLINE
  5
71
  8
PROFILEEDGES
 66
     1
 10
0.0
 20
0.0
 30
0.0
  0
VERTEX
  5
1DA
  8
PROFILEEDGES
 10
-85.72628964630974
 20
98.49945604366816
 30
0.0
 40
1.201131308198438
 41
1.201131308198438
  0
VERTEX
  5
1DB
  8
PROFILEEDGES
 10
-86.02868535590605
 20
97.23988726401005
 30
0.0
 40
1.201131308198438
 41
1.201131308198438
  0
SEQEND
  5
3D3
  8
PROFILEEDGES
  0
POLYLINE
  5
72
  8
PROFILEEDGES
 66
     1
 10
0.0
 20
0.0
 30
0.0
  0
VERTEX
  5
1DC
  8
PROFILEEDGES
 10
-71.19688281572802
 20
91.09635349742862
 30
0.0
 40
1.201131308198438
 41
1.201131308198438
  0
VERTEX
  5
1DD
  8
PROFILEEDGES
 10
-70.52005924711803
 20
92.20082917975299
 30
0.0
 40
1.201131308198438
 41
1.201131308198438
  0
SEQEND
  5
3D4
  8
PROFILEEDGES
  0
POLYLINE
  5
73
  8
PROFILEEDGES
 66
     1
 10
0.0
 20
0.0
 30
0.0
  0
VERTEX
  5
1DE
  8
PROFILEEDGES
 10
-73.02315084661895
 20
102.6269560436681
 30
0.0
 40
1.201131308198438
 41
1.201131308198438
  0
VERTEX
  5
1DF
  8
PROFILEEDGES
 10
-73.04736148015589
 20
102.6414582299577
 30
0.0
 40
1.201131308198438
 41
1.201131308198438
  0
SEQEND
  5
3D5
  8
PROFILEEDGES
  0
POLYLINE
  5
74
  8
PROFILEEDGES
 66
     1
 10
0.0
 20
0.0
 30
0.0
  0
VERTEX
  5
1E0
  8
PROFILEEDGES
 10
-72.03815162559812
 20
101.7856872337979
 30
0.0
 40
1.201131308198438
 41
1.201131308198438
  0
VERTEX
  5
1E1
  8
PROFILEEDGES
 10
-73.02315084661895
 20
102.6269560436681
 30
0.0
 40
1.201131308198438
 41
1.201131308198438
  0
SEQEND
  5
3D6
  8
PROFILEEDGES
  0
POLYLINE
  5
75
  8
PROFILEEDGES
 66
     1
 10
0.0
 20
0.0
 30
0.0
  0
VERTEX
  5
1E2
  8
PROFILEEDGES
 10
-74.12762652894337
 20
103.3037796122779
 30
0.0
 40
1.201131308198438
 41
1.201131308198438
  0
VERTEX
  5
1E3
  8
PROFILEEDGES
 10
-73.04736148015589
 20
102.6414582299577
 30
0.0
 40
1.201131308198438
 41
1.201131308198438
  0
SEQEND
  5
3D7
  8
PROFILEEDGES
  0
LINE
  5
76
  8
0
 10
-61.46743296136433
 20
-83.65124419219315
 30
0.0
 11
-62.9772701528783
 21
-81.187413823931
 31
0.0
  0
LINE
  5
77
  8
0
 10
-59.68703731223363
 20
-94.89221991861282
 30
0.0
 11
-59.46031810429305
 21
-92.01147924489696
 31
0.0
  0
LINE
  5
78
  8
0
 10
-59.46031810429305
 20
-92.01147924489696
 30
0.0
 11
-59.68703731223363
 21
-89.13073857118108
 31
0.0
  0
LINE
  5
79
  8
0
 10
-60.36161235671788
 20
-86.32093129348226
 30
0.0
 11
-61.46743296136433
 21
-83.65124419219315
 31
0.0
  0
POLYLINE
  5
7A
  8
PROFILEEDGES
 66
     1
 10
0.0
 20
0.0
 30
0.0
  0
VERTEX
  5
1E4
  8
PROFILEEDGES
 10
-70.52005924711803
 20
-88.263787669547
 30
0.0
 40
1.201131308198438
 41
1.201131308198438
  0
VERTEX
  5
1E5
  8
PROFILEEDGES
 10
-71.19688281572802
 20
-87.15931198722261
 30
0.0
 40
1.201131308198438
 41
1.201131308198438
  0
SEQEND
  5
3D8
  8
PROFILEEDGES
  0
LINE
  5
7B
  8
0
 10
-59.68703731223363
 20
-89.13073857118108
 30
0.0
 11
-60.36161235671788
 21
-86.32093129348226
 31
0.0
  0
LINE
  5
7C
  8
0
 10
-60.36161235671788
 20
-97.70202719631165
 30
0.0
 11
-59.68703731223363
 21
-94.89221991861282
 31
0.0
  0
POLYLINE
  5
7D
  8
PROFILEEDGES
 66
     1
 10
0.0
 20
0.0
 30
0.0
  0
VERTEX
  5
1E6
  8
PROFILEEDGES
 10
-70.02434656227679
 20
-94.56241453346215
 30
0.0
 40
1.201131308198438
 41
1.201131308198438
  0
VERTEX
  5
1E7
  8
PROFILEEDGES
 10
-69.7219508526805
 20
-93.30284575380405
 30
0.0
 40
1.201131308198438
 41
1.201131308198438
  0
SEQEND
  5
3D9
  8
PROFILEEDGES
  0
LINE
  5
7E
  8
0
 10
-61.46743296136433
 20
-100.3717142976008
 30
0.0
 11
-60.36161235671788
 21
-97.70202719631165
 31
0.0
  0
POLYLINE
  5
7F
  8
PROFILEEDGES
 66
     1
 10
0.0
 20
0.0
 30
0.0
  0
VERTEX
  5
1E8
  8
PROFILEEDGES
 10
-69.7219508526805
 20
97.23988726401005
 30
0.0
 40
1.201131308198438
 41
1.201131308198438
  0
VERTEX
  5
1E9
  8
PROFILEEDGES
 10
-70.02434656227679
 20
98.49945604366816
 30
0.0
 40
1.201131308198438
 41
1.201131308198438
  0
SEQEND
  5
3DA
  8
PROFILEEDGES
  0
POLYLINE
  5
80
  8
PROFILEEDGES
 66
     1
 10
0.0
 20
0.0
 30
0.0
  0
VERTEX
  5
1EA
  8
PROFILEEDGES
 10
-71.61048888746289
 20
101.2849585024097
 30
0.0
 40
1.201131308198438
 41
1.201131308198438
  0
VERTEX
  5
1EB
  8
PROFILEEDGES
 10
-70.93485419692855
 20
100.3730961691136
 30
0.0
 40
1.201131308198438
 41
1.201131308198438
  0
SEQEND
  5
3DB
  8
PROFILEEDGES
  0
LINE
  5
81
  8
0
 10
-67.05125268332746
 20
81.05047280368838
 30
0.0
 11
-64.85394672874281
 21
82.92714937955276
 31
0.0
  0
LINE
  5
82
  8
0
 10
-64.85394672874281
 20
82.92714937955276
 30
0.0
 11
-62.97727015287867
 21
85.12445533413714
 31
0.0
  0
LINE
  5
83
  8
0
 10
-96.06359889635254
 20
93.0677800813871
 30
0.0
 11
-95.38902385186829
 21
90.25797280368832
 31
0.0
  0
LINE
  5
84
  8
0
 10
-94.28320324722183
 20
104.3087558078067
 30
0.0
 11
-95.38902385186829
 21
101.6390687065176
 31
0.0
  0
LINE
  5
85
  8
0
 10
-88.69938352525908
 20
110.8465687065176
 30
0.0
 11
-90.89668947984336
 21
108.9698921306532
 31
0.0
  0
LINE
  5
86
  8
0
 10
-95.38902385186829
 20
90.25797280368832
 30
0.0
 11
-94.28320324722183
 21
87.58828570239926
 31
0.0
  0
LINE
  5
87
  8
0
 10
-92.77336605570787
 20
106.7725861760688
 30
0.0
 11
-94.28320324722183
 21
104.3087558078067
 31
0.0
  0
LINE
  5
88
  8
0
 10
-95.38902385186829
 20
101.6390687065176
 30
0.0
 11
-96.06359889635254
 21
98.82926142881878
 31
0.0
  0
LINE
  5
89
  8
0
 10
-77.87531810429327
 20
114.3635207551029
 30
0.0
 11
-80.75605877800888
 21
114.1368015471623
 31
0.0
  0
LINE
  5
8A
  8
0
 10
-96.06359889635254
 20
98.82926142881878
 30
0.0
 11
-96.29031810429312
 21
95.94852075510299
 31
0.0
  0
LINE
  5
8B
  8
0
 10
-83.56586605570794
 20
113.4622265026782
 30
0.0
 11
-86.23555315699704
 21
112.3564058980317
 31
0.0
  0
LINE
  5
8C
  8
0
 10
-94.28320324722183
 20
87.58828570239926
 30
0.0
 11
-92.77336605570787
 21
85.12445533413708
 31
0.0
  0
LINE
  5
8D
  8
0
 10
-92.77336605570787
 20
85.12445533413708
 30
0.0
 11
-90.89668947984336
 21
82.92714937955276
 31
0.0
  0
LINE
  5
8E
  8
0
 10
-90.89668947984336
 20
82.92714937955276
 30
0.0
 11
-88.69938352525908
 21
81.05047280368838
 31
0.0
  0
POLYLINE
  5
8F
  8
PROFILEEDGES
 66
     1
 10
0.0
 20
0.0
 30
0.0
  0
VERTEX
  5
1EC
  8
PROFILEEDGES
 10
-76.58395159538593
 20
104.1018880067159
 30
0.0
 40
1.201131308198438
 41
1.201131308198438
  0
VERTEX
  5
1ED
  8
PROFILEEDGES
 10
-77.87531810429327
 20
104.203520755103
 30
0.0
 40
1.201131308198438
 41
1.201131308198438
  0
SEQEND
  5
3DC
  8
PROFILEEDGES
  0
LINE
  5
90
  8
0
 10
-88.69938352525908
 20
81.05047280368838
 30
0.0
 11
-86.23555315699704
 21
79.54063561217423
 31
0.0
  0
LINE
  5
91
  8
0
 10
-86.23555315699704
 20
79.54063561217423
 30
0.0
 11
-83.56586605570794
 21
78.43481500752779
 31
0.0
  0
LINE
  5
92
  8
0
 10
-83.56586605570794
 20
78.43481500752779
 30
0.0
 11
-80.75605877800888
 21
77.76023996304357
 31
0.0
  0
LINE
  5
93
  8
0
 10
-80.75605877800888
 20
114.1368015471623
 30
0.0
 11
-83.56586605570794
 21
113.4622265026782
 31
0.0
  0
LINE
  5
94
  8
0
 10
-90.89668947984336
 20
108.9698921306532
 30
0.0
 11
-92.77336605570787
 21
106.7725861760688
 31
0.0
  0
LINE
  5
95
  8
0
 10
-96.29031810429312
 20
95.94852075510299
 30
0.0
 11
-96.06359889635254
 21
93.0677800813871
 31
0.0
  0
LINE
  5
96
  8
0
 10
-80.75605877800888
 20
77.76023996304357
 30
0.0
 11
-77.87531810429327
 21
77.53352075510304
 31
0.0
  0
LINE
  5
97
  8
0
 10
-86.23555315699704
 20
112.3564058980317
 30
0.0
 11
-88.69938352525908
 21
110.8465687065176
 31
0.0
  0
POLYLINE
  5
98
  8
PROFILEEDGES
 66
     1
 10
0.0
 20
0.0
 30
0.0
  0
VERTEX
  5
1EE
  8
PROFILEEDGES
 10
-75.9489661560102
 20
103.9494414903966
 30
0.0
 40
1.201131308198438
 41
1.201131308198438
  0
VERTEX
  5
1EF
  8
PROFILEEDGES
 10
-74.81353088966043
 20
103.5878905009778
 30
0.0
 40
1.201131308198438
 41
1.201131308198438
  0
SEQEND
  5
3DD
  8
PROFILEEDGES
  0
LINE
  5
99
  8
0
 10
-77.87531810429327
 20
77.53352075510304
 30
0.0
 11
-74.9945774305773
 21
77.76023996304357
 31
0.0
  0
LINE
  5
9A
  8
0
 10
-74.9945774305773
 20
77.76023996304357
 30
0.0
 11
-72.18477015287858
 21
78.43481500752779
 31
0.0
  0
LINE
  5
9B
  8
0
 10
-77.87531810429327
 20
104.203520755103
 30
0.0
 11
-77.87531810429327
 21
114.3635207551029
 31
0.0
  0
LINE
  5
9C
  8
0
 10
-72.18477015287858
 20
78.43481500752779
 30
0.0
 11
-69.5150830515895
 21
79.54063561217423
 31
0.0
  0
LINE
  5
9D
  8
0
 10
-69.5150830515895
 20
79.54063561217423
 30
0.0
 11
-67.05125268332746
 21
81.05047280368838
 31
0.0
  0
LINE
  5
9E
  8
0
 10
-60.36161235671788
 20
90.25797280368832
 30
0.0
 11
-59.68703731223363
 21
93.06778008138714
 31
0.0
  0
POLYLINE
  5
9F
  8
PROFILEEDGES
 66
     1
 10
0.0
 20
0.0
 30
0.0
  0
VERTEX
  5
1F0
  8
PROFILEEDGES
 10
-21.42892943928101
 20
10.9087504321522
 30
0.0
 40
1.201131308198438
 41
1.201131308198438
  0
VERTEX
  5
1F1
  8
PROFILEEDGES
 10
-20.72531810429327
 20
1.96852075510301
 30
0.0
 40
1.201131308198438
 41
1.201131308198438
  0
SEQEND
  5
3DE
  8
PROFILEEDGES
  0
POLYLINE
  5
A0
  8
PROFILEEDGES
 66
     1
 10
0.0
 20
0.0
 30
0.0
  0
VERTEX
  5
1F2
  8
PROFILEEDGES
 10
-68.93508842724403
 20
-54.47786790990911
 30
0.0
 40
1.201131308198438
 41
1.201131308198438
  0
VERTEX
  5
1F3
  8
PROFILEEDGES
 10
-60.214996875765
 20
-52.38435915116501
 30
0.0
 40
1.201131308198438
 41
1.201131308198438
  0
SEQEND
  5
3DF
  8
PROFILEEDGES
  0
POLYLINE
  5
A1
  8
PROFILEEDGES
 66
     1
 10
0.0
 20
0.0
 30
0.0
  0
VERTEX
  5
1F4
  8
PROFILEEDGES
 10
-44.2833909357783
 20
-44.26680047342523
 30
0.0
 40
1.201131308198438
 41
1.201131308198438
  0
VERTEX
  5
1F5
  8
PROFILEEDGES
 10
-37.46416555948211
 20
-38.44263178970819
 30
0.0
 40
1.201131308198438
 41
1.201131308198438
  0
SEQEND
  5
3E0
  8
PROFILEEDGES
  0
LINE
  5
A2
  8
0
 10
-59.68703731223363
 20
98.82926142881882
 30
0.0
 11
-60.36161235671788
 21
101.6390687065176
 31
0.0
  0
POLYLINE
  5
A3
  8
PROFILEEDGES
 66
     1
 10
0.0
 20
0.0
 30
0.0
  0
VERTEX
  5
1F6
  8
PROFILEEDGES
 10
-51.92976104417799
 20
-48.9525021022622
 30
0.0
 40
1.201131308198438
 41
1.201131308198438
  0
VERTEX
  5
1F7
  8
PROFILEEDGES
 10
-44.2833909357783
 20
-44.26680047342523
 30
0.0
 40
1.201131308198438
 41
1.201131308198438
  0
SEQEND
  5
3E1
  8
PROFILEEDGES
  0
POLYLINE
  5
A4
  8
PROFILEEDGES
 66
     1
 10
0.0
 20
0.0
 30
0.0
  0
VERTEX
  5
1F8
  8
PROFILEEDGES
 10
-26.95429524692801
 20
-23.97703630501208
 30
0.0
 40
1.201131308198438
 41
1.201131308198438
  0
VERTEX
  5
1F9
  8
PROFILEEDGES
 10
-31.639996875765
 20
-31.62340641341182
 30
0.0
 40
1.201131308198438
 41
1.201131308198438
  0
SEQEND
  5
3E2
  8
PROFILEEDGES
  0
POLYLINE
  5
A5
  8
PROFILEEDGES
 66
     1
 10
0.0
 20
0.0
 30
0.0
  0
VERTEX
  5
1FA
  8
PROFILEEDGES
 10
-23.52243819802506
 20
-15.69180047342523
 30
0.0
 40
1.201131308198438
 41
1.201131308198438
  0
VERTEX
  5
1FB
  8
PROFILEEDGES
 10
-26.95429524692801
 20
-23.97703630501208
 30
0.0
 40
1.201131308198438
 41
1.201131308198438
  0
SEQEND
  5
3E3
  8
PROFILEEDGES
  0
POLYLINE
  5
A6
  8
PROFILEEDGES
 66
     1
 10
0.0
 20
0.0
 30
0.0
  0
VERTEX
  5
1FC
  8
PROFILEEDGES
 10
-23.52243819802506
 20
19.62884198363125
 30
0.0
 40
1.201131308198438
 41
1.201131308198438
  0
VERTEX
  5
1FD
  8
PROFILEEDGES
 10
-21.42892943928101
 20
10.9087504321522
 30
0.0
 40
1.201131308198438
 41
1.201131308198438
  0
SEQEND
  5
3E4
  8
PROFILEEDGES
  0
POLYLINE
  5
A7
  8
PROFILEEDGES
 66
     1
 10
0.0
 20
0.0
 30
0.0
  0
VERTEX
  5
1FE
  8
PROFILEEDGES
 10
-26.95429524692801
 20
27.9140778152181
 30
0.0
 40
1.201131308198438
 41
1.201131308198438
  0
VERTEX
  5
1FF
  8
PROFILEEDGES
 10
-23.52243819802506
 20
19.62884198363125
 30
0.0
 40
1.201131308198438
 41
1.201131308198438
  0
SEQEND
  5
3E5
  8
PROFILEEDGES
  0
POLYLINE
  5
A8
  8
PROFILEEDGES
 66
     1
 10
0.0
 20
0.0
 30
0.0
  0
VERTEX
  5
200
  8
PROFILEEDGES
 10
-68.93508842724403
 20
-54.47786790990911
 30
0.0
 40
1.201131308198438
 41
1.201131308198438
  0
VERTEX
  5
201
  8
PROFILEEDGES
 10
-77.87531810429327
 20
-55.18147924489698
 30
0.0
 40
1.201131308198438
 41
1.201131308198438
  0
SEQEND
  5
3E6
  8
PROFILEEDGES
  0
LINE
  5
A9
  8
0
 10
-60.36161235671788
 20
101.6390687065176
 30
0.0
 11
-61.46743296136433
 21
104.3087558078067
 31
0.0
  0
LINE
  5
AA
  8
0
 10
-61.46743296136433
 20
104.3087558078067
 30
0.0
 11
-62.97727015287867
 21
106.7725861760688
 31
0.0
  0
LINE
  5
AB
  8
0
 10
-61.46743296136433
 20
87.58828570239926
 30
0.0
 11
-60.36161235671788
 21
90.25797280368832
 31
0.0
  0
LINE
  5
AC
  8
0
 10
-59.68703731223363
 20
93.06778008138714
 30
0.0
 11
-59.46031810429341
 21
95.94852075510299
 31
0.0
  0
LINE
  5
AD
  8
0
 10
-59.46031810429341
 20
95.94852075510299
 30
0.0
 11
-59.68703731223363
 21
98.82926142881882
 31
0.0
  0
LINE
  5
AE
  8
0
 10
-72.18477015287858
 20
113.4622265026782
 30
0.0
 11
-74.9945774305773
 21
114.1368015471623
 31
0.0
  0
LINE
  5
AF
  8
0
 10
-69.5150830515895
 20
112.3564058980317
 30
0.0
 11
-72.18477015287858
 21
113.4622265026782
 31
0.0
  0
LINE
  5
B0
  8
0
 10
-62.97727015287867
 20
106.7725861760688
 30
0.0
 11
-64.85394672874281
 21
108.9698921306532
 31
0.0
  0
POLYLINE
  5
B1
  8
PROFILEEDGES
 66
     1
 10
0.0
 20
0.0
 30
0.0
  0
VERTEX
  5
202
  8
PROFILEEDGES
 10
-37.46416555948211
 20
-38.44263178970819
 30
0.0
 40
1.201131308198438
 41
1.201131308198438
  0
VERTEX
  5
203
  8
PROFILEEDGES
 10
-31.639996875765
 20
-31.62340641341182
 30
0.0
 40
1.201131308198438
 41
1.201131308198438
  0
SEQEND
  5
3E7
  8
PROFILEEDGES
  0
POLYLINE
  5
B2
  8
PROFILEEDGES
 66
     1
 10
0.0
 20
0.0
 30
0.0
  0
VERTEX
  5
204
  8
PROFILEEDGES
 10
-21.42892943928101
 20
-6.971708921946179
 30
0.0
 40
1.201131308198438
 41
1.201131308198438
  0
VERTEX
  5
205
  8
PROFILEEDGES
 10
-20.72531810429327
 20
1.96852075510301
 30
0.0
 40
1.201131308198438
 41
1.201131308198438
  0
SEQEND
  5
3E8
  8
PROFILEEDGES
  0
LINE
  5
B3
  8
0
 10
-62.97727015287867
 20
85.12445533413714
 30
0.0
 11
-61.46743296136433
 21
87.58828570239926
 31
0.0
  0
LINE
  5
B4
  8
0
 10
-64.85394672874281
 20
108.9698921306532
 30
0.0
 11
-67.05125268332746
 21
110.8465687065176
 31
0.0
  0
LINE
  5
B5
  8
0
 10
-67.05125268332746
 20
110.8465687065176
 30
0.0
 11
-69.5150830515895
 21
112.3564058980317
 31
0.0
  0
LINE
  5
B6
  8
0
 10
-74.9945774305773
 20
114.1368015471623
 30
0.0
 11
-77.87531810429327
 21
114.3635207551029
 31
0.0
  0
POLYLINE
  5
B7
  8
PROFILEEDGES
 66
     1
 10
0.0
 20
0.0
 30
0.0
  0
VERTEX
  5
206
  8
PROFILEEDGES
 10
-51.92976104417799
 20
-48.9525021022622
 30
0.0
 40
1.201131308198438
 41
1.201131308198438
  0
VERTEX
  5
207
  8
PROFILEEDGES
 10
-60.214996875765
 20
-52.38435915116501
 30
0.0
 40
1.201131308198438
 41
1.201131308198438
  0
SEQEND
  5
3E9
  8
PROFILEEDGES
  0
POLYLINE
  5
B8
  8
PROFILEEDGES
 66
     1
 10
0.0
 20
0.0
 30
0.0
  0
VERTEX
  5
208
  8
PROFILEEDGES
 10
-21.42892943928101
 20
-6.971708921946179
 30
0.0
 40
1.201131308198438
 41
1.201131308198438
  0
VERTEX
  5
209
  8
PROFILEEDGES
 10
-23.52243819802506
 20
-15.69180047342523
 30
0.0
 40
1.201131308198438
 41
1.201131308198438
  0
SEQEND
  5
3EA
  8
PROFILEEDGES
  0
POLYLINE
  5
B9
  8
PROFILEEDGES
 66
     1
 10
0.0
 20
0.0
 30
0.0
  0
VERTEX
  5
20A
  8
PROFILEEDGES
 10
-26.95429524692801
 20
27.9140778152181
 30
0.0
 40
1.201131308198438
 41
1.201131308198438
  0
VERTEX
  5
20B
  8
PROFILEEDGES
 10
-31.639996875765
 20
35.56044792361786
 30
0.0
 40
1.201131308198438
 41
1.201131308198438
  0
SEQEND
  5
3EB
  8
PROFILEEDGES
  0
POLYLINE
  5
BA
  8
PROFILEEDGES
 66
     1
 10
0.0
 20
0.0
 30
0.0
  0
VERTEX
  5
20C
  8
PROFILEEDGES
 10
-86.8155477813425
 20
58.41490942011513
 30
0.0
 40
1.201131308198438
 41
1.201131308198438
  0
VERTEX
  5
20D
  8
PROFILEEDGES
 10
-77.87531810429327
 20
59.11852075510301
 30
0.0
 40
1.201131308198438
 41
1.201131308198438
  0
SEQEND
  5
3EC
  8
PROFILEEDGES
  0
POLYLINE
  5
BB
  8
PROFILEEDGES
 66
     1
 10
0.0
 20
0.0
 30
0.0
  0
VERTEX
  5
20E
  8
PROFILEEDGES
 10
-124.1106393328215
 20
35.56044792361784
 30
0.0
 40
1.201131308198438
 41
1.201131308198438
  0
VERTEX
  5
20F
  8
PROFILEEDGES
 10
-118.2864706491044
 20
42.37967329991421
 30
0.0
 40
1.201131308198438
 41
1.201131308198438
  0
SEQEND
  5
3ED
  8
PROFILEEDGES
  0
POLYLINE
  5
BC
  8
PROFILEEDGES
 66
     1
 10
0.0
 20
0.0
 30
0.0
  0
VERTEX
  5
210
  8
PROFILEEDGES
 10
-132.2281980105611
 20
19.62884198363125
 30
0.0
 40
1.201131308198438
 41
1.201131308198438
  0
VERTEX
  5
211
  8
PROFILEEDGES
 10
-128.7963409616585
 20
27.9140778152181
 30
0.0
 40
1.201131308198438
 41
1.201131308198438
  0
SEQEND
  5
3EE
  8
PROFILEEDGES
  0
POLYLINE
  5
BD
  8
PROFILEEDGES
 66
     1
 10
0.0
 20
0.0
 30
0.0
  0
VERTEX
  5
212
  8
PROFILEEDGES
 10
-118.2864706491044
 20
42.37967329991421
 30
0.0
 40
1.201131308198438
 41
1.201131308198438
  0
VERTEX
  5
213
  8
PROFILEEDGES
 10
-111.4672452728079
 20
48.20384198363127
 30
0.0
 40
1.201131308198438
 41
1.201131308198438
  0
SEQEND
  5
3EF
  8
PROFILEEDGES
  0
POLYLINE
  5
BE
  8
PROFILEEDGES
 66
     1
 10
0.0
 20
0.0
 30
0.0
  0
VERTEX
  5
214
  8
PROFILEEDGES
 10
-60.214996875765
 20
56.32140066137104
 30
0.0
 40
1.201131308198438
 41
1.201131308198438
  0
VERTEX
  5
215
  8
PROFILEEDGES
 10
-68.93508842724403
 20
58.41490942011513
 30
0.0
 40
1.201131308198438
 41
1.201131308198438
  0
SEQEND
  5
3F0
  8
PROFILEEDGES
  0
POLYLINE
  5
BF
  8
PROFILEEDGES
 66
     1
 10
0.0
 20
0.0
 30
0.0
  0
VERTEX
  5
216
  8
PROFILEEDGES
 10
-95.53563933282153
 20
56.32140066137104
 30
0.0
 40
1.201131308198438
 41
1.201131308198438
  0
VERTEX
  5
217
  8
PROFILEEDGES
 10
-103.8208751644082
 20
52.88954361246822
 30
0.0
 40
1.201131308198438
 41
1.201131308198438
  0
SEQEND
  5
3F1
  8
PROFILEEDGES
  0
POLYLINE
  5
C0
  8
PROFILEEDGES
 66
     1
 10
0.0
 20
0.0
 30
0.0
  0
VERTEX
  5
218
  8
PROFILEEDGES
 10
-124.1106393328215
 20
35.56044792361784
 30
0.0
 40
1.201131308198438
 41
1.201131308198438
  0
VERTEX
  5
219
  8
PROFILEEDGES
 10
-128.7963409616585
 20
27.9140778152181
 30
0.0
 40
1.201131308198438
 41
1.201131308198438
  0
SEQEND
  5
3F2
  8
PROFILEEDGES
  0
POLYLINE
  5
C1
  8
PROFILEEDGES
 66
     1
 10
0.0
 20
0.0
 30
0.0
  0
VERTEX
  5
21A
  8
PROFILEEDGES
 10
-44.2833909357783
 20
48.20384198363127
 30
0.0
 40
1.201131308198438
 41
1.201131308198438
  0
VERTEX
  5
21B
  8
PROFILEEDGES
 10
-51.92976104417799
 20
52.88954361246827
 30
0.0
 40
1.201131308198438
 41
1.201131308198438
  0
SEQEND
  5
3F3
  8
PROFILEEDGES
  0
POLYLINE
  5
C2
  8
PROFILEEDGES
 66
     1
 10
0.0
 20
0.0
 30
0.0
  0
VERTEX
  5
21C
  8
PROFILEEDGES
 10
-44.2833909357783
 20
48.20384198363127
 30
0.0
 40
1.201131308198438
 41
1.201131308198438
  0
VERTEX
  5
21D
  8
PROFILEEDGES
 10
-37.46416555948211
 20
42.37967329991421
 30
0.0
 40
1.201131308198438
 41
1.201131308198438
  0
SEQEND
  5
3F4
  8
PROFILEEDGES
  0
POLYLINE
  5
C3
  8
PROFILEEDGES
 66
     1
 10
0.0
 20
0.0
 30
0.0
  0
VERTEX
  5
21E
  8
PROFILEEDGES
 10
-86.8155477813425
 20
58.41490942011513
 30
0.0
 40
1.201131308198438
 41
1.201131308198438
  0
VERTEX
  5
21F
  8
PROFILEEDGES
 10
-95.53563933282153
 20
56.32140066137104
 30
0.0
 40
1.201131308198438
 41
1.201131308198438
  0
SEQEND
  5
3F5
  8
PROFILEEDGES
  0
POLYLINE
  5
C4
  8
PROFILEEDGES
 66
     1
 10
0.0
 20
0.0
 30
0.0
  0
VERTEX
  5
220
  8
PROFILEEDGES
 10
-103.8208751644082
 20
52.88954361246822
 30
0.0
 40
1.201131308198438
 41
1.201131308198438
  0
VERTEX
  5
221
  8
PROFILEEDGES
 10
-111.4672452728079
 20
48.20384198363127
 30
0.0
 40
1.201131308198438
 41
1.201131308198438
  0
SEQEND
  5
3F6
  8
PROFILEEDGES
  0
POLYLINE
  5
C5
  8
PROFILEEDGES
 66
     1
 10
0.0
 20
0.0
 30
0.0
  0
VERTEX
  5
222
  8
PROFILEEDGES
 10
-37.46416555948211
 20
42.37967329991421
 30
0.0
 40
1.201131308198438
 41
1.201131308198438
  0
VERTEX
  5
223
  8
PROFILEEDGES
 10
-31.639996875765
 20
35.56044792361786
 30
0.0
 40
1.201131308198438
 41
1.201131308198438
  0
SEQEND
  5
3F7
  8
PROFILEEDGES
  0
POLYLINE
  5
C6
  8
PROFILEEDGES
 66
     1
 10
0.0
 20
0.0
 30
0.0
  0
VERTEX
  5
224
  8
PROFILEEDGES
 10
-134.3217067693052
 20
10.9087504321522
 30
0.0
 40
1.201131308198438
 41
1.201131308198438
  0
VERTEX
  5
225
  8
PROFILEEDGES
 10
-132.2281980105611
 20
19.62884198363125
 30
0.0
 40
1.201131308198438
 41
1.201131308198438
  0
SEQEND
  5
3F8
  8
PROFILEEDGES
  0
POLYLINE
  5
C7
  8
PROFILEEDGES
 66
     1
 10
0.0
 20
0.0
 30
0.0
  0
VERTEX
  5
226
  8
PROFILEEDGES
 10
-134.3217067693052
 20
10.9087504321522
 30
0.0
 40
1.201131308198438
 41
1.201131308198438
  0
VERTEX
  5
227
  8
PROFILEEDGES
 10
-135.0253181042933
 20
1.968520755102987
 30
0.0
 40
1.201131308198438
 41
1.201131308198438
  0
SEQEND
  5
3F9
  8
PROFILEEDGES
  0
POLYLINE
  5
C8
  8
PROFILEEDGES
 66
     1
 10
0.0
 20
0.0
 30
0.0
  0
VERTEX
  5
228
  8
PROFILEEDGES
 10
-135.0253181042933
 20
1.968520755102987
 30
0.0
 40
1.201131308198438
 41
1.201131308198438
  0
VERTEX
  5
229
  8
PROFILEEDGES
 10
-134.3217067693052
 20
-6.971708921946202
 30
0.0
 40
1.201131308198438
 41
1.201131308198438
  0
SEQEND
  5
3FA
  8
PROFILEEDGES
  0
POLYLINE
  5
C9
  8
PROFILEEDGES
 66
     1
 10
0.0
 20
0.0
 30
0.0
  0
VERTEX
  5
22A
  8
PROFILEEDGES
 10
-77.87531810429327
 20
59.11852075510301
 30
0.0
 40
1.201131308198438
 41
1.201131308198438
  0
VERTEX
  5
22B
  8
PROFILEEDGES
 10
-68.93508842724403
 20
58.41490942011513
 30
0.0
 40
1.201131308198438
 41
1.201131308198438
  0
SEQEND
  5
3FB
  8
PROFILEEDGES
  0
POLYLINE
  5
CA
  8
PROFILEEDGES
 66
     1
 10
0.0
 20
0.0
 30
0.0
  0
VERTEX
  5
22C
  8
PROFILEEDGES
 10
-134.3217067693052
 20
-6.971708921946202
 30
0.0
 40
1.201131308198438
 41
1.201131308198438
  0
VERTEX
  5
22D
  8
PROFILEEDGES
 10
-132.2281980105611
 20
-15.69180047342525
 30
0.0
 40
1.201131308198438
 41
1.201131308198438
  0
SEQEND
  5
3FC
  8
PROFILEEDGES
  0
POLYLINE
  5
CB
  8
PROFILEEDGES
 66
     1
 10
0.0
 20
0.0
 30
0.0
  0
VERTEX
  5
22E
  8
PROFILEEDGES
 10
-60.214996875765
 20
56.32140066137104
 30
0.0
 40
1.201131308198438
 41
1.201131308198438
  0
VERTEX
  5
22F
  8
PROFILEEDGES
 10
-51.92976104417799
 20
52.88954361246827
 30
0.0
 40
1.201131308198438
 41
1.201131308198438
  0
SEQEND
  5
3FD
  8
PROFILEEDGES
  0
POLYLINE
  5
CC
  8
PROFILEEDGES
 66
     1
 10
0.0
 20
0.0
 30
0.0
  0
VERTEX
  5
230
  8
PROFILEEDGES
 10
-128.7963409616585
 20
-23.97703630501208
 30
0.0
 40
1.201131308198438
 41
1.201131308198438
  0
VERTEX
  5
231
  8
PROFILEEDGES
 10
-132.2281980105611
 20
-15.69180047342525
 30
0.0
 40
1.201131308198438
 41
1.201131308198438
  0
SEQEND
  5
3FE
  8
PROFILEEDGES
  0
POLYLINE
  5
CD
  8
PROFILEEDGES
 66
     1
 10
0.0
 20
0.0
 30
0.0
  0
VERTEX
  5
232
  8
PROFILEEDGES
 10
-124.1106393328215
 20
-31.62340641341184
 30
0.0
 40
1.201131308198438
 41
1.201131308198438
  0
VERTEX
  5
233
  8
PROFILEEDGES
 10
-128.7963409616585
 20
-23.97703630501208
 30
0.0
 40
1.201131308198438
 41
1.201131308198438
  0
SEQEND
  5
3FF
  8
PROFILEEDGES
  0
LINE
  5
CE
  8
0
 10
-90.89668947984336
 20
-105.0328506204473
 30
0.0
 11
-88.69938352525908
 21
-106.9095271963117
 31
0.0
  0
POLYLINE
  5
CF
  8
PROFILEEDGES
 66
     1
 10
0.0
 20
0.0
 30
0.0
  0
VERTEX
  5
234
  8
PROFILEEDGES
 10
-111.4672452728079
 20
-44.26680047342523
 30
0.0
 40
1.201131308198438
 41
1.201131308198438
  0
VERTEX
  5
235
  8
PROFILEEDGES
 10
-103.8208751644082
 20
-48.95250210226222
 30
0.0
 40
1.201131308198438
 41
1.201131308198438
  0
SEQEND
  5
400
  8
PROFILEEDGES
  0
POLYLINE
  5
D0
  8
PROFILEEDGES
 66
     1
 10
0.0
 20
0.0
 30
0.0
  0
VERTEX
  5
236
  8
PROFILEEDGES
 10
-232.4790653932332
 20
52.20232336069441
 30
0.0
 40
1.201131308198438
 41
1.201131308198438
  0
VERTEX
  5
237
  8
PROFILEEDGES
 10
-238.4339347514386
 20
27.3985073920429
 30
0.0
 40
1.201131308198438
 41
1.201131308198438
  0
SEQEND
  5
401
  8
PROFILEEDGES
  0
POLYLINE
  5
D1
  8
PROFILEEDGES
 66
     1
 10
0.0
 20
0.0
 30
0.0
  0
VERTEX
  5
238
  8
PROFILEEDGES
 10
-173.4256887169575
 20
-129.5452818504885
 30
0.0
 40
1.201131308198438
 41
1.201131308198438
  0
VERTEX
  5
239
  8
PROFILEEDGES
 10
-151.6760137419541
 20
-142.8734998169581
 30
0.0
 40
1.201131308198438
 41
1.201131308198438
  0
SEQEND
  5
402
  8
PROFILEEDGES
  0
POLYLINE
  5
D2
  8
PROFILEEDGES
 66
     1
 10
0.0
 20
0.0
 30
0.0
  0
VERTEX
  5
23A
  8
PROFILEEDGES
 10
-192.8225964539782
 20
-112.9787575945822
 30
0.0
 40
1.201131308198438
 41
1.201131308198438
  0
VERTEX
  5
23B
  8
PROFILEEDGES
 10
-173.4256887169575
 20
-129.5452818504885
 30
0.0
 40
1.201131308198438
 41
1.201131308198438
  0
SEQEND
  5
403
  8
PROFILEEDGES
  0
POLYLINE
  5
D3
  8
PROFILEEDGES
 66
     1
 10
0.0
 20
0.0
 30
0.0
  0
VERTEX
  5
23C
  8
PROFILEEDGES
 10
-95.53563933282153
 20
-52.38435915116501
 30
0.0
 40
1.201131308198438
 41
1.201131308198438
  0
VERTEX
  5
23D
  8
PROFILEEDGES
 10
-103.8208751644082
 20
-48.95250210226222
 30
0.0
 40
1.201131308198438
 41
1.201131308198438
  0
SEQEND
  5
404
  8
PROFILEEDGES
  0
POLYLINE
  5
D4
  8
PROFILEEDGES
 66
     1
 10
0.0
 20
0.0
 30
0.0
  0
VERTEX
  5
23E
  8
PROFILEEDGES
 10
-238.4339347514386
 20
27.3985073920429
 30
0.0
 40
1.201131308198438
 41
1.201131308198438
  0
VERTEX
  5
23F
  8
PROFILEEDGES
 10
-240.435318104293
 20
1.968520755102987
 30
0.0
 40
1.201131308198438
 41
1.201131308198438
  0
SEQEND
  5
405
  8
PROFILEEDGES
  0
LINE
  5
D5
  8
0
 10
-90.89668947984336
 20
-78.9901078693466
 30
0.0
 11
-92.77336605570787
 21
-81.187413823931
 31
0.0
  0
POLYLINE
  5
D6
  8
PROFILEEDGES
 66
     1
 10
0.0
 20
0.0
 30
0.0
  0
VERTEX
  5
240
  8
PROFILEEDGES
 10
-77.87531810429327
 20
164.528520755103
 30
0.0
 40
1.201131308198438
 41
1.201131308198438
  0
VERTEX
  5
241
  8
PROFILEEDGES
 10
-103.3053047412333
 20
162.5271374022486
 30
0.0
 40
1.201131308198438
 41
1.201131308198438
  0
SEQEND
  5
406
  8
PROFILEEDGES
  0
LINE
  5
D7
  8
0
 10
-86.23555315699704
 20
-75.60359410196807
 30
0.0
 11
-88.69938352525908
 21
-77.11343129348221
 31
0.0
  0
LINE
  5
D8
  8
0
 10
-83.56586605570794
 20
-74.4977734973216
 30
0.0
 11
-86.23555315699704
 21
-75.60359410196807
 31
0.0
  0
LINE
  5
D9
  8
0
 10
-92.77336605570787
 20
-102.8355446658629
 30
0.0
 11
-90.89668947984336
 21
-105.0328506204473
 31
0.0
  0
POLYLINE
  5
DA
  8
PROFILEEDGES
 66
     1
 10
0.0
 20
0.0
 30
0.0
  0
VERTEX
  5
242
  8
PROFILEEDGES
 10
-151.6760137419541
 20
146.8105413271641
 30
0.0
 40
1.201131308198438
 41
1.201131308198438
  0
VERTEX
  5
243
  8
PROFILEEDGES
 10
-173.4256887169575
 20
133.4823233606945
 30
0.0
 40
1.201131308198438
 41
1.201131308198438
  0
SEQEND
  5
407
  8
PROFILEEDGES
  0
POLYLINE
  5
DB
  8
PROFILEEDGES
 66
     1
 10
0.0
 20
0.0
 30
0.0
  0
VERTEX
  5
244
  8
PROFILEEDGES
 10
-95.53563933282153
 20
-52.38435915116501
 30
0.0
 40
1.201131308198438
 41
1.201131308198438
  0
VERTEX
  5
245
  8
PROFILEEDGES
 10
-86.8155477813425
 20
-54.47786790990911
 30
0.0
 40
1.201131308198438
 41
1.201131308198438
  0
SEQEND
  5
408
  8
PROFILEEDGES
  0
POLYLINE
  5
DC
  8
PROFILEEDGES
 66
     1
 10
0.0
 20
0.0
 30
0.0
  0
VERTEX
  5
246
  8
PROFILEEDGES
 10
-86.8155477813425
 20
-54.47786790990911
 30
0.0
 40
1.201131308198438
 41
1.201131308198438
  0
VERTEX
  5
247
  8
PROFILEEDGES
 10
-77.87531810429327
 20
-55.18147924489698
 30
0.0
 40
1.201131308198438
 41
1.201131308198438
  0
SEQEND
  5
409
  8
PROFILEEDGES
  0
POLYLINE
  5
DD
  8
PROFILEEDGES
 66
     1
 10
0.0
 20
0.0
 30
0.0
  0
VERTEX
  5
248
  8
PROFILEEDGES
 10
-151.6760137419541
 20
-142.8734998169581
 30
0.0
 40
1.201131308198438
 41
1.201131308198438
  0
VERTEX
  5
249
  8
PROFILEEDGES
 10
-128.1091207098846
 20
-152.6352265338372
 30
0.0
 40
1.201131308198438
 41
1.201131308198438
  0
SEQEND
  5
40A
  8
PROFILEEDGES
  0
LINE
  5
DE
  8
0
 10
-94.2832032472222
 20
-100.3717142976008
 30
0.0
 11
-92.77336605570787
 21
-102.8355446658629
 31
0.0
  0
LINE
  5
DF
  8
0
 10
-80.75605877800888
 20
-73.82319845283739
 30
0.0
 11
-83.56586605570794
 21
-74.4977734973216
 31
0.0
  0
LINE
  5
E0
  8
0
 10
-86.23555315699704
 20
-108.4193643878259
 30
0.0
 11
-83.56586605570794
 21
-109.5251849924723
 31
0.0
  0
POLYLINE
  5
E1
  8
PROFILEEDGES
 66
     1
 10
0.0
 20
0.0
 30
0.0
  0
VERTEX
  5
24A
  8
PROFILEEDGES
 10
-128.1091207098846
 20
156.5722680440431
 30
0.0
 40
1.201131308198438
 41
1.201131308198438
  0
VERTEX
  5
24B
  8
PROFILEEDGES
 10
-151.6760137419541
 20
146.8105413271641
 30
0.0
 40
1.201131308198438
 41
1.201131308198438
  0
SEQEND
  5
40B
  8
PROFILEEDGES
  0
POLYLINE
  5
E2
  8
PROFILEEDGES
 66
     1
 10
0.0
 20
0.0
 30
0.0
  0
VERTEX
  5
24C
  8
PROFILEEDGES
 10
-118.2864706491044
 20
-38.44263178970819
 30
0.0
 40
1.201131308198438
 41
1.201131308198438
  0
VERTEX
  5
24D
  8
PROFILEEDGES
 10
-111.4672452728079
 20
-44.26680047342523
 30
0.0
 40
1.201131308198438
 41
1.201131308198438
  0
SEQEND
  5
40C
  8
PROFILEEDGES
  0
POLYLINE
  5
E3
  8
PROFILEEDGES
 66
     1
 10
0.0
 20
0.0
 30
0.0
  0
VERTEX
  5
24E
  8
PROFILEEDGES
 10
-124.1106393328215
 20
-31.62340641341184
 30
0.0
 40
1.201131308198438
 41
1.201131308198438
  0
VERTEX
  5
24F
  8
PROFILEEDGES
 10
-118.2864706491044
 20
-38.44263178970819
 30
0.0
 40
1.201131308198438
 41
1.201131308198438
  0
SEQEND
  5
40D
  8
PROFILEEDGES
  0
POLYLINE
  5
E4
  8
PROFILEEDGES
 66
     1
 10
0.0
 20
0.0
 30
0.0
  0
VERTEX
  5
250
  8
PROFILEEDGES
 10
-222.7173386763542
 20
75.76921639276371
 30
0.0
 40
1.201131308198438
 41
1.201131308198438
  0
VERTEX
  5
251
  8
PROFILEEDGES
 10
-232.4790653932332
 20
52.20232336069441
 30
0.0
 40
1.201131308198438
 41
1.201131308198438
  0
SEQEND
  5
40E
  8
PROFILEEDGES
  0
POLYLINE
  5
E5
  8
PROFILEEDGES
 66
     1
 10
0.0
 20
0.0
 30
0.0
  0
VERTEX
  5
252
  8
PROFILEEDGES
 10
-52.44533146735321
 20
162.5271374022486
 30
0.0
 40
1.201131308198438
 41
1.201131308198438
  0
VERTEX
  5
253
  8
PROFILEEDGES
 10
-77.87531810429327
 20
164.528520755103
 30
0.0
 40
1.201131308198438
 41
1.201131308198438
  0
SEQEND
  5
40F
  8
PROFILEEDGES
  0
POLYLINE
  5
E6
  8
PROFILEEDGES
 66
     1
 10
0.0
 20
0.0
 30
0.0
  0
VERTEX
  5
254
  8
PROFILEEDGES
 10
-103.305304741233
 20
-158.5900958920426
 30
0.0
 40
1.201131308198438
 41
1.201131308198438
  0
VERTEX
  5
255
  8
PROFILEEDGES
 10
-77.87531810429327
 20
-160.591479244897
 30
0.0
 40
1.201131308198438
 41
1.201131308198438
  0
SEQEND
  5
410
  8
PROFILEEDGES
  0
LINE
  5
E7
  8
0
 10
-88.69938352525908
 20
-106.9095271963117
 30
0.0
 11
-86.23555315699704
 21
-108.4193643878259
 31
0.0
  0
POLYLINE
  5
E8
  8
PROFILEEDGES
 66
     1
 10
0.0
 20
0.0
 30
0.0
  0
VERTEX
  5
256
  8
PROFILEEDGES
 10
-173.4256887169575
 20
133.4823233606945
 30
0.0
 40
1.201131308198438
 41
1.201131308198438
  0
VERTEX
  5
257
  8
PROFILEEDGES
 10
-192.8225964539782
 20
116.9157991047882
 30
0.0
 40
1.201131308198438
 41
1.201131308198438
  0
SEQEND
  5
411
  8
PROFILEEDGES
  0
POLYLINE
  5
E9
  8
PROFILEEDGES
 66
     1
 10
0.0
 20
0.0
 30
0.0
  0
VERTEX
  5
258
  8
PROFILEEDGES
 10
-192.8225964539782
 20
116.9157991047882
 30
0.0
 40
1.201131308198438
 41
1.201131308198438
  0
VERTEX
  5
259
  8
PROFILEEDGES
 10
-209.3891207098847
 20
97.5188913677674
 30
0.0
 40
1.201131308198438
 41
1.201131308198438
  0
SEQEND
  5
412
  8
PROFILEEDGES
  0
POLYLINE
  5
EA
  8
PROFILEEDGES
 66
     1
 10
0.0
 20
0.0
 30
0.0
  0
VERTEX
  5
25A
  8
PROFILEEDGES
 10
-238.4339347514386
 20
-23.46146588183695
 30
0.0
 40
1.201131308198438
 41
1.201131308198438
  0
VERTEX
  5
25B
  8
PROFILEEDGES
 10
-232.4790653932332
 20
-48.26528185048846
 30
0.0
 40
1.201131308198438
 41
1.201131308198438
  0
SEQEND
  5
413
  8
PROFILEEDGES
  0
POLYLINE
  5
EB
  8
PROFILEEDGES
 66
     1
 10
0.0
 20
0.0
 30
0.0
  0
VERTEX
  5
25C
  8
PROFILEEDGES
 10
-240.435318104293
 20
1.968520755102987
 30
0.0
 40
1.201131308198438
 41
1.201131308198438
  0
VERTEX
  5
25D
  8
PROFILEEDGES
 10
-238.4339347514386
 20
-23.46146588183695
 30
0.0
 40
1.201131308198438
 41
1.201131308198438
  0
SEQEND
  5
414
  8
PROFILEEDGES
  0
POLYLINE
  5
EC
  8
PROFILEEDGES
 66
     1
 10
0.0
 20
0.0
 30
0.0
  0
VERTEX
  5
25E
  8
PROFILEEDGES
 10
-232.4790653932332
 20
-48.26528185048846
 30
0.0
 40
1.201131308198438
 41
1.201131308198438
  0
VERTEX
  5
25F
  8
PROFILEEDGES
 10
-222.7173386763542
 20
-71.83217488255774
 30
0.0
 40
1.201131308198438
 41
1.201131308198438
  0
SEQEND
  5
415
  8
PROFILEEDGES
  0
POLYLINE
  5
ED
  8
PROFILEEDGES
 66
     1
 10
0.0
 20
0.0
 30
0.0
  0
VERTEX
  5
260
  8
PROFILEEDGES
 10
-77.87531810429327
 20
-160.591479244897
 30
0.0
 40
1.201131308198438
 41
1.201131308198438
  0
VERTEX
  5
261
  8
PROFILEEDGES
 10
-52.44533146735321
 20
-158.5900958920426
 30
0.0
 40
1.201131308198438
 41
1.201131308198438
  0
SEQEND
  5
416
  8
PROFILEEDGES
  0
POLYLINE
  5
EE
  8
PROFILEEDGES
 66
     1
 10
0.0
 20
0.0
 30
0.0
  0
VERTEX
  5
262
  8
PROFILEEDGES
 10
-128.1091207098846
 20
-152.6352265338372
 30
0.0
 40
1.201131308198438
 41
1.201131308198438
  0
VERTEX
  5
263
  8
PROFILEEDGES
 10
-103.305304741233
 20
-158.5900958920426
 30
0.0
 40
1.201131308198438
 41
1.201131308198438
  0
SEQEND
  5
417
  8
PROFILEEDGES
  0
LINE
  5
EF
  8
0
 10
-95.38902385186864
 20
-97.70202719631165
 30
0.0
 11
-94.2832032472222
 21
-100.3717142976008
 31
0.0
  0
LINE
  5
F0
  8
0
 10
-96.0635988963529
 20
-89.13073857118108
 30
0.0
 11
-96.29031810429312
 21
-92.01147924489696
 31
0.0
  0
LINE
  5
F1
  8
0
 10
-80.75605877800888
 20
-110.1997600369565
 30
0.0
 11
-77.87531810429327
 21
-110.4264792448971
 31
0.0
  0
POLYLINE
  5
F2
  8
PROFILEEDGES
 66
     1
 10
0.0
 20
0.0
 30
0.0
  0
VERTEX
  5
264
  8
PROFILEEDGES
 10
-103.3053047412333
 20
162.5271374022486
 30
0.0
 40
1.201131308198438
 41
1.201131308198438
  0
VERTEX
  5
265
  8
PROFILEEDGES
 10
-128.1091207098846
 20
156.5722680440431
 30
0.0
 40
1.201131308198438
 41
1.201131308198438
  0
SEQEND
  5
418
  8
PROFILEEDGES
  0
LINE
  5
F3
  8
0
 10
-96.29031810429312
 20
-92.01147924489696
 30
0.0
 11
-96.0635988963529
 21
-94.89221991861282
 31
0.0
  0
POLYLINE
  5
F4
  8
PROFILEEDGES
 66
     1
 10
0.0
 20
0.0
 30
0.0
  0
VERTEX
  5
266
  8
PROFILEEDGES
 10
-209.3891207098847
 20
-93.58184985756144
 30
0.0
 40
1.201131308198438
 41
1.201131308198438
  0
VERTEX
  5
267
  8
PROFILEEDGES
 10
-192.8225964539782
 20
-112.9787575945822
 30
0.0
 40
1.201131308198438
 41
1.201131308198438
  0
SEQEND
  5
419
  8
PROFILEEDGES
  0
LINE
  5
F5
  8
0
 10
-83.56586605570794
 20
-109.5251849924723
 30
0.0
 11
-80.75605877800888
 21
-110.1997600369565
 31
0.0
  0
LINE
  5
F6
  8
0
 10
-96.0635988963529
 20
-94.89221991861282
 30
0.0
 11
-95.38902385186864
 21
-97.70202719631165
 31
0.0
  0
POLYLINE
  5
F7
  8
PROFILEEDGES
 66
     1
 10
0.0
 20
0.0
 30
0.0
  0
VERTEX
  5
268
  8
PROFILEEDGES
 10
-209.3891207098847
 20
97.5188913677674
 30
0.0
 40
1.201131308198438
 41
1.201131308198438
  0
VERTEX
  5
269
  8
PROFILEEDGES
 10
-222.7173386763542
 20
75.76921639276371
 30
0.0
 40
1.201131308198438
 41
1.201131308198438
  0
SEQEND
  5
41A
  8
PROFILEEDGES
  0
POLYLINE
  5
F8
  8
PROFILEEDGES
 66
     1
 10
0.0
 20
0.0
 30
0.0
  0
VERTEX
  5
26A
  8
PROFILEEDGES
 10
-222.7173386763542
 20
-71.83217488255774
 30
0.0
 40
1.201131308198438
 41
1.201131308198438
  0
VERTEX
  5
26B
  8
PROFILEEDGES
 10
-209.3891207098847
 20
-93.58184985756144
 30
0.0
 40
1.201131308198438
 41
1.201131308198438
  0
SEQEND
  5
41B
  8
PROFILEEDGES
  0
LINE
  5
F9
  8
0
 10
-95.38902385186864
 20
-86.32093129348226
 30
0.0
 11
-96.0635988963529
 21
-89.13073857118108
 31
0.0
  0
LINE
  5
FA
  8
0
 10
-94.2832032472222
 20
-83.65124419219315
 30
0.0
 11
-95.38902385186864
 21
-86.32093129348226
 31
0.0
  0
LINE
  5
FB
  8
0
 10
-92.77336605570787
 20
-81.187413823931
 30
0.0
 11
-94.2832032472222
 21
-83.65124419219315
 31
0.0
  0
LINE
  5
FC
  8
0
 10
-88.69938352525908
 20
-77.11343129348221
 30
0.0
 11
-90.89668947984336
 21
-78.9901078693466
 31
0.0
  0
LINE
  5
FD
  8
0
 10
-74.9945774305773
 20
-73.82319845283737
 30
0.0
 11
-77.87531810429327
 21
-73.59647924489684
 31
0.0
  0
POLYLINE
  5
FE
  8
PROFILEEDGES
 66
     1
 10
0.0
 20
0.0
 30
0.0
  0
VERTEX
  5
26C
  8
PROFILEEDGES
 10
53.63848450129811
 20
97.51889136776744
 30
0.0
 40
1.201131308198438
 41
1.201131308198438
  0
VERTEX
  5
26D
  8
PROFILEEDGES
 10
37.07196024539203
 20
116.9157991047882
 30
0.0
 40
1.201131308198438
 41
1.201131308198438
  0
SEQEND
  5
41C
  8
PROFILEEDGES
  0
POLYLINE
  5
FF
  8
PROFILEEDGES
 66
     1
 10
0.0
 20
0.0
 30
0.0
  0
VERTEX
  5
26E
  8
PROFILEEDGES
 10
45.73627566364807
 20
-103.6057539814516
 30
0.0
 40
1.201131308198438
 41
1.201131308198438
  0
VERTEX
  5
26F
  8
PROFILEEDGES
 10
57.28838207160872
 20
-88.34497632456348
 30
0.0
 40
1.201131308198438
 41
1.201131308198438
  0
SEQEND
  5
41D
  8
PROFILEEDGES
  0
LINE
  5
100
  8
0
 10
-67.05125268332709
 20
-77.11343129348221
 30
0.0
 11
-69.5150830515895
 21
-75.60359410196806
 31
0.0
  0
POLYLINE
  5
101
  8
PROFILEEDGES
 66
     1
 10
0.0
 20
0.0
 30
0.0
  0
VERTEX
  5
270
  8
PROFILEEDGES
 10
66.96670246776802
 20
75.76921639276375
 30
0.0
 40
1.201131308198438
 41
1.201131308198438
  0
VERTEX
  5
271
  8
PROFILEEDGES
 10
53.63848450129811
 20
97.51889136776744
 30
0.0
 40
1.201131308198438
 41
1.201131308198438
  0
SEQEND
  5
41E
  8
PROFILEEDGES
  0
POLYLINE
  5
102
  8
PROFILEEDGES
 66
     1
 10
0.0
 20
0.0
 30
0.0
  0
VERTEX
  5
272
  8
PROFILEEDGES
 10
-4.074622466632478
 20
146.8105413271641
 30
0.0
 40
1.201131308198438
 41
1.201131308198438
  0
VERTEX
  5
273
  8
PROFILEEDGES
 10
-27.64151549870159
 20
156.5722680440431
 30
0.0
 40
1.201131308198438
 41
1.201131308198438
  0
SEQEND
  5
41F
  8
PROFILEEDGES
  0
POLYLINE
  5
103
  8
PROFILEEDGES
 66
     1
 10
0.0
 20
0.0
 30
0.0
  0
VERTEX
  5
274
  8
PROFILEEDGES
 10
17.67505250837134
 20
133.4823233606945
 30
0.0
 40
1.201131308198438
 41
1.201131308198438
  0
VERTEX
  5
275
  8
PROFILEEDGES
 10
-4.074622466632478
 20
146.8105413271641
 30
0.0
 40
1.201131308198438
 41
1.201131308198438
  0
SEQEND
  5
420
  8
PROFILEEDGES
  0
POLYLINE
  5
104
  8
PROFILEEDGES
 66
     1
 10
0.0
 20
0.0
 30
0.0
  0
VERTEX
  5
276
  8
PROFILEEDGES
 10
17.67505250837134
 20
-129.5452818504884
 30
0.0
 40
1.201131308198438
 41
1.201131308198438
  0
VERTEX
  5
277
  8
PROFILEEDGES
 10
32.47053108954169
 20
-117.402946378762
 30
0.0
 40
1.201131308198438
 41
1.201131308198438
  0
SEQEND
  5
421
  8
PROFILEEDGES
  0
POLYLINE
  5
105
  8
PROFILEEDGES
 66
     1
 10
0.0
 20
0.0
 30
0.0
  0
VERTEX
  5
278
  8
PROFILEEDGES
 10
83.55789025829957
 20
-17.13835857564306
 30
0.0
 40
1.201131308198438
 41
1.201131308198438
  0
VERTEX
  5
279
  8
PROFILEEDGES
 10
84.68468189570687
 20
1.96852075510301
 30
0.0
 40
1.201131308198438
 41
1.201131308198438
  0
SEQEND
  5
422
  8
PROFILEEDGES
  0
POLYLINE
  5
106
  8
PROFILEEDGES
 66
     1
 10
0.0
 20
0.0
 30
0.0
  0
VERTEX
  5
27A
  8
PROFILEEDGES
 10
74.63706546326584
 20
-54.29626804341424
 30
0.0
 40
1.201131308198438
 41
1.201131308198438
  0
VERTEX
  5
27B
  8
PROFILEEDGES
 10
80.1931361555532
 20
-35.98035759331295
 30
0.0
 40
1.201131308198438
 41
1.201131308198438
  0
SEQEND
  5
423
  8
PROFILEEDGES
  0
POLYLINE
  5
107
  8
PROFILEEDGES
 66
     1
 10
0.0
 20
0.0
 30
0.0
  0
VERTEX
  5
27C
  8
PROFILEEDGES
 10
57.28838207160872
 20
-88.34497632456348
 30
0.0
 40
1.201131308198438
 41
1.201131308198438
  0
VERTEX
  5
27D
  8
PROFILEEDGES
 10
66.96670246776802
 20
-71.83217488255771
 30
0.0
 40
1.201131308198438
 41
1.201131308198438
  0
SEQEND
  5
424
  8
PROFILEEDGES
  0
LINE
  5
108
  8
0
 10
-72.18477015287858
 20
-74.4977734973216
 30
0.0
 11
-74.9945774305773
 21
-73.82319845283737
 31
0.0
  0
POLYLINE
  5
109
  8
PROFILEEDGES
 66
     1
 10
0.0
 20
0.0
 30
0.0
  0
VERTEX
  5
27E
  8
PROFILEEDGES
 10
80.1931361555532
 20
-35.98035759331295
 30
0.0
 40
1.201131308198438
 41
1.201131308198438
  0
VERTEX
  5
27F
  8
PROFILEEDGES
 10
83.55789025829957
 20
-17.13835857564306
 30
0.0
 40
1.201131308198438
 41
1.201131308198438
  0
SEQEND
  5
425
  8
PROFILEEDGES
  0
POLYLINE
  5
10A
  8
PROFILEEDGES
 66
     1
 10
0.0
 20
0.0
 30
0.0
  0
VERTEX
  5
280
  8
PROFILEEDGES
 10
82.68329854285247
 20
27.39850739204295
 30
0.0
 40
1.201131308198438
 41
1.201131308198438
  0
VERTEX
  5
281
  8
PROFILEEDGES
 10
76.72842918464704
 20
52.20232336069446
 30
0.0
 40
1.201131308198438
 41
1.201131308198438
  0
SEQEND
  5
426
  8
PROFILEEDGES
  0
POLYLINE
  5
10B
  8
PROFILEEDGES
 66
     1
 10
0.0
 20
0.0
 30
0.0
  0
VERTEX
  5
282
  8
PROFILEEDGES
 10
84.68468189570687
 20
1.96852075510301
 30
0.0
 40
1.201131308198438
 41
1.201131308198438
  0
VERTEX
  5
283
  8
PROFILEEDGES
 10
82.68329854285247
 20
27.39850739204295
 30
0.0
 40
1.201131308198438
 41
1.201131308198438
  0
SEQEND
  5
427
  8
PROFILEEDGES
  0
LINE
  5
10C
  8
0
 10
-64.85394672874281
 20
-78.9901078693466
 30
0.0
 11
-67.05125268332709
 21
-77.11343129348221
 31
0.0
  0
POLYLINE
  5
10D
  8
PROFILEEDGES
 66
     1
 10
0.0
 20
0.0
 30
0.0
  0
VERTEX
  5
284
  8
PROFILEEDGES
 10
32.47053108954169
 20
-117.402946378762
 30
0.0
 40
1.201131308198438
 41
1.201131308198438
  0
VERTEX
  5
285
  8
PROFILEEDGES
 10
45.73627566364807
 20
-103.6057539814516
 30
0.0
 40
1.201131308198438
 41
1.201131308198438
  0
SEQEND
  5
428
  8
PROFILEEDGES
  0
POLYLINE
  5
10E
  8
PROFILEEDGES
 66
     1
 10
0.0
 20
0.0
 30
0.0
  0
VERTEX
  5
286
  8
PROFILEEDGES
 10
37.07196024539203
 20
116.9157991047882
 30
0.0
 40
1.201131308198438
 41
1.201131308198438
  0
VERTEX
  5
287
  8
PROFILEEDGES
 10
17.67505250837134
 20
133.4823233606945
 30
0.0
 40
1.201131308198438
 41
1.201131308198438
  0
SEQEND
  5
429
  8
PROFILEEDGES
  0
LINE
  5
10F
  8
0
 10
-77.87531810429327
 20
-73.59647924489684
 30
0.0
 11
-80.75605877800888
 21
-73.82319845283739
 31
0.0
  0
POLYLINE
  5
110
  8
PROFILEEDGES
 66
     1
 10
0.0
 20
0.0
 30
0.0
  0
VERTEX
  5
288
  8
PROFILEEDGES
 10
76.72842918464704
 20
52.20232336069446
 30
0.0
 40
1.201131308198438
 41
1.201131308198438
  0
VERTEX
  5
289
  8
PROFILEEDGES
 10
66.96670246776802
 20
75.76921639276375
 30
0.0
 40
1.201131308198438
 41
1.201131308198438
  0
SEQEND
  5
42A
  8
PROFILEEDGES
  0
POLYLINE
  5
111
  8
PROFILEEDGES
 66
     1
 10
0.0
 20
0.0
 30
0.0
  0
VERTEX
  5
28A
  8
PROFILEEDGES
 10
-27.64151549870159
 20
156.5722680440431
 30
0.0
 40
1.201131308198438
 41
1.201131308198438
  0
VERTEX
  5
28B
  8
PROFILEEDGES
 10
-52.44533146735321
 20
162.5271374022486
 30
0.0
 40
1.201131308198438
 41
1.201131308198438
  0
SEQEND
  5
42B
  8
PROFILEEDGES
  0
POLYLINE
  5
112
  8
PROFILEEDGES
 66
     1
 10
0.0
 20
0.0
 30
0.0
  0
VERTEX
  5
28C
  8
PROFILEEDGES
 10
-27.64151549870159
 20
-152.6352265338371
 30
0.0
 40
1.201131308198438
 41
1.201131308198438
  0
VERTEX
  5
28D
  8
PROFILEEDGES
 10
-4.074622466632478
 20
-142.8734998169581
 30
0.0
 40
1.201131308198438
 41
1.201131308198438
  0
SEQEND
  5
42C
  8
PROFILEEDGES
  0
POLYLINE
  5
113
  8
PROFILEEDGES
 66
     1
 10
0.0
 20
0.0
 30
0.0
  0
VERTEX
  5
28E
  8
PROFILEEDGES
 10
-4.074622466632478
 20
-142.8734998169581
 30
0.0
 40
1.201131308198438
 41
1.201131308198438
  0
VERTEX
  5
28F
  8
PROFILEEDGES
 10
17.67505250837134
 20
-129.5452818504884
 30
0.0
 40
1.201131308198438
 41
1.201131308198438
  0
SEQEND
  5
42D
  8
PROFILEEDGES
  0
LINE
  5
114
  8
0
 10
-69.5150830515895
 20
-75.60359410196806
 30
0.0
 11
-72.18477015287858
 21
-74.4977734973216
 31
0.0
  0
POLYLINE
  5
115
  8
PROFILEEDGES
 66
     1
 10
0.0
 20
0.0
 30
0.0
  0
VERTEX
  5
290
  8
PROFILEEDGES
 10
-52.44533146735321
 20
-158.5900958920426
 30
0.0
 40
1.201131308198438
 41
1.201131308198438
  0
VERTEX
  5
291
  8
PROFILEEDGES
 10
-27.64151549870159
 20
-152.6352265338371
 30
0.0
 40
1.201131308198438
 41
1.201131308198438
  0
SEQEND
  5
42E
  8
PROFILEEDGES
  0
LINE
  5
116
  8
0
 10
-62.9772701528783
 20
-81.187413823931
 30
0.0
 11
-64.85394672874281
 21
-78.9901078693466
 31
0.0
  0
POLYLINE
  5
117
  8
PROFILEEDGES
 66
     1
 10
0.0
 20
0.0
 30
0.0
  0
VERTEX
  5
292
  8
PROFILEEDGES
 10
66.96670246776802
 20
-71.83217488255771
 30
0.0
 40
1.201131308198438
 41
1.201131308198438
  0
VERTEX
  5
293
  8
PROFILEEDGES
 10
74.63706546326584
 20
-54.29626804341424
 30
0.0
 40
1.201131308198438
 41
1.201131308198438
  0
SEQEND
  5
42F
  8
PROFILEEDGES
  0
POLYLINE
  5
118
  8
PROFILEEDGES
 66
     1
 10
0.0
 20
0.0
 30
0.0
  0
VERTEX
  5
294
  8
PROFILEEDGES
 10
-61.56858360106735
 20
4.551253772917231
 30
0.0
 40
1.201131308198438
 41
1.201131308198438
  0
VERTEX
  5
295
  8
PROFILEEDGES
 10
-62.17337502026032
 20
7.0703913322334
 30
0.0
 40
1.201131308198438
 41
1.201131308198438
  0
SEQEND
  5
430
  8
PROFILEEDGES
  0
POLYLINE
  5
119
  8
PROFILEEDGES
 66
     1
 10
0.0
 20
0.0
 30
0.0
  0
VERTEX
  5
296
  8
PROFILEEDGES
 10
-63.16480038994315
 20
9.463903905802932
 30
0.0
 40
1.201131308198438
 41
1.201131308198438
  0
VERTEX
  5
297
  8
PROFILEEDGES
 10
-64.51844752716276
 20
11.67285527045175
 30
0.0
 40
1.201131308198438
 41
1.201131308198438
  0
SEQEND
  5
431
  8
PROFILEEDGES
  0
POLYLINE
  5
11A
  8
PROFILEEDGES
 66
     1
 10
0.0
 20
0.0
 30
0.0
  0
VERTEX
  5
298
  8
PROFILEEDGES
 10
-70.93485419692874
 20
-96.43605465890784
 30
0.0
 40
1.201131308198438
 41
1.201131308198438
  0
VERTEX
  5
299
  8
PROFILEEDGES
 10
-71.61048888746275
 20
-97.34791699220354
 30
0.0
 40
1.201131308198438
 41
1.201131308198438
  0
SEQEND
  5
432
  8
PROFILEEDGES
  0
POLYLINE
  5
11B
  8
PROFILEEDGES
 66
     1
 10
0.0
 20
0.0
 30
0.0
  0
VERTEX
  5
29A
  8
PROFILEEDGES
 10
-75.29258508647895
 20
-14.33821374812273
 30
0.0
 40
1.201131308198438
 41
1.201131308198438
  0
VERTEX
  5
29B
  8
PROFILEEDGES
 10
-72.77344752716283
 20
-13.73342232892998
 30
0.0
 40
1.201131308198438
 41
1.201131308198438
  0
SEQEND
  5
433
  8
PROFILEEDGES
  0
POLYLINE
  5
11C
  8
PROFILEEDGES
 66
     1
 10
0.0
 20
0.0
 30
0.0
  0
VERTEX
  5
29C
  8
PROFILEEDGES
 10
-77.87531810429327
 20
-14.541479244897
 30
0.0
 40
1.201131308198438
 41
1.201131308198438
  0
VERTEX
  5
29D
  8
PROFILEEDGES
 10
-75.29258508647895
 20
-14.33821374812273
 30
0.0
 40
1.201131308198438
 41
1.201131308198438
  0
SEQEND
  5
434
  8
PROFILEEDGES
  0
POLYLINE
  5
11D
  8
PROFILEEDGES
 66
     1
 10
0.0
 20
0.0
 30
0.0
  0
VERTEX
  5
29E
  8
PROFILEEDGES
 10
-74.81353088966054
 20
-99.65084899077189
 30
0.0
 40
1.201131308198438
 41
1.201131308198438
  0
VERTEX
  5
29F
  8
PROFILEEDGES
 10
-75.94896615601027
 20
-100.0123999801906
 30
0.0
 40
1.201131308198438
 41
1.201131308198438
  0
SEQEND
  5
435
  8
PROFILEEDGES
  0
POLYLINE
  5
11E
  8
PROFILEEDGES
 66
     1
 10
0.0
 20
0.0
 30
0.0
  0
VERTEX
  5
2A0
  8
PROFILEEDGES
 10
-70.3799349535931
 20
-12.74199695924695
 30
0.0
 40
1.201131308198438
 41
1.201131308198438
  0
VERTEX
  5
2A1
  8
PROFILEEDGES
 10
-68.17098358894427
 20
-11.38834982202738
 30
0.0
 40
1.201131308198438
 41
1.201131308198438
  0
SEQEND
  5
436
  8
PROFILEEDGES
  0
POLYLINE
  5
11F
  8
PROFILEEDGES
 66
     1
 10
0.0
 20
0.0
 30
0.0
  0
VERTEX
  5
2A2
  8
PROFILEEDGES
 10
-64.51844752716276
 20
-7.735813760245734
 30
0.0
 40
1.201131308198438
 41
1.201131308198438
  0
VERTEX
  5
2A3
  8
PROFILEEDGES
 10
-63.16480038994315
 20
-5.526862395596911
 30
0.0
 40
1.201131308198438
 41
1.201131308198438
  0
SEQEND
  5
437
  8
PROFILEEDGES
  0
POLYLINE
  5
120
  8
PROFILEEDGES
 66
     1
 10
0.0
 20
0.0
 30
0.0
  0
VERTEX
  5
2A4
  8
PROFILEEDGES
 10
-72.77344752716283
 20
-13.73342232892998
 30
0.0
 40
1.201131308198438
 41
1.201131308198438
  0
VERTEX
  5
2A5
  8
PROFILEEDGES
 10
-70.3799349535931
 20
-12.74199695924695
 30
0.0
 40
1.201131308198438
 41
1.201131308198438
  0
SEQEND
  5
438
  8
PROFILEEDGES
  0
POLYLINE
  5
121
  8
PROFILEEDGES
 66
     1
 10
0.0
 20
0.0
 30
0.0
  0
VERTEX
  5
2A6
  8
PROFILEEDGES
 10
-68.17098358894427
 20
-11.38834982202738
 30
0.0
 40
1.201131308198438
 41
1.201131308198438
  0
VERTEX
  5
2A7
  8
PROFILEEDGES
 10
-66.20098514690335
 20
-9.70581220228689
 30
0.0
 40
1.201131308198438
 41
1.201131308198438
  0
SEQEND
  5
439
  8
PROFILEEDGES
  0
POLYLINE
  5
122
  8
PROFILEEDGES
 66
     1
 10
0.0
 20
0.0
 30
0.0
  0
VERTEX
  5
2A8
  8
PROFILEEDGES
 10
-62.17337502026032
 20
-3.13334982202738
 30
0.0
 40
1.201131308198438
 41
1.201131308198438
  0
VERTEX
  5
2A9
  8
PROFILEEDGES
 10
-61.56858360106735
 20
-0.6142122627112113
 30
0.0
 40
1.201131308198438
 41
1.201131308198438
  0
SEQEND
  5
43A
  8
PROFILEEDGES
  0
POLYLINE
  5
123
  8
PROFILEEDGES
 66
     1
 10
0.0
 20
0.0
 30
0.0
  0
VERTEX
  5
2AA
  8
PROFILEEDGES
 10
-61.56858360106735
 20
-0.6142122627112113
 30
0.0
 40
1.201131308198438
 41
1.201131308198438
  0
VERTEX
  5
2AB
  8
PROFILEEDGES
 10
-61.36531810429312
 20
1.96852075510301
 30
0.0
 40
1.201131308198438
 41
1.201131308198438
  0
SEQEND
  5
43B
  8
PROFILEEDGES
  0
POLYLINE
  5
124
  8
PROFILEEDGES
 66
     1
 10
0.0
 20
0.0
 30
0.0
  0
VERTEX
  5
2AC
  8
PROFILEEDGES
 10
-61.36531810429312
 20
1.96852075510301
 30
0.0
 40
1.201131308198438
 41
1.201131308198438
  0
VERTEX
  5
2AD
  8
PROFILEEDGES
 10
-61.56858360106735
 20
4.551253772917231
 30
0.0
 40
1.201131308198438
 41
1.201131308198438
  0
SEQEND
  5
43C
  8
PROFILEEDGES
  0
POLYLINE
  5
125
  8
PROFILEEDGES
 66
     1
 10
0.0
 20
0.0
 30
0.0
  0
VERTEX
  5
2AE
  8
PROFILEEDGES
 10
-63.16480038994315
 20
-5.526862395596911
 30
0.0
 40
1.201131308198438
 41
1.201131308198438
  0
VERTEX
  5
2AF
  8
PROFILEEDGES
 10
-62.17337502026032
 20
-3.13334982202738
 30
0.0
 40
1.201131308198438
 41
1.201131308198438
  0
SEQEND
  5
43D
  8
PROFILEEDGES
  0
POLYLINE
  5
126
  8
PROFILEEDGES
 66
     1
 10
0.0
 20
0.0
 30
0.0
  0
VERTEX
  5
2B0
  8
PROFILEEDGES
 10
-66.20098514690335
 20
-9.70581220228689
 30
0.0
 40
1.201131308198438
 41
1.201131308198438
  0
VERTEX
  5
2B1
  8
PROFILEEDGES
 10
-64.51844752716276
 20
-7.735813760245734
 30
0.0
 40
1.201131308198438
 41
1.201131308198438
  0
SEQEND
  5
43E
  8
PROFILEEDGES
  0
POLYLINE
  5
127
  8
PROFILEEDGES
 66
     1
 10
0.0
 20
0.0
 30
0.0
  0
VERTEX
  5
2B2
  8
PROFILEEDGES
 10
-62.17337502026032
 20
7.0703913322334
 30
0.0
 40
1.201131308198438
 41
1.201131308198438
  0
VERTEX
  5
2B3
  8
PROFILEEDGES
 10
-63.16480038994315
 20
9.463903905802932
 30
0.0
 40
1.201131308198438
 41
1.201131308198438
  0
SEQEND
  5
43F
  8
PROFILEEDGES
  0
POLYLINE
  5
128
  8
PROFILEEDGES
 66
     1
 10
0.0
 20
0.0
 30
0.0
  0
VERTEX
  5
2B4
  8
PROFILEEDGES
 10
-93.57726118832622
 20
7.070391332233378
 30
0.0
 40
1.201131308198438
 41
1.201131308198438
  0
VERTEX
  5
2B5
  8
PROFILEEDGES
 10
-94.18205260751883
 20
4.551253772917208
 30
0.0
 40
1.201131308198438
 41
1.201131308198438
  0
SEQEND
  5
440
  8
PROFILEEDGES
  0
POLYLINE
  5
129
  8
PROFILEEDGES
 66
     1
 10
0.0
 20
0.0
 30
0.0
  0
VERTEX
  5
2B6
  8
PROFILEEDGES
 10
-89.54965106168319
 20
-9.70581220228689
 30
0.0
 40
1.201131308198438
 41
1.201131308198438
  0
VERTEX
  5
2B7
  8
PROFILEEDGES
 10
-87.57965261964189
 20
-11.38834982202738
 30
0.0
 40
1.201131308198438
 41
1.201131308198438
  0
SEQEND
  5
441
  8
PROFILEEDGES
  0
POLYLINE
  5
12A
  8
PROFILEEDGES
 66
     1
 10
0.0
 20
0.0
 30
0.0
  0
VERTEX
  5
2B8
  8
PROFILEEDGES
 10
-89.54965106168319
 20
13.64285371249291
 30
0.0
 40
1.201131308198438
 41
1.201131308198438
  0
VERTEX
  5
2B9
  8
PROFILEEDGES
 10
-91.23218868142341
 20
11.67285527045173
 30
0.0
 40
1.201131308198438
 41
1.201131308198438
  0
SEQEND
  5
442
  8
PROFILEEDGES
  0
POLYLINE
  5
12B
  8
PROFILEEDGES
 66
     1
 10
0.0
 20
0.0
 30
0.0
  0
VERTEX
  5
2BA
  8
PROFILEEDGES
 10
-68.17098358894427
 20
15.32539133223338
 30
0.0
 40
1.201131308198438
 41
1.201131308198438
  0
VERTEX
  5
2BB
  8
PROFILEEDGES
 10
-70.3799349535931
 20
16.67903846945297
 30
0.0
 40
1.201131308198438
 41
1.201131308198438
  0
SEQEND
  5
443
  8
PROFILEEDGES
  0
POLYLINE
  5
12C
  8
PROFILEEDGES
 66
     1
 10
0.0
 20
0.0
 30
0.0
  0
VERTEX
  5
2BC
  8
PROFILEEDGES
 10
-77.87531810429327
 20
18.47852075510302
 30
0.0
 40
1.201131308198438
 41
1.201131308198438
  0
VERTEX
  5
2BD
  8
PROFILEEDGES
 10
-80.45805112210722
 20
18.27525525832874
 30
0.0
 40
1.201131308198438
 41
1.201131308198438
  0
SEQEND
  5
444
  8
PROFILEEDGES
  0
POLYLINE
  5
12D
  8
PROFILEEDGES
 66
     1
 10
0.0
 20
0.0
 30
0.0
  0
VERTEX
  5
2BE
  8
PROFILEEDGES
 10
-94.38531810429305
 20
1.96852075510301
 30
0.0
 40
1.201131308198438
 41
1.201131308198438
  0
VERTEX
  5
2BF
  8
PROFILEEDGES
 10
-94.18205260751883
 20
-0.6142122627112113
 30
0.0
 40
1.201131308198438
 41
1.201131308198438
  0
SEQEND
  5
445
  8
PROFILEEDGES
  0
POLYLINE
  5
12E
  8
PROFILEEDGES
 66
     1
 10
0.0
 20
0.0
 30
0.0
  0
VERTEX
  5
2C0
  8
PROFILEEDGES
 10
-93.57726118832622
 20
-3.13334982202738
 30
0.0
 40
1.201131308198438
 41
1.201131308198438
  0
VERTEX
  5
2C1
  8
PROFILEEDGES
 10
-92.58583581864302
 20
-5.526862395596911
 30
0.0
 40
1.201131308198438
 41
1.201131308198438
  0
SEQEND
  5
446
  8
PROFILEEDGES
  0
POLYLINE
  5
12F
  8
PROFILEEDGES
 66
     1
 10
0.0
 20
0.0
 30
0.0
  0
VERTEX
  5
2C2
  8
PROFILEEDGES
 10
-91.23218868142341
 20
11.67285527045173
 30
0.0
 40
1.201131308198438
 41
1.201131308198438
  0
VERTEX
  5
2C3
  8
PROFILEEDGES
 10
-92.58583581864302
 20
9.463903905802932
 30
0.0
 40
1.201131308198438
 41
1.201131308198438
  0
SEQEND
  5
447
  8
PROFILEEDGES
  0
POLYLINE
  5
130
  8
PROFILEEDGES
 66
     1
 10
0.0
 20
0.0
 30
0.0
  0
VERTEX
  5
2C4
  8
PROFILEEDGES
 10
-85.37070125499308
 20
-12.74199695924695
 30
0.0
 40
1.201131308198438
 41
1.201131308198438
  0
VERTEX
  5
2C5
  8
PROFILEEDGES
 10
-82.9771886814237
 20
-13.73342232892998
 30
0.0
 40
1.201131308198438
 41
1.201131308198438
  0
SEQEND
  5
448
  8
PROFILEEDGES
  0
POLYLINE
  5
131
  8
PROFILEEDGES
 66
     1
 10
0.0
 20
0.0
 30
0.0
  0
VERTEX
  5
2C6
  8
PROFILEEDGES
 10
-80.45805112210722
 20
-14.33821374812273
 30
0.0
 40
1.201131308198438
 41
1.201131308198438
  0
VERTEX
  5
2C7
  8
PROFILEEDGES
 10
-77.87531810429327
 20
-14.541479244897
 30
0.0
 40
1.201131308198438
 41
1.201131308198438
  0
SEQEND
  5
449
  8
PROFILEEDGES
  0
POLYLINE
  5
132
  8
PROFILEEDGES
 66
     1
 10
0.0
 20
0.0
 30
0.0
  0
VERTEX
  5
2C8
  8
PROFILEEDGES
 10
-75.29258508647895
 20
18.27525525832874
 30
0.0
 40
1.201131308198438
 41
1.201131308198438
  0
VERTEX
  5
2C9
  8
PROFILEEDGES
 10
-77.87531810429327
 20
18.47852075510302
 30
0.0
 40
1.201131308198438
 41
1.201131308198438
  0
SEQEND
  5
44A
  8
PROFILEEDGES
  0
POLYLINE
  5
133
  8
PROFILEEDGES
 66
     1
 10
0.0
 20
0.0
 30
0.0
  0
VERTEX
  5
2CA
  8
PROFILEEDGES
 10
-87.57965261964189
 20
15.32539133223338
 30
0.0
 40
1.201131308198438
 41
1.201131308198438
  0
VERTEX
  5
2CB
  8
PROFILEEDGES
 10
-89.54965106168319
 20
13.64285371249291
 30
0.0
 40
1.201131308198438
 41
1.201131308198438
  0
SEQEND
  5
44B
  8
PROFILEEDGES
  0
POLYLINE
  5
134
  8
PROFILEEDGES
 66
     1
 10
0.0
 20
0.0
 30
0.0
  0
VERTEX
  5
2CC
  8
PROFILEEDGES
 10
-94.18205260751883
 20
4.551253772917208
 30
0.0
 40
1.201131308198438
 41
1.201131308198438
  0
VERTEX
  5
2CD
  8
PROFILEEDGES
 10
-94.38531810429305
 20
1.96852075510301
 30
0.0
 40
1.201131308198438
 41
1.201131308198438
  0
SEQEND
  5
44C
  8
PROFILEEDGES
  0
POLYLINE
  5
135
  8
PROFILEEDGES
 66
     1
 10
0.0
 20
0.0
 30
0.0
  0
VERTEX
  5
2CE
  8
PROFILEEDGES
 10
-94.18205260751883
 20
-0.6142122627112113
 30
0.0
 40
1.201131308198438
 41
1.201131308198438
  0
VERTEX
  5
2CF
  8
PROFILEEDGES
 10
-93.57726118832622
 20
-3.13334982202738
 30
0.0
 40
1.201131308198438
 41
1.201131308198438
  0
SEQEND
  5
44D
  8
PROFILEEDGES
  0
POLYLINE
  5
136
  8
PROFILEEDGES
 66
     1
 10
0.0
 20
0.0
 30
0.0
  0
VERTEX
  5
2D0
  8
PROFILEEDGES
 10
-91.23218868142341
 20
-7.735813760245734
 30
0.0
 40
1.201131308198438
 41
1.201131308198438
  0
VERTEX
  5
2D1
  8
PROFILEEDGES
 10
-89.54965106168319
 20
-9.70581220228689
 30
0.0
 40
1.201131308198438
 41
1.201131308198438
  0
SEQEND
  5
44E
  8
PROFILEEDGES
  0
POLYLINE
  5
137
  8
PROFILEEDGES
 66
     1
 10
0.0
 20
0.0
 30
0.0
  0
VERTEX
  5
2D2
  8
PROFILEEDGES
 10
-64.51844752716276
 20
11.67285527045175
 30
0.0
 40
1.201131308198438
 41
1.201131308198438
  0
VERTEX
  5
2D3
  8
PROFILEEDGES
 10
-66.20098514690335
 20
13.64285371249291
 30
0.0
 40
1.201131308198438
 41
1.201131308198438
  0
SEQEND
  5
44F
  8
PROFILEEDGES
  0
POLYLINE
  5
138
  8
PROFILEEDGES
 66
     1
 10
0.0
 20
0.0
 30
0.0
  0
VERTEX
  5
2D4
  8
PROFILEEDGES
 10
-87.57965261964189
 20
-11.38834982202738
 30
0.0
 40
1.201131308198438
 41
1.201131308198438
  0
VERTEX
  5
2D5
  8
PROFILEEDGES
 10
-85.37070125499308
 20
-12.74199695924695
 30
0.0
 40
1.201131308198438
 41
1.201131308198438
  0
SEQEND
  5
450
  8
PROFILEEDGES
  0
POLYLINE
  5
139
  8
PROFILEEDGES
 66
     1
 10
0.0
 20
0.0
 30
0.0
  0
VERTEX
  5
2D6
  8
PROFILEEDGES
 10
-82.9771886814237
 20
-13.73342232892998
 30
0.0
 40
1.201131308198438
 41
1.201131308198438
  0
VERTEX
  5
2D7
  8
PROFILEEDGES
 10
-80.45805112210722
 20
-14.33821374812273
 30
0.0
 40
1.201131308198438
 41
1.201131308198438
  0
SEQEND
  5
451
  8
PROFILEEDGES
  0
POLYLINE
  5
13A
  8
PROFILEEDGES
 66
     1
 10
0.0
 20
0.0
 30
0.0
  0
VERTEX
  5
2D8
  8
PROFILEEDGES
 10
-92.58583581864302
 20
9.463903905802932
 30
0.0
 40
1.201131308198438
 41
1.201131308198438
  0
VERTEX
  5
2D9
  8
PROFILEEDGES
 10
-93.57726118832622
 20
7.070391332233378
 30
0.0
 40
1.201131308198438
 41
1.201131308198438
  0
SEQEND
  5
452
  8
PROFILEEDGES
  0
POLYLINE
  5
13B
  8
PROFILEEDGES
 66
     1
 10
0.0
 20
0.0
 30
0.0
  0
VERTEX
  5
2DA
  8
PROFILEEDGES
 10
-82.70327472843064
 20
-98.70441671975165
 30
0.0
 40
1.201131308198438
 41
1.201131308198438
  0
VERTEX
  5
2DB
  8
PROFILEEDGES
 10
-81.62300967964318
 20
-99.36673810207192
 30
0.0
 40
1.201131308198438
 41
1.201131308198438
  0
SEQEND
  5
453
  8
PROFILEEDGES
  0
POLYLINE
  5
13C
  8
PROFILEEDGES
 66
     1
 10
0.0
 20
0.0
 30
0.0
  0
VERTEX
  5
2DC
  8
PROFILEEDGES
 10
-82.70327472843064
 20
-98.70441671975165
 30
0.0
 40
1.201131308198438
 41
1.201131308198438
  0
VERTEX
  5
2DD
  8
PROFILEEDGES
 10
-82.72748536196758
 20
-98.68991453346213
 30
0.0
 40
1.201131308198438
 41
1.201131308198438
  0
SEQEND
  5
454
  8
PROFILEEDGES
  0
POLYLINE
  5
13D
  8
PROFILEEDGES
 66
     1
 10
0.0
 20
0.0
 30
0.0
  0
VERTEX
  5
2DE
  8
PROFILEEDGES
 10
-80.45805112210722
 20
18.27525525832874
 30
0.0
 40
1.201131308198438
 41
1.201131308198438
  0
VERTEX
  5
2DF
  8
PROFILEEDGES
 10
-82.9771886814237
 20
17.670463839136
 30
0.0
 40
1.201131308198438
 41
1.201131308198438
  0
SEQEND
  5
455
  8
PROFILEEDGES
  0
POLYLINE
  5
13E
  8
PROFILEEDGES
 66
     1
 10
0.0
 20
0.0
 30
0.0
  0
VERTEX
  5
2E0
  8
PROFILEEDGES
 10
-82.9771886814237
 20
17.670463839136
 30
0.0
 40
1.201131308198438
 41
1.201131308198438
  0
VERTEX
  5
2E1
  8
PROFILEEDGES
 10
-85.37070125499308
 20
16.67903846945297
 30
0.0
 40
1.201131308198438
 41
1.201131308198438
  0
SEQEND
  5
456
  8
PROFILEEDGES
  0
POLYLINE
  5
13F
  8
PROFILEEDGES
 66
     1
 10
0.0
 20
0.0
 30
0.0
  0
VERTEX
  5
2E2
  8
PROFILEEDGES
 10
-85.37070125499308
 20
16.67903846945297
 30
0.0
 40
1.201131308198438
 41
1.201131308198438
  0
VERTEX
  5
2E3
  8
PROFILEEDGES
 10
-87.57965261964189
 20
15.32539133223338
 30
0.0
 40
1.201131308198438
 41
1.201131308198438
  0
SEQEND
  5
457
  8
PROFILEEDGES
  0
POLYLINE
  5
140
  8
PROFILEEDGES
 66
     1
 10
0.0
 20
0.0
 30
0.0
  0
VERTEX
  5
2E4
  8
PROFILEEDGES
 10
-92.58583581864302
 20
-5.526862395596911
 30
0.0
 40
1.201131308198438
 41
1.201131308198438
  0
VERTEX
  5
2E5
  8
PROFILEEDGES
 10
-91.23218868142341
 20
-7.735813760245734
 30
0.0
 40
1.201131308198438
 41
1.201131308198438
  0
SEQEND
  5
458
  8
PROFILEEDGES
  0
POLYLINE
  5
141
  8
PROFILEEDGES
 66
     1
 10
0.0
 20
0.0
 30
0.0
  0
VERTEX
  5
2E6
  8
PROFILEEDGES
 10
-72.77344752716283
 20
17.670463839136
 30
0.0
 40
1.201131308198438
 41
1.201131308198438
  0
VERTEX
  5
2E7
  8
PROFILEEDGES
 10
-75.29258508647895
 20
18.27525525832874
 30
0.0
 40
1.201131308198438
 41
1.201131308198438
  0
SEQEND
  5
459
  8
PROFILEEDGES
  0
POLYLINE
  5
142
  8
PROFILEEDGES
 66
     1
 10
0.0
 20
0.0
 30
0.0
  0
VERTEX
  5
2E8
  8
PROFILEEDGES
 10
-66.20098514690335
 20
13.64285371249291
 30
0.0
 40
1.201131308198438
 41
1.201131308198438
  0
VERTEX
  5
2E9
  8
PROFILEEDGES
 10
-68.17098358894427
 20
15.32539133223338
 30
0.0
 40
1.201131308198438
 41
1.201131308198438
  0
SEQEND
  5
45A
  8
PROFILEEDGES
  0
POLYLINE
  5
143
  8
PROFILEEDGES
 66
     1
 10
0.0
 20
0.0
 30
0.0
  0
VERTEX
  5
2EA
  8
PROFILEEDGES
 10
-70.3799349535931
 20
16.67903846945297
 30
0.0
 40
1.201131308198438
 41
1.201131308198438
  0
VERTEX
  5
2EB
  8
PROFILEEDGES
 10
-72.77344752716283
 20
17.670463839136
 30
0.0
 40
1.201131308198438
 41
1.201131308198438
  0
SEQEND
  5
45B
  8
PROFILEEDGES
  0
POLYLINE
  5
144
  8
PROFILEEDGES
 66
     1
 10
0.0
 20
0.0
 30
0.0
  0
VERTEX
  5
2EC
  8
PROFILEEDGES
 10
-83.71248458298804
 20
-97.8486457235919
 30
0.0
 40
1.201131308198438
 41
1.201131308198438
  0
VERTEX
  5
2ED
  8
PROFILEEDGES
 10
-82.72748536196758
 20
-98.68991453346213
 30
0.0
 40
1.201131308198438
 41
1.201131308198438
  0
SEQEND
  5
45C
  8
PROFILEEDGES
  0
POLYLINE
  5
145
  8
PROFILEEDGES
 66
     1
 10
0.0
 20
0.0
 30
0.0
  0
VERTEX
  5
2EE
  8
PROFILEEDGES
 10
-77.87531810429327
 20
-83.75647924489695
 30
0.0
 40
1.201131308198438
 41
1.201131308198438
  0
VERTEX
  5
2EF
  8
PROFILEEDGES
 10
-79.16668461320025
 20
-83.8581119932841
 30
0.0
 40
1.201131308198438
 41
1.201131308198438
  0
SEQEND
  5
45D
  8
PROFILEEDGES
  0
POLYLINE
  5
146
  8
PROFILEEDGES
 66
     1
 10
0.0
 20
0.0
 30
0.0
  0
VERTEX
  5
2F0
  8
PROFILEEDGES
 10
-86.02868535590605
 20
-93.30284575380405
 30
0.0
 40
1.201131308198438
 41
1.201131308198438
  0
VERTEX
  5
2F1
  8
PROFILEEDGES
 10
-85.72628964630974
 20
-94.56241453346215
 30
0.0
 40
1.201131308198438
 41
1.201131308198438
  0
SEQEND
  5
45E
  8
PROFILEEDGES
  0
POLYLINE
  5
147
  8
PROFILEEDGES
 66
     1
 10
0.0
 20
0.0
 30
0.0
  0
VERTEX
  5
2F2
  8
PROFILEEDGES
 10
-84.55375339285852
 20
-87.15931198722258
 30
0.0
 40
1.201131308198438
 41
1.201131308198438
  0
VERTEX
  5
2F3
  8
PROFILEEDGES
 10
-85.23057696146815
 20
-88.263787669547
 30
0.0
 40
1.201131308198438
 41
1.201131308198438
  0
SEQEND
  5
45F
  8
PROFILEEDGES
  0
POLYLINE
  5
148
  8
PROFILEEDGES
 66
     1
 10
0.0
 20
0.0
 30
0.0
  0
VERTEX
  5
2F4
  8
PROFILEEDGES
 10
-76.58395159538593
 20
-83.8581119932841
 30
0.0
 40
1.201131308198438
 41
1.201131308198438
  0
VERTEX
  5
2F5
  8
PROFILEEDGES
 10
-77.87531810429327
 20
-83.75647924489695
 30
0.0
 40
1.201131308198438
 41
1.201131308198438
  0
SEQEND
  5
460
  8
PROFILEEDGES
  0
POLYLINE
  5
149
  8
PROFILEEDGES
 66
     1
 10
0.0
 20
0.0
 30
0.0
  0
VERTEX
  5
2F6
  8
PROFILEEDGES
 10
-73.04736148015589
 20
-98.70441671975166
 30
0.0
 40
1.201131308198438
 41
1.201131308198438
  0
VERTEX
  5
2F7
  8
PROFILEEDGES
 10
-73.02315084661895
 20
-98.68991453346213
 30
0.0
 40
1.201131308198438
 41
1.201131308198438
  0
SEQEND
  5
461
  8
PROFILEEDGES
  0
POLYLINE
  5
14A
  8
PROFILEEDGES
 66
     1
 10
0.0
 20
0.0
 30
0.0
  0
VERTEX
  5
2F8
  8
PROFILEEDGES
 10
-73.04736148015589
 20
-98.70441671975166
 30
0.0
 40
1.201131308198438
 41
1.201131308198438
  0
VERTEX
  5
2F9
  8
PROFILEEDGES
 10
-74.12762652894337
 20
-99.36673810207192
 30
0.0
 40
1.201131308198438
 41
1.201131308198438
  0
SEQEND
  5
462
  8
PROFILEEDGES
  0
POLYLINE
  5
14B
  8
PROFILEEDGES
 66
     1
 10
0.0
 20
0.0
 30
0.0
  0
VERTEX
  5
2FA
  8
PROFILEEDGES
 10
-79.16668461320025
 20
-100.1648464965098
 30
0.0
 40
1.201131308198438
 41
1.201131308198438
  0
VERTEX
  5
2FB
  8
PROFILEEDGES
 10
-77.87531810429327
 20
-100.2664792448969
 30
0.0
 40
1.201131308198438
 41
1.201131308198438
  0
SEQEND
  5
463
  8
PROFILEEDGES
  0
POLYLINE
  5
14C
  8
PROFILEEDGES
 66
     1
 10
0.0
 20
0.0
 30
0.0
  0
VERTEX
  5
2FC
  8
PROFILEEDGES
 10
229.2996818957074
 20
-55.18147924489698
 30
0.0
 40
1.201131308198438
 41
1.201131308198438
  0
VERTEX
  5
2FD
  8
PROFILEEDGES
 10
203.8996818957073
 20
-55.18147924489698
 30
0.0
 40
1.201131308198438
 41
1.201131308198438
  0
SEQEND
  5
464
  8
PROFILEEDGES
  0
POLYLINE
  5
14D
  8
PROFILEEDGES
 66
     1
 10
0.0
 20
0.0
 30
0.0
  0
VERTEX
  5
2FE
  8
PROFILEEDGES
 10
229.2996818957074
 20
59.11852075510301
 30
0.0
 40
1.201131308198438
 41
1.201131308198438
  0
VERTEX
  5
2FF
  8
PROFILEEDGES
 10
203.8996818957073
 20
59.11852075510301
 30
0.0
 40
1.201131308198438
 41
1.201131308198438
  0
SEQEND
  5
465
  8
PROFILEEDGES
  0
POLYLINE
  5
14E
  8
PROFILEEDGES
 66
     1
 10
0.0
 20
0.0
 30
0.0
  0
VERTEX
  5
300
  8
PROFILEEDGES
 10
174.8766388953602
 20
-158.0317211218497
 30
0.0
 40
1.201131308198438
 41
1.201131308198438
  0
VERTEX
  5
301
  8
PROFILEEDGES
 10
146.7496818957074
 20
-150.431479244897
 30
0.0
 40
1.201131308198438
 41
1.201131308198438
  0
SEQEND
  5
466
  8
PROFILEEDGES
  0
POLYLINE
  5
14F
  8
PROFILEEDGES
 66
     1
 10
0.0
 20
0.0
 30
0.0
  0
VERTEX
  5
302
  8
PROFILEEDGES
 10
203.8996818957073
 20
-160.591479244897
 30
0.0
 40
1.201131308198438
 41
1.201131308198438
  0
VERTEX
  5
303
  8
PROFILEEDGES
 10
174.8766388953602
 20
-158.0317211218497
 30
0.0
 40
1.201131308198438
 41
1.201131308198438
  0
SEQEND
  5
467
  8
PROFILEEDGES
  0
POLYLINE
  5
150
  8
PROFILEEDGES
 66
     1
 10
0.0
 20
0.0
 30
0.0
  0
VERTEX
  5
304
  8
PROFILEEDGES
 10
203.8996818957073
 20
164.528520755103
 30
0.0
 40
1.201131308198438
 41
1.201131308198438
  0
VERTEX
  5
305
  8
PROFILEEDGES
 10
174.8766388953602
 20
161.9687626320557
 30
0.0
 40
1.201131308198438
 41
1.201131308198438
  0
SEQEND
  5
468
  8
PROFILEEDGES
  0
POLYLINE
  5
151
  8
PROFILEEDGES
 66
     1
 10
0.0
 20
0.0
 30
0.0
  0
VERTEX
  5
306
  8
PROFILEEDGES
 10
174.8766388953602
 20
161.9687626320557
 30
0.0
 40
1.201131308198438
 41
1.201131308198438
  0
VERTEX
  5
307
  8
PROFILEEDGES
 10
146.7496818957074
 20
154.368520755103
 30
0.0
 40
1.201131308198438
 41
1.201131308198438
  0
SEQEND
  5
469
  8
PROFILEEDGES
  0
LINE
  5
152
  8
0
 10
-80.4262533928583
 20
103.7994922971195
 30
0.0
 11
-81.43553226041416
 21
103.3694246135186
 31
0.0
  0
POLYLINE
  5
153
  8
PROFILEEDGES
 66
     1
 10
0.0
 20
0.0
 30
0.0
  0
VERTEX
  5
308
  8
PROFILEEDGES
 10
-81.43553226041416
 20
103.3694246135186
 30
0.0
 40
1.201131308198438
 41
1.201131308198438
  0
VERTEX
  5
309
  8
PROFILEEDGES
 10
-81.62300967964318
 20
103.3037796122779
 30
0.0
 40
1.201131308198438
 41
1.201131308198438
  0
SEQEND
  5
46A
  8
PROFILEEDGES
  0
POLYLINE
  5
154
  8
PROFILEEDGES
 66
     1
 10
0.0
 20
0.0
 30
0.0
  0
VERTEX
  5
30A
  8
PROFILEEDGES
 10
-75.94896615601027
 20
-100.0123999801906
 30
0.0
 40
1.201131308198438
 41
1.201131308198438
  0
VERTEX
  5
30B
  8
PROFILEEDGES
 10
-75.32438281572787
 20
-99.86245078691344
 30
0.0
 40
1.201131308198438
 41
1.201131308198438
  0
SEQEND
  5
46B
  8
PROFILEEDGES
  0
LINE
  5
155
  8
0
 10
-84.55375339285852
 20
100.8006880127773
 30
0.0
 11
-85.0895713833104
 21
99.89954534231647
 31
0.0
  0
POLYLINE
  5
156
  8
PROFILEEDGES
 66
     1
 10
0.0
 20
0.0
 30
0.0
  0
VERTEX
  5
30C
  8
PROFILEEDGES
 10
-85.0895713833104
 20
99.89954534231647
 30
0.0
 40
1.201131308198438
 41
1.201131308198438
  0
VERTEX
  5
30D
  8
PROFILEEDGES
 10
-85.23057696146815
 20
99.69621233045294
 30
0.0
 40
1.201131308198438
 41
1.201131308198438
  0
SEQEND
  5
46C
  8
PROFILEEDGES
  0
LINE
  5
157
  8
0
 10
-85.23057696146815
 20
99.69621233045294
 30
0.0
 11
-85.7054843225387
 21
98.5452051808604
 31
0.0
  0
POLYLINE
  5
158
  8
PROFILEEDGES
 66
     1
 10
0.0
 20
0.0
 30
0.0
  0
VERTEX
  5
30E
  8
PROFILEEDGES
 10
-85.7054843225387
 20
98.5452051808604
 30
0.0
 40
1.201131308198438
 41
1.201131308198438
  0
VERTEX
  5
30F
  8
PROFILEEDGES
 10
-85.72628964630974
 20
98.49945604366816
 30
0.0
 40
1.201131308198438
 41
1.201131308198438
  0
SEQEND
  5
46D
  8
PROFILEEDGES
  0
POLYLINE
  5
159
  8
PROFILEEDGES
 66
     1
 10
0.0
 20
0.0
 30
0.0
  0
VERTEX
  5
310
  8
PROFILEEDGES
 10
-85.7054843225387
 20
98.5452051808604
 30
0.0
 40
1.201131308198438
 41
1.201131308198438
  0
VERTEX
  5
311
  8
PROFILEEDGES
 10
-85.0895713833104
 20
99.89954534231647
 30
0.0
 40
1.201131308198438
 41
1.201131308198438
  0
SEQEND
  5
46E
  8
PROFILEEDGES
  0
POLYLINE
  5
15A
  8
PROFILEEDGES
 66
     1
 10
0.0
 20
0.0
 30
0.0
  0
VERTEX
  5
312
  8
PROFILEEDGES
 10
-79.72969848103081
 20
103.9667203359822
 30
0.0
 40
1.201131308198438
 41
1.201131308198438
  0
VERTEX
  5
313
  8
PROFILEEDGES
 10
-80.4262533928583
 20
103.7994922971195
 30
0.0
 40
1.201131308198438
 41
1.201131308198438
  0
SEQEND
  5
46F
  8
PROFILEEDGES
  0
POLYLINE
  5
15B
  8
PROFILEEDGES
 66
     1
 10
0.0
 20
0.0
 30
0.0
  0
VERTEX
  5
314
  8
PROFILEEDGES
 10
-81.43553226041416
 20
103.3694246135186
 30
0.0
 40
1.201131308198438
 41
1.201131308198438
  0
VERTEX
  5
315
  8
PROFILEEDGES
 10
-79.72969848103081
 20
103.9667203359822
 30
0.0
 40
1.201131308198438
 41
1.201131308198438
  0
SEQEND
  5
470
  8
PROFILEEDGES
  0
POLYLINE
  5
15C
  8
PROFILEEDGES
 66
     1
 10
0.0
 20
0.0
 30
0.0
  0
VERTEX
  5
316
  8
PROFILEEDGES
 10
-84.07995044178439
 20
101.3554399924651
 30
0.0
 40
1.201131308198438
 41
1.201131308198438
  0
VERTEX
  5
317
  8
PROFILEEDGES
 10
-85.0895713833104
 20
99.89954534231647
 30
0.0
 40
1.201131308198438
 41
1.201131308198438
  0
SEQEND
  5
471
  8
PROFILEEDGES
  0
POLYLINE
  5
15D
  8
PROFILEEDGES
 66
     1
 10
0.0
 20
0.0
 30
0.0
  0
VERTEX
  5
318
  8
PROFILEEDGES
 10
-71.19688281572802
 20
-96.86364650257133
 30
0.0
 40
1.201131308198438
 41
1.201131308198438
  0
VERTEX
  5
319
  8
PROFILEEDGES
 10
-70.93485419692874
 20
-96.43605465890784
 30
0.0
 40
1.201131308198438
 41
1.201131308198438
  0
SEQEND
  5
472
  8
PROFILEEDGES
  0
POLYLINE
  5
15E
  8
PROFILEEDGES
 66
     1
 10
0.0
 20
0.0
 30
0.0
  0
VERTEX
  5
31A
  8
PROFILEEDGES
 10
-71.61048888746275
 20
-97.34791699220354
 30
0.0
 40
1.201131308198438
 41
1.201131308198438
  0
VERTEX
  5
31B
  8
PROFILEEDGES
 10
-71.19688281572802
 20
-96.86364650257133
 30
0.0
 40
1.201131308198438
 41
1.201131308198438
  0
SEQEND
  5
473
  8
PROFILEEDGES
  0
LINE
  5
15F
  8
0
 10
-82.72748536196758
 20
89.27008546653778
 30
0.0
 11
-81.90656208450027
 21
88.78981959735249
 31
0.0
  0
POLYLINE
  5
160
  8
PROFILEEDGES
 66
     1
 10
0.0
 20
0.0
 30
0.0
  0
VERTEX
  5
31C
  8
PROFILEEDGES
 10
-81.90656208450027
 20
88.78981959735249
 30
0.0
 40
1.201131308198438
 41
1.201131308198438
  0
VERTEX
  5
31D
  8
PROFILEEDGES
 10
-81.62300967964318
 20
88.59326189792802
 30
0.0
 40
1.201131308198438
 41
1.201131308198438
  0
SEQEND
  5
474
  8
PROFILEEDGES
  0
POLYLINE
  5
161
  8
PROFILEEDGES
 66
     1
 10
0.0
 20
0.0
 30
0.0
  0
VERTEX
  5
31E
  8
PROFILEEDGES
 10
-85.23554054207429
 20
92.19830010911355
 30
0.0
 40
1.201131308198438
 41
1.201131308198438
  0
VERTEX
  5
31F
  8
PROFILEEDGES
 10
-85.24863022575504
 20
92.24742339291943
 30
0.0
 40
1.201131308198438
 41
1.201131308198438
  0
SEQEND
  5
475
  8
PROFILEEDGES
  0
POLYLINE
  5
162
  8
PROFILEEDGES
 66
     1
 10
0.0
 20
0.0
 30
0.0
  0
VERTEX
  5
320
  8
PROFILEEDGES
 10
-83.27941078097179
 20
89.74147430672566
 30
0.0
 40
1.201131308198438
 41
1.201131308198438
  0
VERTEX
  5
321
  8
PROFILEEDGES
 10
-81.90656208450027
 20
88.78981959735249
 30
0.0
 40
1.201131308198438
 41
1.201131308198438
  0
SEQEND
  5
476
  8
PROFILEEDGES
  0
LINE
  5
163
  8
0
 10
-86.02868535590605
 20
94.65715424619587
 30
0.0
 11
-85.76182563933052
 21
93.57194488200687
 31
0.0
  0
POLYLINE
  5
164
  8
PROFILEEDGES
 66
     1
 10
0.0
 20
0.0
 30
0.0
  0
VERTEX
  5
322
  8
PROFILEEDGES
 10
-85.76182563933052
 20
93.57194488200687
 30
0.0
 40
1.201131308198438
 41
1.201131308198438
  0
VERTEX
  5
323
  8
PROFILEEDGES
 10
-85.72628964630974
 20
93.39758546653776
 30
0.0
 40
1.201131308198438
 41
1.201131308198438
  0
SEQEND
  5
477
  8
PROFILEEDGES
  0
POLYLINE
  5
165
  8
PROFILEEDGES
 66
     1
 10
0.0
 20
0.0
 30
0.0
  0
VERTEX
  5
324
  8
PROFILEEDGES
 10
-86.05742426666794
 20
95.02231673023068
 30
0.0
 40
1.201131308198438
 41
1.201131308198438
  0
VERTEX
  5
325
  8
PROFILEEDGES
 10
-85.76182563933052
 20
93.57194488200687
 30
0.0
 40
1.201131308198438
 41
1.201131308198438
  0
SEQEND
  5
478
  8
PROFILEEDGES
  0
POLYLINE
  5
166
  8
PROFILEEDGES
 66
     1
 10
0.0
 20
0.0
 30
0.0
  0
VERTEX
  5
326
  8
PROFILEEDGES
 10
-85.72628964630974
 20
93.39758546653776
 30
0.0
 40
1.201131308198438
 41
1.201131308198438
  0
VERTEX
  5
327
  8
PROFILEEDGES
 10
-85.24863022575504
 20
92.24742339291943
 30
0.0
 40
1.201131308198438
 41
1.201131308198438
  0
SEQEND
  5
479
  8
PROFILEEDGES
  0
POLYLINE
  5
167
  8
PROFILEEDGES
 66
     1
 10
0.0
 20
0.0
 30
0.0
  0
VERTEX
  5
328
  8
PROFILEEDGES
 10
-80.4262533928583
 20
88.09754921308647
 30
0.0
 40
1.201131308198438
 41
1.201131308198438
  0
VERTEX
  5
329
  8
PROFILEEDGES
 10
-80.60161992053135
 20
88.17955984653412
 30
0.0
 40
1.201131308198438
 41
1.201131308198438
  0
SEQEND
  5
47A
  8
PROFILEEDGES
  0
LINE
  5
168
  8
0
 10
-81.62300967964318
 20
88.59326189792802
 30
0.0
 11
-80.60161992053135
 21
88.17955984653412
 31
0.0
  0
POLYLINE
  5
169
  8
PROFILEEDGES
 66
     1
 10
0.0
 20
0.0
 30
0.0
  0
VERTEX
  5
32A
  8
PROFILEEDGES
 10
-80.60161992053135
 20
88.17955984653412
 30
0.0
 40
1.201131308198438
 41
1.201131308198438
  0
VERTEX
  5
32B
  8
PROFILEEDGES
 10
-81.90656208450027
 20
88.78981959735249
 30
0.0
 40
1.201131308198438
 41
1.201131308198438
  0
SEQEND
  5
47B
  8
PROFILEEDGES
  0
POLYLINE
  5
16A
  8
PROFILEEDGES
 66
     1
 10
0.0
 20
0.0
 30
0.0
  0
VERTEX
  5
32C
  8
PROFILEEDGES
 10
-69.7219508526805
 20
-93.30284575380405
 30
0.0
 40
1.201131308198438
 41
1.201131308198438
  0
VERTEX
  5
32D
  8
PROFILEEDGES
 10
-69.71627409285306
 20
-93.138673142179
 30
0.0
 40
1.201131308198438
 41
1.201131308198438
  0
SEQEND
  5
47C
  8
PROFILEEDGES
  0
LINE
  5
16B
  8
0
 10
-69.71627409285306
 20
-93.138673142179
 30
0.0
 11
-69.62031810429319
 21
-92.01147924489696
 31
0.0
  0
POLYLINE
  5
16C
  8
PROFILEEDGES
 66
     1
 10
0.0
 20
0.0
 30
0.0
  0
VERTEX
  5
32E
  8
PROFILEEDGES
 10
-69.7219508526805
 20
97.23988726401005
 30
0.0
 40
1.201131308198438
 41
1.201131308198438
  0
VERTEX
  5
32F
  8
PROFILEEDGES
 10
-69.71627409285306
 20
97.07571465238499
 30
0.0
 40
1.201131308198438
 41
1.201131308198438
  0
SEQEND
  5
47D
  8
PROFILEEDGES
  0
POLYLINE
  5
16D
  8
PROFILEEDGES
 66
     1
 10
0.0
 20
0.0
 30
0.0
  0
VERTEX
  5
330
  8
PROFILEEDGES
 10
-69.71627409285306
 20
97.07571465238499
 30
0.0
 40
1.201131308198438
 41
1.201131308198438
  0
VERTEX
  5
331
  8
PROFILEEDGES
 10
-69.65990519675297
 20
95.44551905339998
 30
0.0
 40
1.201131308198438
 41
1.201131308198438
  0
SEQEND
  5
47E
  8
PROFILEEDGES
  0
POLYLINE
  5
16E
  8
PROFILEEDGES
 66
     1
 10
0.0
 20
0.0
 30
0.0
  0
VERTEX
  5
332
  8
PROFILEEDGES
 10
-72.03815162559812
 20
90.11135427640802
 30
0.0
 40
1.201131308198438
 41
1.201131308198438
  0
VERTEX
  5
333
  8
PROFILEEDGES
 10
-71.25409183451849
 20
91.03230215686553
 30
0.0
 40
1.201131308198438
 41
1.201131308198438
  0
SEQEND
  5
47F
  8
PROFILEEDGES
  0
POLYLINE
  5
16F
  8
PROFILEEDGES
 66
     1
 10
0.0
 20
0.0
 30
0.0
  0
VERTEX
  5
334
  8
PROFILEEDGES
 10
-71.25409183451849
 20
91.03230215686553
 30
0.0
 40
1.201131308198438
 41
1.201131308198438
  0
VERTEX
  5
335
  8
PROFILEEDGES
 10
-71.19688281572802
 20
91.09635349742862
 30
0.0
 40
1.201131308198438
 41
1.201131308198438
  0
SEQEND
  5
480
  8
PROFILEEDGES
  0
LINE
  5
170
  8
0
 10
-69.62031810429319
 20
95.94852075510299
 30
0.0
 11
-69.71627409285306
 21
97.07571465238499
 31
0.0
  0
POLYLINE
  5
171
  8
PROFILEEDGES
 66
     1
 10
0.0
 20
0.0
 30
0.0
  0
VERTEX
  5
336
  8
PROFILEEDGES
 10
-74.81353088966043
 20
103.5878905009778
 30
0.0
 40
1.201131308198438
 41
1.201131308198438
  0
VERTEX
  5
337
  8
PROFILEEDGES
 10
-75.32438281572787
 20
103.7994922971195
 30
0.0
 40
1.201131308198438
 41
1.201131308198438
  0
SEQEND
  5
481
  8
PROFILEEDGES
  0
POLYLINE
  5
172
  8
PROFILEEDGES
 66
     1
 10
0.0
 20
0.0
 30
0.0
  0
VERTEX
  5
338
  8
PROFILEEDGES
 10
-80.6016199205312
 20
-84.24251833632803
 30
0.0
 40
1.201131308198438
 41
1.201131308198438
  0
VERTEX
  5
339
  8
PROFILEEDGES
 10
-80.4262533928583
 20
-84.16050770288045
 30
0.0
 40
1.201131308198438
 41
1.201131308198438
  0
SEQEND
  5
482
  8
PROFILEEDGES
  0
POLYLINE
  5
173
  8
PROFILEEDGES
 66
     1
 10
0.0
 20
0.0
 30
0.0
  0
VERTEX
  5
33A
  8
PROFILEEDGES
 10
-85.24863022575501
 20
-88.31038188271334
 30
0.0
 40
1.201131308198438
 41
1.201131308198438
  0
VERTEX
  5
33B
  8
PROFILEEDGES
 10
-85.23057696146815
 20
-88.263787669547
 30
0.0
 40
1.201131308198438
 41
1.201131308198438
  0
SEQEND
  5
483
  8
PROFILEEDGES
  0
POLYLINE
  5
174
  8
PROFILEEDGES
 66
     1
 10
0.0
 20
0.0
 30
0.0
  0
VERTEX
  5
33C
  8
PROFILEEDGES
 10
-85.70548432253871
 20
-94.60816367065436
 30
0.0
 40
1.201131308198438
 41
1.201131308198438
  0
VERTEX
  5
33D
  8
PROFILEEDGES
 10
-85.72628964630974
 20
-94.56241453346215
 30
0.0
 40
1.201131308198438
 41
1.201131308198438
  0
SEQEND
  5
484
  8
PROFILEEDGES
  0
POLYLINE
  5
175
  8
PROFILEEDGES
 66
     1
 10
0.0
 20
0.0
 30
0.0
  0
VERTEX
  5
33E
  8
PROFILEEDGES
 10
-81.43553226041426
 20
-99.43238310331255
 30
0.0
 40
1.201131308198438
 41
1.201131308198438
  0
VERTEX
  5
33F
  8
PROFILEEDGES
 10
-81.62300967964318
 20
-99.36673810207192
 30
0.0
 40
1.201131308198438
 41
1.201131308198438
  0
SEQEND
  5
485
  8
PROFILEEDGES
  0
POLYLINE
  5
176
  8
PROFILEEDGES
 66
     1
 10
0.0
 20
0.0
 30
0.0
  0
VERTEX
  5
340
  8
PROFILEEDGES
 10
-71.25409183451853
 20
-87.09526064665947
 30
0.0
 40
1.201131308198438
 41
1.201131308198438
  0
VERTEX
  5
341
  8
PROFILEEDGES
 10
-71.19688281572802
 20
-87.15931198722261
 30
0.0
 40
1.201131308198438
 41
1.201131308198438
  0
SEQEND
  5
486
  8
PROFILEEDGES
  0
POLYLINE
  5
177
  8
PROFILEEDGES
 66
     1
 10
0.0
 20
0.0
 30
0.0
  0
VERTEX
  5
342
  8
PROFILEEDGES
 10
-79.72969848103071
 20
-100.0296788257762
 30
0.0
 40
1.201131308198438
 41
1.201131308198438
  0
VERTEX
  5
343
  8
PROFILEEDGES
 10
-81.43553226041426
 20
-99.43238310331255
 30
0.0
 40
1.201131308198438
 41
1.201131308198438
  0
SEQEND
  5
487
  8
PROFILEEDGES
  0
LINE
  5
178
  8
0
 10
-85.70548432253871
 20
-94.60816367065436
 30
0.0
 11
-85.23057696146815
 21
-95.75917082024692
 31
0.0
  0
POLYLINE
  5
179
  8
PROFILEEDGES
 66
     1
 10
0.0
 20
0.0
 30
0.0
  0
VERTEX
  5
344
  8
PROFILEEDGES
 10
-85.72628964630974
 20
-89.46054395633178
 30
0.0
 40
1.201131308198438
 41
1.201131308198438
  0
VERTEX
  5
345
  8
PROFILEEDGES
 10
-85.76182563933051
 20
-89.63490337180077
 30
0.0
 40
1.201131308198438
 41
1.201131308198438
  0
SEQEND
  5
488
  8
PROFILEEDGES
  0
POLYLINE
  5
17A
  8
PROFILEEDGES
 66
     1
 10
0.0
 20
0.0
 30
0.0
  0
VERTEX
  5
346
  8
PROFILEEDGES
 10
-85.76182563933051
 20
-89.63490337180077
 30
0.0
 40
1.201131308198438
 41
1.201131308198438
  0
VERTEX
  5
347
  8
PROFILEEDGES
 10
-86.05742426666794
 20
-91.08527522002467
 30
0.0
 40
1.201131308198438
 41
1.201131308198438
  0
SEQEND
  5
489
  8
PROFILEEDGES
  0
POLYLINE
  5
17B
  8
PROFILEEDGES
 66
     1
 10
0.0
 20
0.0
 30
0.0
  0
VERTEX
  5
348
  8
PROFILEEDGES
 10
-85.24863022575501
 20
-88.31038188271334
 30
0.0
 40
1.201131308198438
 41
1.201131308198438
  0
VERTEX
  5
349
  8
PROFILEEDGES
 10
-85.72628964630974
 20
-89.46054395633178
 30
0.0
 40
1.201131308198438
 41
1.201131308198438
  0
SEQEND
  5
48A
  8
PROFILEEDGES
  0
POLYLINE
  5
17C
  8
PROFILEEDGES
 66
     1
 10
0.0
 20
0.0
 30
0.0
  0
VERTEX
  5
34A
  8
PROFILEEDGES
 10
-81.90656208450025
 20
-84.85277808714646
 30
0.0
 40
1.201131308198438
 41
1.201131308198438
  0
VERTEX
  5
34B
  8
PROFILEEDGES
 10
-80.6016199205312
 20
-84.24251833632803
 30
0.0
 40
1.201131308198438
 41
1.201131308198438
  0
SEQEND
  5
48B
  8
PROFILEEDGES
  0
POLYLINE
  5
17D
  8
PROFILEEDGES
 66
     1
 10
0.0
 20
0.0
 30
0.0
  0
VERTEX
  5
34C
  8
PROFILEEDGES
 10
-81.62300967964318
 20
-84.65622038772199
 30
0.0
 40
1.201131308198438
 41
1.201131308198438
  0
VERTEX
  5
34D
  8
PROFILEEDGES
 10
-81.90656208450025
 20
-84.85277808714646
 30
0.0
 40
1.201131308198438
 41
1.201131308198438
  0
SEQEND
  5
48C
  8
PROFILEEDGES
  0
LINE
  5
17E
  8
0
 10
-81.90656208450025
 20
-84.85277808714646
 30
0.0
 11
-82.72748536196758
 21
-85.33304395633176
 31
0.0
  0
POLYLINE
  5
17F
  8
PROFILEEDGES
 66
     1
 10
0.0
 20
0.0
 30
0.0
  0
VERTEX
  5
34E
  8
PROFILEEDGES
 10
-81.90656208450025
 20
-84.85277808714646
 30
0.0
 40
1.201131308198438
 41
1.201131308198438
  0
VERTEX
  5
34F
  8
PROFILEEDGES
 10
-83.27941078097187
 20
-85.80443279651972
 30
0.0
 40
1.201131308198438
 41
1.201131308198438
  0
SEQEND
  5
48D
  8
PROFILEEDGES
  0
POLYLINE
  5
180
  8
PROFILEEDGES
 66
     1
 10
0.0
 20
0.0
 30
0.0
  0
VERTEX
  5
350
  8
PROFILEEDGES
 10
-71.25409183451853
 20
-87.09526064665947
 30
0.0
 40
1.201131308198438
 41
1.201131308198438
  0
VERTEX
  5
351
  8
PROFILEEDGES
 10
-72.03815162559812
 20
-86.17431276620201
 30
0.0
 40
1.201131308198438
 41
1.201131308198438
  0
SEQEND
  5
48E
  8
PROFILEEDGES
  0
POLYLINE
  5
181
  8
PROFILEEDGES
 66
     1
 10
0.0
 20
0.0
 30
0.0
  0
VERTEX
  5
352
  8
PROFILEEDGES
 10
-85.08957138331044
 20
-95.96250383211037
 30
0.0
 40
1.201131308198438
 41
1.201131308198438
  0
VERTEX
  5
353
  8
PROFILEEDGES
 10
-85.70548432253871
 20
-94.60816367065436
 30
0.0
 40
1.201131308198438
 41
1.201131308198438
  0
SEQEND
  5
48F
  8
PROFILEEDGES
  0
LINE
  5
182
  8
0
 10
-85.76182563933051
 20
-89.63490337180077
 30
0.0
 11
-86.02868535590605
 21
-90.72011273598986
 31
0.0
  0
POLYLINE
  5
183
  8
PROFILEEDGES
 66
     1
 10
0.0
 20
0.0
 30
0.0
  0
VERTEX
  5
354
  8
PROFILEEDGES
 10
-85.23057696146815
 20
-95.75917082024692
 30
0.0
 40
1.201131308198438
 41
1.201131308198438
  0
VERTEX
  5
355
  8
PROFILEEDGES
 10
-85.08957138331044
 20
-95.96250383211037
 30
0.0
 40
1.201131308198438
 41
1.201131308198438
  0
SEQEND
  5
490
  8
PROFILEEDGES
  0
LINE
  5
184
  8
0
 10
-85.08957138331044
 20
-95.96250383211037
 30
0.0
 11
-84.55375339285852
 21
-96.8636465025713
 31
0.0
  0
POLYLINE
  5
185
  8
PROFILEEDGES
 66
     1
 10
0.0
 20
0.0
 30
0.0
  0
VERTEX
  5
356
  8
PROFILEEDGES
 10
-85.08957138331044
 20
-95.96250383211037
 30
0.0
 40
1.201131308198438
 41
1.201131308198438
  0
VERTEX
  5
357
  8
PROFILEEDGES
 10
-84.0799504417844
 20
-97.41839848225912
 30
0.0
 40
1.201131308198438
 41
1.201131308198438
  0
SEQEND
  5
491
  8
PROFILEEDGES
  0
LINE
  5
186
  8
0
 10
-80.6016199205312
 20
-84.24251833632803
 30
0.0
 11
-81.62300967964318
 21
-84.65622038772199
 31
0.0
  0
LINE
  5
187
  8
0
 10
-81.43553226041426
 20
-99.43238310331255
 30
0.0
 11
-80.4262533928583
 21
-99.86245078691344
 31
0.0
  0
POLYLINE
  5
188
  8
PROFILEEDGES
 66
     1
 10
0.0
 20
0.0
 30
0.0
  0
VERTEX
  5
358
  8
PROFILEEDGES
 10
-69.65990519675297
 20
-91.50847754319395
 30
0.0
 40
1.201131308198438
 41
1.201131308198438
  0
VERTEX
  5
359
  8
PROFILEEDGES
 10
-69.71627409285306
 20
-93.138673142179
 30
0.0
 40
1.201131308198438
 41
1.201131308198438
  0
SEQEND
  5
492
  8
PROFILEEDGES
  0
POLYLINE
  5
189
  8
PROFILEEDGES
 66
     1
 10
0.0
 20
0.0
 30
0.0
  0
VERTEX
  5
35A
  8
PROFILEEDGES
 10
-84.07995044178439
 20
101.3554399924651
 30
0.0
 40
1.201131308198438
 41
1.201131308198438
  0
VERTEX
  5
35B
  8
PROFILEEDGES
 10
-84.55375339285852
 20
100.8006880127773
 30
0.0
 40
1.201131308198438
 41
1.201131308198438
  0
SEQEND
  5
493
  8
PROFILEEDGES
  0
POLYLINE
  5
18A
  8
PROFILEEDGES
 66
     1
 10
0.0
 20
0.0
 30
0.0
  0
VERTEX
  5
35C
  8
PROFILEEDGES
 10
-75.32438281572787
 20
-99.86245078691344
 30
0.0
 40
1.201131308198438
 41
1.201131308198438
  0
VERTEX
  5
35D
  8
PROFILEEDGES
 10
-74.81353088966054
 20
-99.65084899077189
 30
0.0
 40
1.201131308198438
 41
1.201131308198438
  0
SEQEND
  5
494
  8
PROFILEEDGES
  0
POLYLINE
  5
18B
  8
PROFILEEDGES
 66
     1
 10
0.0
 20
0.0
 30
0.0
  0
VERTEX
  5
35E
  8
PROFILEEDGES
 10
-83.27941078097179
 20
89.74147430672566
 30
0.0
 40
1.201131308198438
 41
1.201131308198438
  0
VERTEX
  5
35F
  8
PROFILEEDGES
 10
-82.72748536196758
 20
89.27008546653778
 30
0.0
 40
1.201131308198438
 41
1.201131308198438
  0
SEQEND
  5
495
  8
PROFILEEDGES
  0
POLYLINE
  5
18C
  8
PROFILEEDGES
 66
     1
 10
0.0
 20
0.0
 30
0.0
  0
VERTEX
  5
360
  8
PROFILEEDGES
 10
-86.05742426666794
 20
95.02231673023068
 30
0.0
 40
1.201131308198438
 41
1.201131308198438
  0
VERTEX
  5
361
  8
PROFILEEDGES
 10
-86.02868535590605
 20
94.65715424619587
 30
0.0
 40
1.201131308198438
 41
1.201131308198438
  0
SEQEND
  5
496
  8
PROFILEEDGES
  0
POLYLINE
  5
18D
  8
PROFILEEDGES
 66
     1
 10
0.0
 20
0.0
 30
0.0
  0
VERTEX
  5
362
  8
PROFILEEDGES
 10
-70.93485419692855
 20
100.3730961691136
 30
0.0
 40
1.201131308198438
 41
1.201131308198438
  0
VERTEX
  5
363
  8
PROFILEEDGES
 10
-71.19688281572802
 20
100.8006880127773
 30
0.0
 40
1.201131308198438
 41
1.201131308198438
  0
SEQEND
  5
497
  8
PROFILEEDGES
  0
POLYLINE
  5
18E
  8
PROFILEEDGES
 66
     1
 10
0.0
 20
0.0
 30
0.0
  0
VERTEX
  5
364
  8
PROFILEEDGES
 10
-69.62031810429319
 20
-92.01147924489696
 30
0.0
 40
1.201131308198438
 41
1.201131308198438
  0
VERTEX
  5
365
  8
PROFILEEDGES
 10
-69.65990519675297
 20
-91.50847754319395
 30
0.0
 40
1.201131308198438
 41
1.201131308198438
  0
SEQEND
  5
498
  8
PROFILEEDGES
  0
POLYLINE
  5
18F
  8
PROFILEEDGES
 66
     1
 10
0.0
 20
0.0
 30
0.0
  0
VERTEX
  5
366
  8
PROFILEEDGES
 10
-71.19688281572802
 20
100.8006880127773
 30
0.0
 40
1.201131308198438
 41
1.201131308198438
  0
VERTEX
  5
367
  8
PROFILEEDGES
 10
-71.61048888746289
 20
101.2849585024097
 30
0.0
 40
1.201131308198438
 41
1.201131308198438
  0
SEQEND
  5
499
  8
PROFILEEDGES
  0
POLYLINE
  5
190
  8
PROFILEEDGES
 66
     1
 10
0.0
 20
0.0
 30
0.0
  0
VERTEX
  5
368
  8
PROFILEEDGES
 10
-69.65990519675297
 20
95.44551905339998
 30
0.0
 40
1.201131308198438
 41
1.201131308198438
  0
VERTEX
  5
369
  8
PROFILEEDGES
 10
-69.62031810429319
 20
95.94852075510299
 30
0.0
 40
1.201131308198438
 41
1.201131308198438
  0
SEQEND
  5
49A
  8
PROFILEEDGES
  0
POLYLINE
  5
191
  8
PROFILEEDGES
 66
     1
 10
0.0
 20
0.0
 30
0.0
  0
VERTEX
  5
36A
  8
PROFILEEDGES
 10
-75.32438281572787
 20
103.7994922971195
 30
0.0
 40
1.201131308198438
 41
1.201131308198438
  0
VERTEX
  5
36B
  8
PROFILEEDGES
 10
-75.9489661560102
 20
103.9494414903966
 30
0.0
 40
1.201131308198438
 41
1.201131308198438
  0
SEQEND
  5
49B
  8
PROFILEEDGES
  0
POLYLINE
  5
192
  8
PROFILEEDGES
 66
     1
 10
0.0
 20
0.0
 30
0.0
  0
VERTEX
  5
36C
  8
PROFILEEDGES
 10
-84.55375339285852
 20
-96.8636465025713
 30
0.0
 40
1.201131308198438
 41
1.201131308198438
  0
VERTEX
  5
36D
  8
PROFILEEDGES
 10
-84.0799504417844
 20
-97.41839848225912
 30
0.0
 40
1.201131308198438
 41
1.201131308198438
  0
SEQEND
  5
49C
  8
PROFILEEDGES
  0
POLYLINE
  5
193
  8
PROFILEEDGES
 66
     1
 10
0.0
 20
0.0
 30
0.0
  0
VERTEX
  5
36E
  8
PROFILEEDGES
 10
-86.02868535590605
 20
-90.72011273598986
 30
0.0
 40
1.201131308198438
 41
1.201131308198438
  0
VERTEX
  5
36F
  8
PROFILEEDGES
 10
-86.05742426666794
 20
-91.08527522002467
 30
0.0
 40
1.201131308198438
 41
1.201131308198438
  0
SEQEND
  5
49D
  8
PROFILEEDGES
  0
POLYLINE
  5
194
  8
PROFILEEDGES
 66
     1
 10
0.0
 20
0.0
 30
0.0
  0
VERTEX
  5
370
  8
PROFILEEDGES
 10
-82.72748536196758
 20
-85.33304395633176
 30
0.0
 40
1.201131308198438
 41
1.201131308198438
  0
VERTEX
  5
371
  8
PROFILEEDGES
 10
-83.27941078097187
 20
-85.80443279651972
 30
0.0
 40
1.201131308198438
 41
1.201131308198438
  0
SEQEND
  5
49E
  8
PROFILEEDGES
  0
POLYLINE
  5
195
  8
PROFILEEDGES
 66
     1
 10
0.0
 20
0.0
 30
0.0
  0
VERTEX
  5
372
  8
PROFILEEDGES
 10
-80.4262533928583
 20
-99.86245078691344
 30
0.0
 40
1.201131308198438
 41
1.201131308198438
  0
VERTEX
  5
373
  8
PROFILEEDGES
 10
-79.72969848103071
 20
-100.0296788257762
 30
0.0
 40
1.201131308198438
 41
1.201131308198438
  0
SEQEND
  5
49F
  8
PROFILEEDGES
  0
POLYLINE
  5
196
  8
PROFILEEDGES
 66
     1
 10
0.0
 20
0.0
 30
0.0
  0
VERTEX
  5
374
  8
PROFILEEDGES
 10
-83.71248458298804
 20
101.7856872337979
 30
0.0
 40
1.201131308198438
 41
1.201131308198438
  0
VERTEX
  5
375
  8
PROFILEEDGES
 10
-84.07995044178439
 20
101.3554399924651
 30
0.0
 40
1.201131308198438
 41
1.201131308198438
  0
SEQEND
  5
4A0
  8
PROFILEEDGES
  0
POLYLINE
  5
197
  8
PROFILEEDGES
 66
     1
 10
0.0
 20
0.0
 30
0.0
  0
VERTEX
  5
376
  8
PROFILEEDGES
 10
-79.16668461320025
 20
104.1018880067159
 30
0.0
 40
1.201131308198438
 41
1.201131308198438
  0
VERTEX
  5
377
  8
PROFILEEDGES
 10
-79.72969848103081
 20
103.9667203359822
 30
0.0
 40
1.201131308198438
 41
1.201131308198438
  0
SEQEND
  5
4A1
  8
PROFILEEDGES
  0
POLYLINE
  5
198
  8
PROFILEEDGES
 66
     1
 10
0.0
 20
0.0
 30
0.0
  0
VERTEX
  5
378
  8
PROFILEEDGES
 10
-86.13031810429334
 20
95.94852075510299
 30
0.0
 40
1.201131308198438
 41
1.201131308198438
  0
VERTEX
  5
379
  8
PROFILEEDGES
 10
-86.05742426666794
 20
95.02231673023068
 30
0.0
 40
1.201131308198438
 41
1.201131308198438
  0
SEQEND
  5
4A2
  8
PROFILEEDGES
  0
POLYLINE
  5
199
  8
PROFILEEDGES
 66
     1
 10
0.0
 20
0.0
 30
0.0
  0
VERTEX
  5
37A
  8
PROFILEEDGES
 10
-75.32438281572787
 20
88.09754921308647
 30
0.0
 40
1.201131308198438
 41
1.201131308198438
  0
VERTEX
  5
37B
  8
PROFILEEDGES
 10
-74.12762652894337
 20
88.59326189792802
 30
0.0
 40
1.201131308198438
 41
1.201131308198438
  0
SEQEND
  5
4A3
  8
PROFILEEDGES
  0
POLYLINE
  5
19A
  8
PROFILEEDGES
 66
     1
 10
0.0
 20
0.0
 30
0.0
  0
VERTEX
  5
37C
  8
PROFILEEDGES
 10
-73.02315084661895
 20
89.27008546653778
 30
0.0
 40
1.201131308198438
 41
1.201131308198438
  0
VERTEX
  5
37D
  8
PROFILEEDGES
 10
-74.12762652894337
 20
88.59326189792802
 30
0.0
 40
1.201131308198438
 41
1.201131308198438
  0
SEQEND
  5
4A4
  8
PROFILEEDGES
  0
POLYLINE
  5
19B
  8
PROFILEEDGES
 66
     1
 10
0.0
 20
0.0
 30
0.0
  0
VERTEX
  5
37E
  8
PROFILEEDGES
 10
-83.71248458298804
 20
90.11135427640802
 30
0.0
 40
1.201131308198438
 41
1.201131308198438
  0
VERTEX
  5
37F
  8
PROFILEEDGES
 10
-83.27941078097179
 20
89.74147430672566
 30
0.0
 40
1.201131308198438
 41
1.201131308198438
  0
SEQEND
  5
4A5
  8
PROFILEEDGES
  0
POLYLINE
  5
19C
  8
PROFILEEDGES
 66
     1
 10
0.0
 20
0.0
 30
0.0
  0
VERTEX
  5
380
  8
PROFILEEDGES
 10
-83.71248458298804
 20
90.11135427640802
 30
0.0
 40
1.201131308198438
 41
1.201131308198438
  0
VERTEX
  5
381
  8
PROFILEEDGES
 10
-84.55375339285852
 20
91.09635349742723
 30
0.0
 40
1.201131308198438
 41
1.201131308198438
  0
SEQEND
  5
4A6
  8
PROFILEEDGES
  0
POLYLINE
  5
19D
  8
PROFILEEDGES
 66
     1
 10
0.0
 20
0.0
 30
0.0
  0
VERTEX
  5
382
  8
PROFILEEDGES
 10
-76.58395159538593
 20
87.79515350349011
 30
0.0
 40
1.201131308198438
 41
1.201131308198438
  0
VERTEX
  5
383
  8
PROFILEEDGES
 10
-75.32438281572787
 20
88.09754921308647
 30
0.0
 40
1.201131308198438
 41
1.201131308198438
  0
SEQEND
  5
4A7
  8
PROFILEEDGES
  0
POLYLINE
  5
19E
  8
PROFILEEDGES
 66
     1
 10
0.0
 20
0.0
 30
0.0
  0
VERTEX
  5
384
  8
PROFILEEDGES
 10
-80.4262533928583
 20
88.09754921308647
 30
0.0
 40
1.201131308198438
 41
1.201131308198438
  0
VERTEX
  5
385
  8
PROFILEEDGES
 10
-79.16668461320025
 20
87.79515350349011
 30
0.0
 40
1.201131308198438
 41
1.201131308198438
  0
SEQEND
  5
4A8
  8
PROFILEEDGES
  0
POLYLINE
  5
19F
  8
PROFILEEDGES
 66
     1
 10
0.0
 20
0.0
 30
0.0
  0
VERTEX
  5
386
  8
PROFILEEDGES
 10
-86.02868535590605
 20
97.23988726401005
 30
0.0
 40
1.201131308198438
 41
1.201131308198438
  0
VERTEX
  5
387
  8
PROFILEEDGES
 10
-86.13031810429334
 20
95.94852075510299
 30
0.0
 40
1.201131308198438
 41
1.201131308198438
  0
SEQEND
  5
4A9
  8
PROFILEEDGES
  0
POLYLINE
  5
1A0
  8
PROFILEEDGES
 66
     1
 10
0.0
 20
0.0
 30
0.0
  0
VERTEX
  5
388
  8
PROFILEEDGES
 10
-72.03815162559812
 20
101.7856872337979
 30
0.0
 40
1.201131308198438
 41
1.201131308198438
  0
VERTEX
  5
389
  8
PROFILEEDGES
 10
-71.61048888746289
 20
101.2849585024097
 30
0.0
 40
1.201131308198438
 41
1.201131308198438
  0
SEQEND
  5
4AA
  8
PROFILEEDGES
  0
POLYLINE
  5
1A1
  8
PROFILEEDGES
 66
     1
 10
0.0
 20
0.0
 30
0.0
  0
VERTEX
  5
38A
  8
PROFILEEDGES
 10
-69.7219508526805
 20
94.65715424619587
 30
0.0
 40
1.201131308198438
 41
1.201131308198438
  0
VERTEX
  5
38B
  8
PROFILEEDGES
 10
-69.65990519675297
 20
95.44551905339998
 30
0.0
 40
1.201131308198438
 41
1.201131308198438
  0
SEQEND
  5
4AB
  8
PROFILEEDGES
  0
POLYLINE
  5
1A2
  8
PROFILEEDGES
 66
     1
 10
0.0
 20
0.0
 30
0.0
  0
VERTEX
  5
38C
  8
PROFILEEDGES
 10
-70.52005924711803
 20
99.69621233045294
 30
0.0
 40
1.201131308198438
 41
1.201131308198438
  0
VERTEX
  5
38D
  8
PROFILEEDGES
 10
-70.93485419692855
 20
100.3730961691136
 30
0.0
 40
1.201131308198438
 41
1.201131308198438
  0
SEQEND
  5
4AC
  8
PROFILEEDGES
  0
POLYLINE
  5
1A3
  8
PROFILEEDGES
 66
     1
 10
0.0
 20
0.0
 30
0.0
  0
VERTEX
  5
38E
  8
PROFILEEDGES
 10
-72.03815162559812
 20
90.11135427640802
 30
0.0
 40
1.201131308198438
 41
1.201131308198438
  0
VERTEX
  5
38F
  8
PROFILEEDGES
 10
-73.02315084661895
 20
89.27008546653778
 30
0.0
 40
1.201131308198438
 41
1.201131308198438
  0
SEQEND
  5
4AD
  8
PROFILEEDGES
  0
POLYLINE
  5
1A4
  8
PROFILEEDGES
 66
     1
 10
0.0
 20
0.0
 30
0.0
  0
VERTEX
  5
390
  8
PROFILEEDGES
 10
-70.02434656227679
 20
93.39758546653776
 30
0.0
 40
1.201131308198438
 41
1.201131308198438
  0
VERTEX
  5
391
  8
PROFILEEDGES
 10
-69.7219508526805
 20
94.65715424619587
 30
0.0
 40
1.201131308198438
 41
1.201131308198438
  0
SEQEND
  5
4AE
  8
PROFILEEDGES
  0
POLYLINE
  5
1A5
  8
PROFILEEDGES
 66
     1
 10
0.0
 20
0.0
 30
0.0
  0
VERTEX
  5
392
  8
PROFILEEDGES
 10
-70.02434656227679
 20
93.39758546653776
 30
0.0
 40
1.201131308198438
 41
1.201131308198438
  0
VERTEX
  5
393
  8
PROFILEEDGES
 10
-70.52005924711803
 20
92.20082917975299
 30
0.0
 40
1.201131308198438
 41
1.201131308198438
  0
SEQEND
  5
4AF
  8
PROFILEEDGES
  0
POLYLINE
  5
1A6
  8
PROFILEEDGES
 66
     1
 10
0.0
 20
0.0
 30
0.0
  0
VERTEX
  5
394
  8
PROFILEEDGES
 10
-70.02434656227679
 20
98.49945604366816
 30
0.0
 40
1.201131308198438
 41
1.201131308198438
  0
VERTEX
  5
395
  8
PROFILEEDGES
 10
-70.52005924711803
 20
99.69621233045294
 30
0.0
 40
1.201131308198438
 41
1.201131308198438
  0
SEQEND
  5
4B0
  8
PROFILEEDGES
  0
POLYLINE
  5
1A7
  8
PROFILEEDGES
 66
     1
 10
0.0
 20
0.0
 30
0.0
  0
VERTEX
  5
396
  8
PROFILEEDGES
 10
-76.58395159538593
 20
104.1018880067159
 30
0.0
 40
1.201131308198438
 41
1.201131308198438
  0
VERTEX
  5
397
  8
PROFILEEDGES
 10
-75.9489661560102
 20
103.9494414903966
 30
0.0
 40
1.201131308198438
 41
1.201131308198438
  0
SEQEND
  5
4B1
  8
PROFILEEDGES
  0
POLYLINE
  5
1A8
  8
PROFILEEDGES
 66
     1
 10
0.0
 20
0.0
 30
0.0
  0
VERTEX
  5
398
  8
PROFILEEDGES
 10
-74.12762652894337
 20
103.3037796122779
 30
0.0
 40
1.201131308198438
 41
1.201131308198438
  0
VERTEX
  5
399
  8
PROFILEEDGES
 10
-74.81353088966043
 20
103.5878905009778
 30
0.0
 40
1.201131308198438
 41
1.201131308198438
  0
SEQEND
  5
4B2
  8
PROFILEEDGES
  0
POLYLINE
  5
1A9
  8
PROFILEEDGES
 66
     1
 10
0.0
 20
0.0
 30
0.0
  0
VERTEX
  5
39A
  8
PROFILEEDGES
 10
-83.71248458298804
 20
-86.17431276620201
 30
0.0
 40
1.201131308198438
 41
1.201131308198438
  0
VERTEX
  5
39B
  8
PROFILEEDGES
 10
-83.27941078097187
 20
-85.80443279651972
 30
0.0
 40
1.201131308198438
 41
1.201131308198438
  0
SEQEND
  5
4B3
  8
PROFILEEDGES
  0
POLYLINE
  5
1AA
  8
PROFILEEDGES
 66
     1
 10
0.0
 20
0.0
 30
0.0
  0
VERTEX
  5
39C
  8
PROFILEEDGES
 10
-79.16668461320025
 20
-100.1648464965098
 30
0.0
 40
1.201131308198438
 41
1.201131308198438
  0
VERTEX
  5
39D
  8
PROFILEEDGES
 10
-79.72969848103071
 20
-100.0296788257762
 30
0.0
 40
1.201131308198438
 41
1.201131308198438
  0
SEQEND
  5
4B4
  8
PROFILEEDGES
  0
POLYLINE
  5
1AB
  8
PROFILEEDGES
 66
     1
 10
0.0
 20
0.0
 30
0.0
  0
VERTEX
  5
39E
  8
PROFILEEDGES
 10
-84.55375339285852
 20
-87.15931198722258
 30
0.0
 40
1.201131308198438
 41
1.201131308198438
  0
VERTEX
  5
39F
  8
PROFILEEDGES
 10
-83.71248458298804
 20
-86.17431276620201
 30
0.0
 40
1.201131308198438
 41
1.201131308198438
  0
SEQEND
  5
4B5
  8
PROFILEEDGES
  0
POLYLINE
  5
1AC
  8
PROFILEEDGES
 66
     1
 10
0.0
 20
0.0
 30
0.0
  0
VERTEX
  5
3A0
  8
PROFILEEDGES
 10
-86.13031810429334
 20
-92.01147924489696
 30
0.0
 40
1.201131308198438
 41
1.201131308198438
  0
VERTEX
  5
3A1
  8
PROFILEEDGES
 10
-86.02868535590605
 20
-93.30284575380405
 30
0.0
 40
1.201131308198438
 41
1.201131308198438
  0
SEQEND
  5
4B6
  8
PROFILEEDGES
  0
POLYLINE
  5
1AD
  8
PROFILEEDGES
 66
     1
 10
0.0
 20
0.0
 30
0.0
  0
VERTEX
  5
3A2
  8
PROFILEEDGES
 10
-86.13031810429334
 20
-92.01147924489696
 30
0.0
 40
1.201131308198438
 41
1.201131308198438
  0
VERTEX
  5
3A3
  8
PROFILEEDGES
 10
-86.05742426666794
 20
-91.08527522002467
 30
0.0
 40
1.201131308198438
 41
1.201131308198438
  0
SEQEND
  5
4B7
  8
PROFILEEDGES
  0
POLYLINE
  5
1AE
  8
PROFILEEDGES
 66
     1
 10
0.0
 20
0.0
 30
0.0
  0
VERTEX
  5
3A4
  8
PROFILEEDGES
 10
-83.71248458298804
 20
-97.8486457235919
 30
0.0
 40
1.201131308198438
 41
1.201131308198438
  0
VERTEX
  5
3A5
  8
PROFILEEDGES
 10
-84.0799504417844
 20
-97.41839848225912
 30
0.0
 40
1.201131308198438
 41
1.201131308198438
  0
SEQEND
  5
4B8
  8
PROFILEEDGES
  0
POLYLINE
  5
1AF
  8
PROFILEEDGES
 66
     1
 10
0.0
 20
0.0
 30
0.0
  0
VERTEX
  5
3A6
  8
PROFILEEDGES
 10
-79.16668461320025
 20
-83.8581119932841
 30
0.0
 40
1.201131308198438
 41
1.201131308198438
  0
VERTEX
  5
3A7
  8
PROFILEEDGES
 10
-80.4262533928583
 20
-84.16050770288045
 30
0.0
 40
1.201131308198438
 41
1.201131308198438
  0
SEQEND
  5
4B9
  8
PROFILEEDGES
  0
POLYLINE
  5
1B0
  8
PROFILEEDGES
 66
     1
 10
0.0
 20
0.0
 30
0.0
  0
VERTEX
  5
3A8
  8
PROFILEEDGES
 10
-73.02315084661895
 20
-85.33304395633176
 30
0.0
 40
1.201131308198438
 41
1.201131308198438
  0
VERTEX
  5
3A9
  8
PROFILEEDGES
 10
-74.12762652894337
 20
-84.65622038772199
 30
0.0
 40
1.201131308198438
 41
1.201131308198438
  0
SEQEND
  5
4BA
  8
PROFILEEDGES
  0
POLYLINE
  5
1B1
  8
PROFILEEDGES
 66
     1
 10
0.0
 20
0.0
 30
0.0
  0
VERTEX
  5
3AA
  8
PROFILEEDGES
 10
-74.12762652894337
 20
-99.36673810207192
 30
0.0
 40
1.201131308198438
 41
1.201131308198438
  0
VERTEX
  5
3AB
  8
PROFILEEDGES
 10
-74.81353088966054
 20
-99.65084899077189
 30
0.0
 40
1.201131308198438
 41
1.201131308198438
  0
SEQEND
  5
4BB
  8
PROFILEEDGES
  0
POLYLINE
  5
1B2
  8
PROFILEEDGES
 66
     1
 10
0.0
 20
0.0
 30
0.0
  0
VERTEX
  5
3AC
  8
PROFILEEDGES
 10
-69.7219508526805
 20
-90.72011273598986
 30
0.0
 40
1.201131308198438
 41
1.201131308198438
  0
VERTEX
  5
3AD
  8
PROFILEEDGES
 10
-69.65990519675297
 20
-91.50847754319395
 30
0.0
 40
1.201131308198438
 41
1.201131308198438
  0
SEQEND
  5
4BC
  8
PROFILEEDGES
  0
POLYLINE
  5
1B3
  8
PROFILEEDGES
 66
     1
 10
0.0
 20
0.0
 30
0.0
  0
VERTEX
  5
3AE
  8
PROFILEEDGES
 10
-70.02434656227679
 20
-89.46054395633178
 30
0.0
 40
1.201131308198438
 41
1.201131308198438
  0
VERTEX
  5
3AF
  8
PROFILEEDGES
 10
-70.52005924711803
 20
-88.263787669547
 30
0.0
 40
1.201131308198438
 41
1.201131308198438
  0
SEQEND
  5
4BD
  8
PROFILEEDGES
  0
POLYLINE
  5
1B4
  8
PROFILEEDGES
 66
     1
 10
0.0
 20
0.0
 30
0.0
  0
VERTEX
  5
3B0
  8
PROFILEEDGES
 10
-70.02434656227679
 20
-89.46054395633178
 30
0.0
 40
1.201131308198438
 41
1.201131308198438
  0
VERTEX
  5
3B1
  8
PROFILEEDGES
 10
-69.7219508526805
 20
-90.72011273598986
 30
0.0
 40
1.201131308198438
 41
1.201131308198438
  0
SEQEND
  5
4BE
  8
PROFILEEDGES
  0
POLYLINE
  5
1B5
  8
PROFILEEDGES
 66
     1
 10
0.0
 20
0.0
 30
0.0
  0
VERTEX
  5
3B2
  8
PROFILEEDGES
 10
-70.52005924711803
 20
-95.75917082024692
 30
0.0
 40
1.201131308198438
 41
1.201131308198438
  0
VERTEX
  5
3B3
  8
PROFILEEDGES
 10
-70.02434656227679
 20
-94.56241453346215
 30
0.0
 40
1.201131308198438
 41
1.201131308198438
  0
SEQEND
  5
4BF
  8
PROFILEEDGES
  0
POLYLINE
  5
1B6
  8
PROFILEEDGES
 66
     1
 10
0.0
 20
0.0
 30
0.0
  0
VERTEX
  5
3B4
  8
PROFILEEDGES
 10
-70.52005924711803
 20
-95.75917082024692
 30
0.0
 40
1.201131308198438
 41
1.201131308198438
  0
VERTEX
  5
3B5
  8
PROFILEEDGES
 10
-70.93485419692874
 20
-96.43605465890784
 30
0.0
 40
1.201131308198438
 41
1.201131308198438
  0
SEQEND
  5
4C0
  8
PROFILEEDGES
  0
POLYLINE
  5
1B7
  8
PROFILEEDGES
 66
     1
 10
0.0
 20
0.0
 30
0.0
  0
VERTEX
  5
3B6
  8
PROFILEEDGES
 10
-76.58395159538593
 20
-100.1648464965098
 30
0.0
 40
1.201131308198438
 41
1.201131308198438
  0
VERTEX
  5
3B7
  8
PROFILEEDGES
 10
-75.94896615601027
 20
-100.0123999801906
 30
0.0
 40
1.201131308198438
 41
1.201131308198438
  0
SEQEND
  5
4C1
  8
PROFILEEDGES
  0
POLYLINE
  5
1B8
  8
PROFILEEDGES
 66
     1
 10
0.0
 20
0.0
 30
0.0
  0
VERTEX
  5
3B8
  8
PROFILEEDGES
 10
-72.03815162559812
 20
-97.8486457235919
 30
0.0
 40
1.201131308198438
 41
1.201131308198438
  0
VERTEX
  5
3B9
  8
PROFILEEDGES
 10
-71.61048888746275
 20
-97.34791699220354
 30
0.0
 40
1.201131308198438
 41
1.201131308198438
  0
SEQEND
  5
4C2
  8
PROFILEEDGES
  0
POLYLINE
  5
1B9
  8
PROFILEEDGES
 66
     1
 10
0.0
 20
0.0
 30
0.0
  0
VERTEX
  5
3BA
  8
PROFILEEDGES
 10
-75.32438281572787
 20
-84.16050770288045
 30
0.0
 40
1.201131308198438
 41
1.201131308198438
  0
VERTEX
  5
3BB
  8
PROFILEEDGES
 10
-76.58395159538593
 20
-83.8581119932841
 30
0.0
 40
1.201131308198438
 41
1.201131308198438
  0
SEQEND
  5
4C3
  8
PROFILEEDGES
  0
POLYLINE
  5
1BA
  8
PROFILEEDGES
 66
     1
 10
0.0
 20
0.0
 30
0.0
  0
VERTEX
  5
3BC
  8
PROFILEEDGES
 10
-75.32438281572787
 20
-84.16050770288045
 30
0.0
 40
1.201131308198438
 41
1.201131308198438
  0
VERTEX
  5
3BD
  8
PROFILEEDGES
 10
-74.12762652894337
 20
-84.65622038772199
 30
0.0
 40
1.201131308198438
 41
1.201131308198438
  0
SEQEND
  5
4C4
  8
PROFILEEDGES
  0
POLYLINE
  5
1BB
  8
PROFILEEDGES
 66
     1
 10
0.0
 20
0.0
 30
0.0
  0
VERTEX
  5
3BE
  8
PROFILEEDGES
 10
-72.03815162559812
 20
-86.17431276620201
 30
0.0
 40
1.201131308198438
 41
1.201131308198438
  0
VERTEX
  5
3BF
  8
PROFILEEDGES
 10
-73.02315084661895
 20
-85.33304395633176
 30
0.0
 40
1.201131308198438
 41
1.201131308198438
  0
SEQEND
  5
4C5
  8
PROFILEEDGES
  0
POLYLINE
  5
1BC
  8
PROFILEEDGES
 66
     1
 10
0.0
 20
0.0
 30
0.0
  0
VERTEX
  5
3C0
  8
PROFILEEDGES
 10
203.8996818957073
 20
59.11852075510301
 30
0.0
 40
1.201131308198438
 41
1.201131308198438
  0
VERTEX
  5
3C1
  8
PROFILEEDGES
 10
203.8996818957073
 20
164.528520755103
 30
0.0
 40
1.201131308198438
 41
1.201131308198438
  0
SEQEND
  5
4C6
  8
PROFILEEDGES
  0
POLYLINE
  5
1BD
  8
PROFILEEDGES
 66
     1
 10
0.0
 20
0.0
 30
0.0
  0
VERTEX
  5
3C2
  8
PROFILEEDGES
 10
203.8996818957073
 20
-55.18147924489698
 30
0.0
 40
1.201131308198438
 41
1.201131308198438
  0
VERTEX
  5
3C3
  8
PROFILEEDGES
 10
203.8996818957073
 20
59.11852075510301
 30
0.0
 40
1.201131308198438
 41
1.201131308198438
  0
SEQEND
  5
4C7
  8
PROFILEEDGES
  0
POLYLINE
  5
1BE
  8
PROFILEEDGES
 66
     1
 10
0.0
 20
0.0
 30
0.0
  0
VERTEX
  5
3C4
  8
PROFILEEDGES
 10
203.8996818957073
 20
-160.591479244897
 30
0.0
 40
1.201131308198438
 41
1.201131308198438
  0
VERTEX
  5
3C5
  8
PROFILEEDGES
 10
203.8996818957073
 20
-55.18147924489698
 30
0.0
 40
1.201131308198438
 41
1.201131308198438
  0
SEQEND
  5
4C8
  8
PROFILEEDGES
  0
POLYLINE
  5
1BF
  8
PROFILEEDGES
 66
     1
 10
0.0
 20
0.0
 30
0.0
  0
VERTEX
  5
3C6
  8
PROFILEEDGES
 10
146.7496818957074
 20
154.368520755103
 30
0.0
 40
1.201131308198438
 41
1.201131308198438
  0
VERTEX
  5
3C7
  8
PROFILEEDGES
 10
146.7496818957074
 20
-150.431479244897
 30
0.0
 40
1.201131308198438
 41
1.201131308198438
  0
SEQEND
  5
4C9
  8
PROFILEEDGES
  0
POLYLINE
  5
1C0
  8
PROFILEEDGES
 66
     1
 10
0.0
 20
0.0
 30
0.0
  0
VERTEX
  5
3C8
  8
PROFILEEDGES
 10
229.2996818957074
 20
59.11852075510301
 30
0.0
 40
1.201131308198438
 41
1.201131308198438
  0
VERTEX
  5
3C9
  8
PROFILEEDGES
 10
229.2996818957074
 20
-55.18147924489698
 30
0.0
 40
1.201131308198438
 41
1.201131308198438
  0
SEQEND
  5
4CA
  8
PROFILEEDGES
  0
ENDSEC
  0
EOF
