  0
SECTION
  2
HEADER
  9
$ACADVER
  1
AC1009
  9
$DWGCODEPAGE
  3
ansi_1252
  9
$INSBASE
 10
0.0
 20
0.0
 30
0.0
  9
$EXTMIN
 10
1.000000000000000E+20
 20
1.000000000000000E+20
 30
1.000000000000000E+20
  9
$EXTMAX
 10
-1.000000000000000E+20
 20
-1.000000000000000E+20
 30
-1.000000000000000E+20
  9
$LIMMIN
 10
0.0
 20
0.0
  9
$LIMMAX
 10
12.0
 20
9.0
  9
$ORTHOMODE
 70
     0
  9
$REGENMODE
 70
     1
  9
$FILLMODE
 70
     1
  9
$QTEXTMODE
 70
     0
  9
$MIRRTEXT
 70
     1
  9
$DRAGMODE
 70
     2
  9
$LTSCALE
 40
1.0
  9
$OSMODE
 70
    37
  9
$ATTMODE
 70
     1
  9
$TEXTSIZE
 40
0.2
  9
$TRACEWID
 40
0.05
  9
$TEXTSTYLE
  7
STANDARD
  9
$CLAYER
  8
0
  9
$CELTYPE
  6
BYLAYER
  9
$CECOLOR
 62
   256
  9
$DIMSCALE
 40
1.0
  9
$DIMASZ
 40
0.18
  9
$DIMEXO
 40
0.0625
  9
$DIMDLI
 40
0.38
  9
$DIMRND
 40
0.0
  9
$DIMDLE
 40
0.0
  9
$DIMEXE
 40
0.18
  9
$DIMTP
 40
0.0
  9
$DIMTM
 40
0.0
  9
$DIMTXT
 40
0.18
  9
$DIMCEN
 40
0.09
  9
$DIMTSZ
 40
0.0
  9
$DIMTOL
 70
     0
  9
$DIMLIM
 70
     0
  9
$DIMTIH
 70
     1
  9
$DIMTOH
 70
     1
  9
$DIMSE1
 70
     0
  9
$DIMSE2
 70
     0
  9
$DIMTAD
 70
     0
  9
$DIMZIN
 70
     0
  9
$DIMBLK
  1

  9
$DIMASO
 70
     1
  9
$DIMSHO
 70
     1
  9
$DIMPOST
  1

  9
$DIMAPOST
  1

  9
$DIMALT
 70
     0
  9
$DIMALTD
 70
     2
  9
$DIMALTF
 40
25.4
  9
$DIMLFAC
 40
1.0
  9
$DIMTOFL
 70
     0
  9
$DIMTVP
 40
0.0
  9
$DIMTIX
 70
     0
  9
$DIMSOXD
 70
     0
  9
$DIMSAH
 70
     0
  9
$DIMBLK1
  1

  9
$DIMBLK2
  1

  9
$DIMSTYLE
  2
STANDARD
  9
$DIMCLRD
 70
     0
  9
$DIMCLRE
 70
     0
  9
$DIMCLRT
 70
     0
  9
$DIMTFAC
 40
1.0
  9
$DIMGAP
 40
0.09
  9
$LUNITS
 70
     2
  9
$LUPREC
 70
     4
  9
$SKETCHINC
 40
0.1
  9
$FILLETRAD
 40
0.0
  9
$AUNITS
 70
     0
  9
$AUPREC
 70
     0
  9
$MENU
  1
.
  9
$ELEVATION
 40
0.0
  9
$PELEVATION
 40
0.0
  9
$THICKNESS
 40
0.0
  9
$LIMCHECK
 70
     0
  9
$CHAMFERA
 40
0.0
  9
$CHAMFERB
 40
0.0
  9
$SKPOLY
 70
     0
  9
$TDCREATE
 40
2460271.472268114
  9
$TDUPDATE
 40
2460271.472268368
  9
$TDINDWG
 40
0.0000000116
  9
$TDUSRTIMER
 40
0.0000000116
  9
$USRTIMER
 70
     1
  9
$ANGBASE
 50
0.0
  9
$ANGDIR
 70
     0
  9
$PDMODE
 70
     0
  9
$PDSIZE
 40
0.0
  9
$PLINEWID
 40
0.0
  9
$COORDS
 70
     1
  9
$SPLFRAME
 70
     0
  9
$SPLINETYPE
 70
     6
  9
$SPLINESEGS
 70
     8
  9
$ATTDIA
 70
     0
  9
$ATTREQ
 70
     1
  9
$HANDLING
 70
     1
  9
$HANDSEED
  5
378
  9
$SURFTAB1
 70
     6
  9
$SURFTAB2
 70
     6
  9
$SURFTYPE
 70
     6
  9
$SURFU
 70
     6
  9
$SURFV
 70
     6
  9
$UCSNAME
  2

  9
$UCSORG
 10
0.0
 20
0.0
 30
0.0
  9
$UCSXDIR
 10
1.0
 20
0.0
 30
0.0
  9
$UCSYDIR
 10
0.0
 20
1.0
 30
0.0
  9
$PUCSNAME
  2

  9
$PUCSORG
 10
0.0
 20
0.0
 30
0.0
  9
$PUCSXDIR
 10
1.0
 20
0.0
 30
0.0
  9
$PUCSYDIR
 10
0.0
 20
1.0
 30
0.0
  9
$USERI1
 70
     0
  9
$USERI2
 70
     0
  9
$USERI3
 70
     0
  9
$USERI4
 70
     0
  9
$USERI5
 70
     0
  9
$USERR1
 40
0.0
  9
$USERR2
 40
0.0
  9
$USERR3
 40
0.0
  9
$USERR4
 40
0.0
  9
$USERR5
 40
0.0
  9
$WORLDVIEW
 70
     1
  9
$SHADEDGE
 70
     3
  9
$SHADEDIF
 70
    70
  9
$TILEMODE
 70
     1
  9
$MAXACTVP
 70
    64
  9
$PLIMCHECK
 70
     0
  9
$PEXTMIN
 10
1.000000000000000E+20
 20
1.000000000000000E+20
 30
1.000000000000000E+20
  9
$PEXTMAX
 10
-1.000000000000000E+20
 20
-1.000000000000000E+20
 30
-1.000000000000000E+20
  9
$PLIMMIN
 10
0.0
 20
0.0
  9
$PLIMMAX
 10
12.0
 20
9.0
  9
$UNITMODE
 70
     0
  9
$VISRETAIN
 70
     1
  9
$PLINEGEN
 70
     0
  9
$PSLTSCALE
 70
     1
  0
ENDSEC
  0
SECTION
  2
TABLES
  0
TABLE
  2
VPORT
 70
     1
  0
VPORT
  2
*ACTIVE
 70
     0
 10
0.0
 20
0.0
 11
1.0
 21
1.0
 12
0.0
 22
0.0
 13
0.0
 23
0.0
 14
0.5
 24
0.5
 15
0.5
 25
0.5
 16
0.0
 26
0.0
 36
1.0
 17
0.0
 27
0.0
 37
-1000.0
 40
1.810891623860814
 41
1.658454647256439
 42
50.0
 43
2.584161239282987
 44
3.17443703785228
 50
0.0
 51
0.0
 71
     0
 72
   100
 73
     1
 74
     3
 75
     0
 76
     0
 77
     0
 78
     0
  0
ENDTAB
  0
TABLE
  2
LTYPE
 70
     1
  0
LTYPE
  2
CONTINUOUS
 70
     0
  3
Solid line
 72
    65
 73
     0
 40
0.0
  0
ENDTAB
  0
TABLE
  2
LAYER
 70
     3
  0
LAYER
  2
0
 70
     0
 62
     7
  6
CONTINUOUS
  0
LAYER
  2
PROFILEEDGES
 70
     0
 62
     7
  6
CONTINUOUS
  0
LAYER
  2
SECTIONCUTEDGES
 70
     0
 62
     7
  6
CONTINUOUS
  0
ENDTAB
  0
TABLE
  2
STYLE
 70
     1
  0
STYLE
  2
STANDARD
 70
     0
 40
0.0
 41
1.0
 50
0.0
 71
     0
 42
0.2
  3
txt
  4

  0
ENDTAB
  0
TABLE
  2
VIEW
 70
     0
  0
ENDTAB
  0
TABLE
  2
UCS
 70
     0
  0
ENDTAB
  0
TABLE
  2
APPID
 70
     1
  0
APPID
  2
ACAD
 70
     0
  0
ENDTAB
  0
TABLE
  2
DIMSTYLE
 70
     1
  0
DIMSTYLE
  2
STANDARD
 70
     0
  3

  4

  5

  6

  7

 40
1.0
 41
0.18
 42
0.0625
 43
0.38
 44
0.18
 45
0.0
 46
0.0
 47
0.0
 48
0.0
140
0.18
141
0.09
142
0.0
143
25.4
144
1.0
145
0.0
146
1.0
147
0.09
 71
     0
 72
     0
 73
     1
 74
     1
 75
     0
 76
     0
 77
     0
 78
     0
170
     0
171
     2
172
     0
173
     0
174
     0
175
     0
176
     0
177
     0
178
     0
  0
ENDTAB
  0
ENDSEC
  0
SECTION
  2
BLOCKS
  0
BLOCK
  8
0
  2
$MODEL_SPACE
 70
     0
 10
0.0
 20
0.0
 30
0.0
  3
$MODEL_SPACE
  1

  0
ENDBLK
  5
21
  8
0
  0
BLOCK
 67
     1
  8
0
  2
$PAPER_SPACE
 70
     0
 10
0.0
 20
0.0
 30
0.0
  3
$PAPER_SPACE
  1

  0
ENDBLK
  5
1D
 67
     1
  8
0
  0
ENDSEC
  0
SECTION
  2
ENTITIES
  0
POLYLINE
  5
60
  8
PROFILEEDGES
 66
     1
 10
0.0
 20
0.0
 30
0.0
  0
VERTEX
  5
180
  8
PROFILEEDGES
 10
0.3662546134499908
 20
0.0747596941007505
 30
0.0
 40
0.0040557483177174
 41
0.0040557483177174
  0
VERTEX
  5
181
  8
PROFILEEDGES
 10
0.36404819941401
 20
0.0751381703960338
 30
0.0
 40
0.0040557483177174
 41
0.0040557483177174
  0
SEQEND
  5
2D0
  8
PROFILEEDGES
  0
POLYLINE
  5
61
  8
PROFILEEDGES
 66
     1
 10
0.0
 20
0.0
 30
0.0
  0
VERTEX
  5
182
  8
PROFILEEDGES
 10
0.36404819941401
 20
0.0751381703960338
 30
0.0
 40
0.0040557483177174
 41
0.0040557483177174
  0
VERTEX
  5
183
  8
PROFILEEDGES
 10
0.361829258483968
 20
0.0753004748851924
 30
0.0
 40
0.0040557483177174
 41
0.0040557483177174
  0
SEQEND
  5
2D1
  8
PROFILEEDGES
  0
POLYLINE
  5
62
  8
PROFILEEDGES
 66
     1
 10
0.0
 20
0.0
 30
0.0
  0
VERTEX
  5
184
  8
PROFILEEDGES
 10
0.291135861452447
 20
0.0747596934230459
 30
0.0
 40
0.0040557483177174
 41
0.0040557483177174
  0
VERTEX
  5
185
  8
PROFILEEDGES
 10
0.2889519496867048
 20
0.074166756402882
 30
0.0
 40
0.0040557483177174
 41
0.0040557483177174
  0
SEQEND
  5
2D2
  8
PROFILEEDGES
  0
POLYLINE
  5
63
  8
PROFILEEDGES
 66
     1
 10
0.0
 20
0.0
 30
0.0
  0
VERTEX
  5
186
  8
PROFILEEDGES
 10
0.35960782266374
 20
0.0752458737770599
 30
0.0
 40
0.0040557483177174
 41
0.0040557483177174
  0
VERTEX
  5
187
  8
PROFILEEDGES
 10
0.2977826522326875
 20
0.075245873219287
 30
0.0
 40
0.0040557483177174
 41
0.0040557483177174
  0
SEQEND
  5
2D3
  8
PROFILEEDGES
  0
POLYLINE
  5
64
  8
PROFILEEDGES
 66
     1
 10
0.0
 20
0.0
 30
0.0
  0
VERTEX
  5
188
  8
PROFILEEDGES
 10
0.361829258483968
 20
0.0753004748851924
 30
0.0
 40
0.0040557483177174
 41
0.0040557483177174
  0
VERTEX
  5
189
  8
PROFILEEDGES
 10
0.35960782266374
 20
0.0752458737770599
 30
0.0
 40
0.0040557483177174
 41
0.0040557483177174
  0
SEQEND
  5
2D4
  8
PROFILEEDGES
  0
POLYLINE
  5
65
  8
PROFILEEDGES
 66
     1
 10
0.0
 20
0.0
 30
0.0
  0
VERTEX
  5
18A
  8
PROFILEEDGES
 10
0.2889519496867048
 20
0.074166756402882
 30
0.0
 40
0.0040557483177174
 41
0.0040557483177174
  0
VERTEX
  5
18B
  8
PROFILEEDGES
 10
0.2868004138208381
 20
0.0733620394119094
 30
0.0
 40
0.0040557483177174
 41
0.0040557483177174
  0
SEQEND
  5
2D5
  8
PROFILEEDGES
  0
POLYLINE
  5
66
  8
PROFILEEDGES
 66
     1
 10
0.0
 20
0.0
 30
0.0
  0
VERTEX
  5
18C
  8
PROFILEEDGES
 10
0.2933422754837471
 20
0.0751381697581291
 30
0.0
 40
0.0040557483177174
 41
0.0040557483177174
  0
VERTEX
  5
18D
  8
PROFILEEDGES
 10
0.291135861452447
 20
0.0747596934230459
 30
0.0
 40
0.0040557483177174
 41
0.0040557483177174
  0
SEQEND
  5
2D6
  8
PROFILEEDGES
  0
POLYLINE
  5
67
  8
PROFILEEDGES
 66
     1
 10
0.0
 20
0.0
 30
0.0
  0
VERTEX
  5
18E
  8
PROFILEEDGES
 10
0.2955612164117939
 20
0.0753004742873369
 30
0.0
 40
0.0040557483177174
 41
0.0040557483177174
  0
VERTEX
  5
18F
  8
PROFILEEDGES
 10
0.2933422754837471
 20
0.0751381697581291
 30
0.0
 40
0.0040557483177174
 41
0.0040557483177174
  0
SEQEND
  5
2D7
  8
PROFILEEDGES
  0
POLYLINE
  5
68
  8
PROFILEEDGES
 66
     1
 10
0.0
 20
0.0
 30
0.0
  0
VERTEX
  5
190
  8
PROFILEEDGES
 10
0.2977826522326875
 20
0.075245873219287
 30
0.0
 40
0.0040557483177174
 41
0.0040557483177174
  0
VERTEX
  5
191
  8
PROFILEEDGES
 10
0.2955612164117939
 20
0.0753004742873369
 30
0.0
 40
0.0040557483177174
 41
0.0040557483177174
  0
SEQEND
  5
2D8
  8
PROFILEEDGES
  0
POLYLINE
  5
69
  8
PROFILEEDGES
 66
     1
 10
0.0
 20
0.0
 30
0.0
  0
VERTEX
  5
192
  8
PROFILEEDGES
 10
0.2868004138208381
 20
0.0733620394119094
 30
0.0
 40
0.0040557483177174
 41
0.0040557483177174
  0
VERTEX
  5
193
  8
PROFILEEDGES
 10
0.2846909811152495
 20
0.0723491806379442
 30
0.0
 40
0.0040557483177174
 41
0.0040557483177174
  0
SEQEND
  5
2D9
  8
PROFILEEDGES
  0
POLYLINE
  5
6A
  8
PROFILEEDGES
 66
     1
 10
0.0
 20
0.0
 30
0.0
  0
VERTEX
  5
194
  8
PROFILEEDGES
 10
0.2846909811152495
 20
0.0723491806379442
 30
0.0
 40
0.0040557483177174
 41
0.0040557483177174
  0
VERTEX
  5
195
  8
PROFILEEDGES
 10
0.2826331884786301
 20
0.0711327592940499
 30
0.0
 40
0.0040557483177174
 41
0.0040557483177174
  0
SEQEND
  5
2DA
  8
PROFILEEDGES
  0
POLYLINE
  5
6B
  8
PROFILEEDGES
 66
     1
 10
0.0
 20
0.0
 30
0.0
  0
VERTEX
  5
196
  8
PROFILEEDGES
 10
0.3869741580604181
 20
-0.0615693897625031
 30
0.0
 40
0.0040557483177174
 41
0.0040557483177174
  0
VERTEX
  5
197
  8
PROFILEEDGES
 10
0.3855201404377938
 20
-0.063967294011059
 30
0.0
 40
0.0040557483177174
 41
0.0040557483177174
  0
SEQEND
  5
2DB
  8
PROFILEEDGES
  0
POLYLINE
  5
6C
  8
PROFILEEDGES
 66
     1
 10
0.0
 20
0.0
 30
0.0
  0
VERTEX
  5
198
  8
PROFILEEDGES
 10
0.3805292089260853
 20
-0.0702515900214382
 30
0.0
 40
0.0040557483177174
 41
0.0040557483177174
  0
VERTEX
  5
199
  8
PROFILEEDGES
 10
0.3786810142006489
 20
-0.0720116430271186
 30
0.0
 40
0.0040557483177174
 41
0.0040557483177174
  0
SEQEND
  5
2DC
  8
PROFILEEDGES
  0
POLYLINE
  5
6D
  8
PROFILEEDGES
 66
     1
 10
0.0
 20
0.0
 30
0.0
  0
VERTEX
  5
19A
  8
PROFILEEDGES
 10
0.3618292594371018
 20
-0.0790775261604239
 30
0.0
 40
0.0040557483177174
 41
0.0040557483177174
  0
VERTEX
  5
19B
  8
PROFILEEDGES
 10
0.3596078236161518
 20
-0.0790238553232463
 30
0.0
 40
0.0040557483177174
 41
0.0040557483177174
  0
SEQEND
  5
2DD
  8
PROFILEEDGES
  0
POLYLINE
  5
6E
  8
PROFILEEDGES
 66
     1
 10
0.0
 20
0.0
 30
0.0
  0
VERTEX
  5
19C
  8
PROFILEEDGES
 10
0.3839565196132498
 20
-0.0662203026320683
 30
0.0
 40
0.0040557483177174
 41
0.0040557483177174
  0
VERTEX
  5
19D
  8
PROFILEEDGES
 10
0.3822903648377357
 20
-0.0683182295990005
 30
0.0
 40
0.0040557483177174
 41
0.0040557483177174
  0
SEQEND
  5
2DE
  8
PROFILEEDGES
  0
POLYLINE
  5
6F
  8
PROFILEEDGES
 66
     1
 10
0.0
 20
0.0
 30
0.0
  0
VERTEX
  5
19E
  8
PROFILEEDGES
 10
0.3767541364930154
 20
-0.0735904312799946
 30
0.0
 40
0.0040557483177174
 41
0.0040557483177174
  0
VERTEX
  5
19F
  8
PROFILEEDGES
 10
0.3747572873666073
 20
-0.0749808169560415
 30
0.0
 40
0.0040557483177174
 41
0.0040557483177174
  0
SEQEND
  5
2DF
  8
PROFILEEDGES
  0
POLYLINE
  5
70
  8
PROFILEEDGES
 66
     1
 10
0.0
 20
0.0
 30
0.0
  0
VERTEX
  5
1A0
  8
PROFILEEDGES
 10
0.2911358623984266
 20
-0.0785459589037789
 30
0.0
 40
0.0040557483177174
 41
0.0040557483177174
  0
VERTEX
  5
1A1
  8
PROFILEEDGES
 10
0.2889519506248404
 20
-0.0779631238292213
 30
0.0
 40
0.0040557483177174
 41
0.0040557483177174
  0
SEQEND
  5
2E0
  8
PROFILEEDGES
  0
POLYLINE
  5
71
  8
PROFILEEDGES
 66
     1
 10
0.0
 20
0.0
 30
0.0
  0
VERTEX
  5
1A2
  8
PROFILEEDGES
 10
0.2889519506248404
 20
-0.0779631238292213
 30
0.0
 40
0.0040557483177174
 41
0.0040557483177174
  0
VERTEX
  5
1A3
  8
PROFILEEDGES
 10
0.2868004147483272
 20
-0.0771721168969874
 30
0.0
 40
0.0040557483177174
 41
0.0040557483177174
  0
SEQEND
  5
2E1
  8
PROFILEEDGES
  0
POLYLINE
  5
72
  8
PROFILEEDGES
 66
     1
 10
0.0
 20
0.0
 30
0.0
  0
VERTEX
  5
1A4
  8
PROFILEEDGES
 10
0.39061550802357
 20
-0.0536176929616359
 30
0.0
 40
0.0040557483177174
 41
0.0040557483177174
  0
VERTEX
  5
1A5
  8
PROFILEEDGES
 10
0.3895276140394858
 20
-0.0563828648973789
 30
0.0
 40
0.0040557483177174
 41
0.0040557483177174
  0
SEQEND
  5
2E2
  8
PROFILEEDGES
  0
POLYLINE
  5
73
  8
PROFILEEDGES
 66
     1
 10
0.0
 20
0.0
 30
0.0
  0
VERTEX
  5
1A6
  8
PROFILEEDGES
 10
0.2977826531850989
 20
-0.0790238555317663
 30
0.0
 40
0.0040557483177174
 41
0.0040557483177174
  0
VERTEX
  5
1A7
  8
PROFILEEDGES
 10
0.2955612173649277
 20
-0.0790775263839284
 30
0.0
 40
0.0040557483177174
 41
0.0040557483177174
  0
SEQEND
  5
2E3
  8
PROFILEEDGES
  0
POLYLINE
  5
74
  8
PROFILEEDGES
 66
     1
 10
0.0
 20
0.0
 30
0.0
  0
VERTEX
  5
1A8
  8
PROFILEEDGES
 10
0.2868004147483272
 20
-0.0771721168969874
 30
0.0
 40
0.0040557483177174
 41
0.0040557483177174
  0
VERTEX
  5
1A9
  8
PROFILEEDGES
 10
0.2846909820293396
 20
-0.0761765143106562
 30
0.0
 40
0.0040557483177174
 41
0.0040557483177174
  0
SEQEND
  5
2E4
  8
PROFILEEDGES
  0
POLYLINE
  5
75
  8
PROFILEEDGES
 66
     1
 10
0.0
 20
0.0
 30
0.0
  0
VERTEX
  5
1AA
  8
PROFILEEDGES
 10
0.3596078236161518
 20
-0.0790238553232463
 30
0.0
 40
0.0040557483177174
 41
0.0040557483177174
  0
VERTEX
  5
1AB
  8
PROFILEEDGES
 10
0.2977826531850989
 20
-0.0790238555317663
 30
0.0
 40
0.0040557483177174
 41
0.0040557483177174
  0
SEQEND
  5
2E5
  8
PROFILEEDGES
  0
POLYLINE
  5
76
  8
PROFILEEDGES
 66
     1
 10
0.0
 20
0.0
 30
0.0
  0
VERTEX
  5
1AC
  8
PROFILEEDGES
 10
0.2846909820293396
 20
-0.0761765143106562
 30
0.0
 40
0.0040557483177174
 41
0.0040557483177174
  0
VERTEX
  5
1AD
  8
PROFILEEDGES
 10
0.2826331893766273
 20
-0.0749808172667288
 30
0.0
 40
0.0040557483177174
 41
0.0040557483177174
  0
SEQEND
  5
2E6
  8
PROFILEEDGES
  0
POLYLINE
  5
77
  8
PROFILEEDGES
 66
     1
 10
0.0
 20
0.0
 30
0.0
  0
VERTEX
  5
1AE
  8
PROFILEEDGES
 10
0.2826331893766273
 20
-0.0749808172667288
 30
0.0
 40
0.0040557483177174
 41
0.0040557483177174
  0
VERTEX
  5
1AF
  8
PROFILEEDGES
 10
0.2806363402302647
 20
-0.073590431604163
 30
0.0
 40
0.0040557483177174
 41
0.0040557483177174
  0
SEQEND
  5
2E7
  8
PROFILEEDGES
  0
POLYLINE
  5
78
  8
PROFILEEDGES
 66
     1
 10
0.0
 20
0.0
 30
0.0
  0
VERTEX
  5
1B0
  8
PROFILEEDGES
 10
0.2806363402302647
 20
-0.073590431604163
 30
0.0
 40
0.0040557483177174
 41
0.0040557483177174
  0
VERTEX
  5
1B1
  8
PROFILEEDGES
 10
0.2787094624999557
 20
-0.0720116433642845
 30
0.0
 40
0.0040557483177174
 41
0.0040557483177174
  0
SEQEND
  5
2E8
  8
PROFILEEDGES
  0
POLYLINE
  5
79
  8
PROFILEEDGES
 66
     1
 10
0.0
 20
0.0
 30
0.0
  0
VERTEX
  5
1B2
  8
PROFILEEDGES
 10
0.3822903648377357
 20
-0.0683182295990005
 30
0.0
 40
0.0040557483177174
 41
0.0040557483177174
  0
VERTEX
  5
1B3
  8
PROFILEEDGES
 10
0.3805292089260853
 20
-0.0702515900214382
 30
0.0
 40
0.0040557483177174
 41
0.0040557483177174
  0
SEQEND
  5
2E9
  8
PROFILEEDGES
  0
POLYLINE
  5
7A
  8
PROFILEEDGES
 66
     1
 10
0.0
 20
0.0
 30
0.0
  0
VERTEX
  5
1B4
  8
PROFILEEDGES
 10
0.3726994947310621
 20
-0.0761765140138498
 30
0.0
 40
0.0040557483177174
 41
0.0040557483177174
  0
VERTEX
  5
1B5
  8
PROFILEEDGES
 10
0.3705900620263529
 20
-0.0771721166143872
 30
0.0
 40
0.0040557483177174
 41
0.0040557483177174
  0
SEQEND
  5
2EA
  8
PROFILEEDGES
  0
POLYLINE
  5
7B
  8
PROFILEEDGES
 66
     1
 10
0.0
 20
0.0
 30
0.0
  0
VERTEX
  5
1B6
  8
PROFILEEDGES
 10
0.3895276140394858
 20
-0.0563828648973789
 30
0.0
 40
0.0040557483177174
 41
0.0040557483177174
  0
VERTEX
  5
1B7
  8
PROFILEEDGES
 10
0.3883119987548037
 20
-0.0590374309973527
 30
0.0
 40
0.0040557483177174
 41
0.0040557483177174
  0
SEQEND
  5
2EB
  8
PROFILEEDGES
  0
POLYLINE
  5
7C
  8
PROFILEEDGES
 66
     1
 10
0.0
 20
0.0
 30
0.0
  0
VERTEX
  5
1B8
  8
PROFILEEDGES
 10
0.3662546143959706
 20
-0.0785459586504233
 30
0.0
 40
0.0040557483177174
 41
0.0040557483177174
  0
VERTEX
  5
1B9
  8
PROFILEEDGES
 10
0.364048200364997
 20
-0.0789179868396074
 30
0.0
 40
0.0040557483177174
 41
0.0040557483177174
  0
SEQEND
  5
2EC
  8
PROFILEEDGES
  0
POLYLINE
  5
7D
  8
PROFILEEDGES
 66
     1
 10
0.0
 20
0.0
 30
0.0
  0
VERTEX
  5
1BA
  8
PROFILEEDGES
 10
0.3747572873666073
 20
-0.0749808169560415
 30
0.0
 40
0.0040557483177174
 41
0.0040557483177174
  0
VERTEX
  5
1BB
  8
PROFILEEDGES
 10
0.3726994947310621
 20
-0.0761765140138498
 30
0.0
 40
0.0040557483177174
 41
0.0040557483177174
  0
SEQEND
  5
2ED
  8
PROFILEEDGES
  0
POLYLINE
  5
7E
  8
PROFILEEDGES
 66
     1
 10
0.0
 20
0.0
 30
0.0
  0
VERTEX
  5
1BC
  8
PROFILEEDGES
 10
0.3705900620263529
 20
-0.0771721166143872
 30
0.0
 40
0.0040557483177174
 41
0.0040557483177174
  0
VERTEX
  5
1BD
  8
PROFILEEDGES
 10
0.3684385261611968
 20
-0.0779631235611457
 30
0.0
 40
0.0040557483177174
 41
0.0040557483177174
  0
SEQEND
  5
2EE
  8
PROFILEEDGES
  0
POLYLINE
  5
7F
  8
PROFILEEDGES
 66
     1
 10
0.0
 20
0.0
 30
0.0
  0
VERTEX
  5
1BE
  8
PROFILEEDGES
 10
0.3855201404377938
 20
-0.063967294011059
 30
0.0
 40
0.0040557483177174
 41
0.0040557483177174
  0
VERTEX
  5
1BF
  8
PROFILEEDGES
 10
0.3839565196132498
 20
-0.0662203026320683
 30
0.0
 40
0.0040557483177174
 41
0.0040557483177174
  0
SEQEND
  5
2EF
  8
PROFILEEDGES
  0
POLYLINE
  5
80
  8
PROFILEEDGES
 66
     1
 10
0.0
 20
0.0
 30
0.0
  0
VERTEX
  5
1C0
  8
PROFILEEDGES
 10
0.3684385261611968
 20
-0.0779631235611457
 30
0.0
 40
0.0040557483177174
 41
0.0040557483177174
  0
VERTEX
  5
1C1
  8
PROFILEEDGES
 10
0.3662546143959706
 20
-0.0785459586504233
 30
0.0
 40
0.0040557483177174
 41
0.0040557483177174
  0
SEQEND
  5
2F0
  8
PROFILEEDGES
  0
POLYLINE
  5
81
  8
PROFILEEDGES
 66
     1
 10
0.0
 20
0.0
 30
0.0
  0
VERTEX
  5
1C2
  8
PROFILEEDGES
 10
0.364048200364997
 20
-0.0789179868396074
 30
0.0
 40
0.0040557483177174
 41
0.0040557483177174
  0
VERTEX
  5
1C3
  8
PROFILEEDGES
 10
0.3618292594371018
 20
-0.0790775261604239
 30
0.0
 40
0.0040557483177174
 41
0.0040557483177174
  0
SEQEND
  5
2F1
  8
PROFILEEDGES
  0
POLYLINE
  5
82
  8
PROFILEEDGES
 66
     1
 10
0.0
 20
0.0
 30
0.0
  0
VERTEX
  5
1C4
  8
PROFILEEDGES
 10
0.3786810142006489
 20
-0.0720116430271186
 30
0.0
 40
0.0040557483177174
 41
0.0040557483177174
  0
VERTEX
  5
1C5
  8
PROFILEEDGES
 10
0.3767541364930154
 20
-0.0735904312799946
 30
0.0
 40
0.0040557483177174
 41
0.0040557483177174
  0
SEQEND
  5
2F2
  8
PROFILEEDGES
  0
POLYLINE
  5
83
  8
PROFILEEDGES
 66
     1
 10
0.0
 20
0.0
 30
0.0
  0
VERTEX
  5
1C6
  8
PROFILEEDGES
 10
0.2678628624367671
 20
-0.0563828653077218
 30
0.0
 40
0.0040557483177174
 41
0.0040557483177174
  0
VERTEX
  5
1C7
  8
PROFILEEDGES
 10
0.26677496841299
 20
-0.0536176933793171
 30
0.0
 40
0.0040557483177174
 41
0.0040557483177174
  0
SEQEND
  5
2F3
  8
PROFILEEDGES
  0
POLYLINE
  5
84
  8
PROFILEEDGES
 66
     1
 10
0.0
 20
0.0
 30
0.0
  0
VERTEX
  5
1C8
  8
PROFILEEDGES
 10
0.2955612173649277
 20
-0.0790775263839284
 30
0.0
 40
0.0040557483177174
 41
0.0040557483177174
  0
VERTEX
  5
1C9
  8
PROFILEEDGES
 10
0.2933422764347338
 20
-0.0789179870780682
 30
0.0
 40
0.0040557483177174
 41
0.0040557483177174
  0
SEQEND
  5
2F4
  8
PROFILEEDGES
  0
POLYLINE
  5
85
  8
PROFILEEDGES
 66
     1
 10
0.0
 20
0.0
 30
0.0
  0
VERTEX
  5
1CA
  8
PROFILEEDGES
 10
0.2933422764347338
 20
-0.0789179870780682
 30
0.0
 40
0.0040557483177174
 41
0.0040557483177174
  0
VERTEX
  5
1CB
  8
PROFILEEDGES
 10
0.2911358623984266
 20
-0.0785459589037789
 30
0.0
 40
0.0040557483177174
 41
0.0040557483177174
  0
SEQEND
  5
2F5
  8
PROFILEEDGES
  0
POLYLINE
  5
86
  8
PROFILEEDGES
 66
     1
 10
0.0
 20
0.0
 30
0.0
  0
VERTEX
  5
1CC
  8
PROFILEEDGES
 10
0.3883119987548037
 20
-0.0590374309973527
 30
0.0
 40
0.0040557483177174
 41
0.0040557483177174
  0
VERTEX
  5
1CD
  8
PROFILEEDGES
 10
0.3869741580604181
 20
-0.0615693897625031
 30
0.0
 40
0.0040557483177174
 41
0.0040557483177174
  0
SEQEND
  5
2F6
  8
PROFILEEDGES
  0
POLYLINE
  5
87
  8
PROFILEEDGES
 66
     1
 10
0.0
 20
0.0
 30
0.0
  0
VERTEX
  5
1CE
  8
PROFILEEDGES
 10
0.2718703361473456
 20
-0.0639672943943468
 30
0.0
 40
0.0040557483177174
 41
0.0040557483177174
  0
VERTEX
  5
1CF
  8
PROFILEEDGES
 10
0.2704163184902932
 20
-0.0615693901556103
 30
0.0
 40
0.0040557483177174
 41
0.0040557483177174
  0
SEQEND
  5
2F7
  8
PROFILEEDGES
  0
POLYLINE
  5
88
  8
PROFILEEDGES
 66
     1
 10
0.0
 20
0.0
 30
0.0
  0
VERTEX
  5
1D0
  8
PROFILEEDGES
 10
0.273433957004229
 20
-0.0662203030048316
 30
0.0
 40
0.0040557483177174
 41
0.0040557483177174
  0
VERTEX
  5
1D1
  8
PROFILEEDGES
 10
0.2718703361473456
 20
-0.0639672943943468
 30
0.0
 40
0.0040557483177174
 41
0.0040557483177174
  0
SEQEND
  5
2F8
  8
PROFILEEDGES
  0
POLYLINE
  5
89
  8
PROFILEEDGES
 66
     1
 10
0.0
 20
0.0
 30
0.0
  0
VERTEX
  5
1D2
  8
PROFILEEDGES
 10
0.2690784777595628
 20
-0.0590374313994843
 30
0.0
 40
0.0040557483177174
 41
0.0040557483177174
  0
VERTEX
  5
1D3
  8
PROFILEEDGES
 10
0.2678628624367671
 20
-0.0563828653077218
 30
0.0
 40
0.0040557483177174
 41
0.0040557483177174
  0
SEQEND
  5
2F9
  8
PROFILEEDGES
  0
POLYLINE
  5
8A
  8
PROFILEEDGES
 66
     1
 10
0.0
 20
0.0
 30
0.0
  0
VERTEX
  5
1D4
  8
PROFILEEDGES
 10
0.2768612677492652
 20
-0.0702515903710713
 30
0.0
 40
0.0040557483177174
 41
0.0040557483177174
  0
VERTEX
  5
1D5
  8
PROFILEEDGES
 10
0.2751001118098562
 20
-0.0683182299605133
 30
0.0
 40
0.0040557483177174
 41
0.0040557483177174
  0
SEQEND
  5
2FA
  8
PROFILEEDGES
  0
POLYLINE
  5
8B
  8
PROFILEEDGES
 66
     1
 10
0.0
 20
0.0
 30
0.0
  0
VERTEX
  5
1D6
  8
PROFILEEDGES
 10
0.2787094624999557
 20
-0.0720116433642845
 30
0.0
 40
0.0040557483177174
 41
0.0040557483177174
  0
VERTEX
  5
1D7
  8
PROFILEEDGES
 10
0.2768612677492652
 20
-0.0702515903710713
 30
0.0
 40
0.0040557483177174
 41
0.0040557483177174
  0
SEQEND
  5
2FB
  8
PROFILEEDGES
  0
POLYLINE
  5
8C
  8
PROFILEEDGES
 66
     1
 10
0.0
 20
0.0
 30
0.0
  0
VERTEX
  5
1D8
  8
PROFILEEDGES
 10
0.2751001118098562
 20
-0.0683182299605133
 30
0.0
 40
0.0040557483177174
 41
0.0040557483177174
  0
VERTEX
  5
1D9
  8
PROFILEEDGES
 10
0.273433957004229
 20
-0.0662203030048316
 30
0.0
 40
0.0040557483177174
 41
0.0040557483177174
  0
SEQEND
  5
2FC
  8
PROFILEEDGES
  0
POLYLINE
  5
8D
  8
PROFILEEDGES
 66
     1
 10
0.0
 20
0.0
 30
0.0
  0
VERTEX
  5
1DA
  8
PROFILEEDGES
 10
0.2704163184902932
 20
-0.0615693901556103
 30
0.0
 40
0.0040557483177174
 41
0.0040557483177174
  0
VERTEX
  5
1DB
  8
PROFILEEDGES
 10
0.2690784777595628
 20
-0.0590374313994843
 30
0.0
 40
0.0040557483177174
 41
0.0040557483177174
  0
SEQEND
  5
2FD
  8
PROFILEEDGES
  0
POLYLINE
  5
8E
  8
PROFILEEDGES
 66
     1
 10
0.0
 20
0.0
 30
0.0
  0
VERTEX
  5
1DC
  8
PROFILEEDGES
 10
0.2704163177727972
 20
0.057488880093099
 30
0.0
 40
0.0040557483177174
 41
0.0040557483177174
  0
VERTEX
  5
1DD
  8
PROFILEEDGES
 10
0.2690784770761437
 20
0.054913036451525
 30
0.0
 40
0.0040557483177174
 41
0.0040557483177174
  0
SEQEND
  5
2FE
  8
PROFILEEDGES
  0
POLYLINE
  5
8F
  8
PROFILEEDGES
 66
     1
 10
0.0
 20
0.0
 30
0.0
  0
VERTEX
  5
1DE
  8
PROFILEEDGES
 10
0.2718703353975768
 20
0.059928345735027
 30
0.0
 40
0.0040557483177174
 41
0.0040557483177174
  0
VERTEX
  5
1DF
  8
PROFILEEDGES
 10
0.2704163177727972
 20
0.057488880093099
 30
0.0
 40
0.0040557483177174
 41
0.0040557483177174
  0
SEQEND
  5
2FF
  8
PROFILEEDGES
  0
POLYLINE
  5
90
  8
PROFILEEDGES
 66
     1
 10
0.0
 20
0.0
 30
0.0
  0
VERTEX
  5
1E0
  8
PROFILEEDGES
 10
0.2734339562241372
 20
0.0622204043641235
 30
0.0
 40
0.0040557483177174
 41
0.0040557483177174
  0
VERTEX
  5
1E1
  8
PROFILEEDGES
 10
0.2718703353975768
 20
0.059928345735027
 30
0.0
 40
0.0040557483177174
 41
0.0040557483177174
  0
SEQEND
  5
300
  8
PROFILEEDGES
  0
POLYLINE
  5
91
  8
PROFILEEDGES
 66
     1
 10
0.0
 20
0.0
 30
0.0
  0
VERTEX
  5
1E2
  8
PROFILEEDGES
 10
0.2751001110015294
 20
0.0643546934056758
 30
0.0
 40
0.0040557483177174
 41
0.0040557483177174
  0
VERTEX
  5
1E3
  8
PROFILEEDGES
 10
0.2734339562241372
 20
0.0622204043641235
 30
0.0
 40
0.0040557483177174
 41
0.0040557483177174
  0
SEQEND
  5
301
  8
PROFILEEDGES
  0
POLYLINE
  5
92
  8
PROFILEEDGES
 66
     1
 10
0.0
 20
0.0
 30
0.0
  0
VERTEX
  5
1E4
  8
PROFILEEDGES
 10
0.2806363393509803
 20
0.0697182749153498
 30
0.0
 40
0.0040557483177174
 41
0.0040557483177174
  0
VERTEX
  5
1E5
  8
PROFILEEDGES
 10
0.2787094616419198
 20
0.0681121224953327
 30
0.0
 40
0.0040557483177174
 41
0.0040557483177174
  0
SEQEND
  5
302
  8
PROFILEEDGES
  0
POLYLINE
  5
93
  8
PROFILEEDGES
 66
     1
 10
0.0
 20
0.0
 30
0.0
  0
VERTEX
  5
1E6
  8
PROFILEEDGES
 10
0.2690784770761437
 20
0.054913036451525
 30
0.0
 40
0.0040557483177174
 41
0.0040557483177174
  0
VERTEX
  5
1E7
  8
PROFILEEDGES
 10
0.2678628617890755
 20
0.0522124603990264
 30
0.0
 40
0.0040557483177174
 41
0.0040557483177174
  0
SEQEND
  5
303
  8
PROFILEEDGES
  0
POLYLINE
  5
94
  8
PROFILEEDGES
 66
     1
 10
0.0
 20
0.0
 30
0.0
  0
VERTEX
  5
1E8
  8
PROFILEEDGES
 10
0.2826331884786301
 20
0.0711327592940499
 30
0.0
 40
0.0040557483177174
 41
0.0040557483177174
  0
VERTEX
  5
1E9
  8
PROFILEEDGES
 10
0.2806363393509803
 20
0.0697182749153498
 30
0.0
 40
0.0040557483177174
 41
0.0040557483177174
  0
SEQEND
  5
304
  8
PROFILEEDGES
  0
POLYLINE
  5
95
  8
PROFILEEDGES
 66
     1
 10
0.0
 20
0.0
 30
0.0
  0
VERTEX
  5
1EA
  8
PROFILEEDGES
 10
0.2787094616419198
 20
0.0681121224953327
 30
0.0
 40
0.0040557483177174
 41
0.0040557483177174
  0
VERTEX
  5
1EB
  8
PROFILEEDGES
 10
0.2768612669149176
 20
0.0663215635735555
 30
0.0
 40
0.0040557483177174
 41
0.0040557483177174
  0
SEQEND
  5
305
  8
PROFILEEDGES
  0
POLYLINE
  5
96
  8
PROFILEEDGES
 66
     1
 10
0.0
 20
0.0
 30
0.0
  0
VERTEX
  5
1EC
  8
PROFILEEDGES
 10
0.2678628617890755
 20
0.0522124603990264
 30
0.0
 40
0.0040557483177174
 41
0.0040557483177174
  0
VERTEX
  5
1ED
  8
PROFILEEDGES
 10
0.2668542938041892
 20
0.0496044842780401
 30
0.0
 40
0.0040557483177174
 41
0.0040557483177174
  0
SEQEND
  5
306
  8
PROFILEEDGES
  0
POLYLINE
  5
97
  8
PROFILEEDGES
 66
     1
 10
0.0
 20
0.0
 30
0.0
  0
VERTEX
  5
1EE
  8
PROFILEEDGES
 10
0.2768612669149176
 20
0.0663215635735555
 30
0.0
 40
0.0040557483177174
 41
0.0040557483177174
  0
VERTEX
  5
1EF
  8
PROFILEEDGES
 10
0.2751001110015294
 20
0.0643546934056758
 30
0.0
 40
0.0040557483177174
 41
0.0040557483177174
  0
SEQEND
  5
307
  8
PROFILEEDGES
  0
POLYLINE
  5
98
  8
PROFILEEDGES
 66
     1
 10
0.0
 20
0.0
 30
0.0
  0
VERTEX
  5
1F0
  8
PROFILEEDGES
 10
0.389527613391794
 20
0.0522124614966584
 30
0.0
 40
0.0040557483177174
 41
0.0040557483177174
  0
VERTEX
  5
1F1
  8
PROFILEEDGES
 10
0.3883119980713849
 20
0.0549130375272347
 30
0.0
 40
0.0040557483177174
 41
0.0040557483177174
  0
SEQEND
  5
308
  8
PROFILEEDGES
  0
POLYLINE
  5
99
  8
PROFILEEDGES
 66
     1
 10
0.0
 20
0.0
 30
0.0
  0
VERTEX
  5
1F2
  8
PROFILEEDGES
 10
0.3905361814513134
 20
0.049604485284161
 30
0.0
 40
0.0040557483177174
 41
0.0040557483177174
  0
VERTEX
  5
1F3
  8
PROFILEEDGES
 10
0.389527613391794
 20
0.0522124614966584
 30
0.0
 40
0.0040557483177174
 41
0.0040557483177174
  0
SEQEND
  5
309
  8
PROFILEEDGES
  0
POLYLINE
  5
9A
  8
PROFILEEDGES
 66
     1
 10
0.0
 20
0.0
 30
0.0
  0
VERTEX
  5
1F4
  8
PROFILEEDGES
 10
0.3805292080917376
 20
0.066321564508836
 30
0.0
 40
0.0040557483177174
 41
0.0040557483177174
  0
VERTEX
  5
1F5
  8
PROFILEEDGES
 10
0.3786810133426131
 20
0.0681121233972652
 30
0.0
 40
0.0040557483177174
 41
0.0040557483177174
  0
SEQEND
  5
30A
  8
PROFILEEDGES
  0
POLYLINE
  5
9B
  8
PROFILEEDGES
 66
     1
 10
0.0
 20
0.0
 30
0.0
  0
VERTEX
  5
1F6
  8
PROFILEEDGES
 10
0.3767541356137311
 20
0.0697182757825146
 30
0.0
 40
0.0040557483177174
 41
0.0040557483177174
  0
VERTEX
  5
1F7
  8
PROFILEEDGES
 10
0.3747572864686098
 20
0.0711327601251961
 30
0.0
 40
0.0040557483177174
 41
0.0040557483177174
  0
SEQEND
  5
30B
  8
PROFILEEDGES
  0
POLYLINE
  5
9C
  8
PROFILEEDGES
 66
     1
 10
0.0
 20
0.0
 30
0.0
  0
VERTEX
  5
1F8
  8
PROFILEEDGES
 10
0.3726994938169723
 20
0.0723491814319604
 30
0.0
 40
0.0040557483177174
 41
0.0040557483177174
  0
VERTEX
  5
1F9
  8
PROFILEEDGES
 10
0.3705900610988632
 20
0.0733620401678409
 30
0.0
 40
0.0040557483177174
 41
0.0040557483177174
  0
SEQEND
  5
30C
  8
PROFILEEDGES
  0
POLYLINE
  5
9D
  8
PROFILEEDGES
 66
     1
 10
0.0
 20
0.0
 30
0.0
  0
VERTEX
  5
1FA
  8
PROFILEEDGES
 10
0.385520139688025
 20
0.0599283467603733
 30
0.0
 40
0.0040557483177174
 41
0.0040557483177174
  0
VERTEX
  5
1FB
  8
PROFILEEDGES
 10
0.3839565188331583
 20
0.0622204053612332
 30
0.0
 40
0.0040557483177174
 41
0.0040557483177174
  0
SEQEND
  5
30D
  8
PROFILEEDGES
  0
POLYLINE
  5
9E
  8
PROFILEEDGES
 66
     1
 10
0.0
 20
0.0
 30
0.0
  0
VERTEX
  5
1FC
  8
PROFILEEDGES
 10
0.3786810133426131
 20
0.0681121233972652
 30
0.0
 40
0.0040557483177174
 41
0.0040557483177174
  0
VERTEX
  5
1FD
  8
PROFILEEDGES
 10
0.3767541356137311
 20
0.0697182757825146
 30
0.0
 40
0.0040557483177174
 41
0.0040557483177174
  0
SEQEND
  5
30E
  8
PROFILEEDGES
  0
LINE
  5
9F
  8
0
 10
0.269078476957905
 20
0.0526329458213708
 30
0.0
 11
0.2678628616732228
 21
0.0499783797146003
 31
0.0
  0
POLYLINE
  5
A0
  8
PROFILEEDGES
 66
     1
 10
0.0
 20
0.0
 30
0.0
  0
VERTEX
  5
1FE
  8
PROFILEEDGES
 10
0.3705900610988632
 20
0.0733620401678409
 30
0.0
 40
0.0040557483177174
 41
0.0040557483177174
  0
VERTEX
  5
1FF
  8
PROFILEEDGES
 10
0.3684385252230614
 20
0.0741667571200035
 30
0.0
 40
0.0040557483177174
 41
0.0040557483177174
  0
SEQEND
  5
30F
  8
PROFILEEDGES
  0
LINE
  5
A1
  8
0
 10
0.2678628616732228
 20
0.0499783797146003
 30
0.0
 11
0.2674563080233796
 21
0.0489450154696903
 31
0.0
  0
LINE
  5
A2
  8
0
 10
0.2690784770761437
 20
0.054913036451525
 30
0.0
 11
0.269078476957905
 21
0.0526329458213708
 31
0.0
  0
POLYLINE
  5
A3
  8
PROFILEEDGES
 66
     1
 10
0.0
 20
0.0
 30
0.0
  0
VERTEX
  5
200
  8
PROFILEEDGES
 10
0.3839565188331583
 20
0.0622204053612332
 30
0.0
 40
0.0040557483177174
 41
0.0040557483177174
  0
VERTEX
  5
201
  8
PROFILEEDGES
 10
0.3822903640294086
 20
0.0643546943727338
 30
0.0
 40
0.0040557483177174
 41
0.0040557483177174
  0
SEQEND
  5
310
  8
PROFILEEDGES
  0
LINE
  5
A4
  8
0
 10
0.2678628617890755
 20
0.0522124603990264
 30
0.0
 11
0.2678628616732228
 21
0.0499783797146003
 31
0.0
  0
POLYLINE
  5
A5
  8
PROFILEEDGES
 66
     1
 10
0.0
 20
0.0
 30
0.0
  0
VERTEX
  5
202
  8
PROFILEEDGES
 10
0.3747572864686098
 20
0.0711327601251961
 30
0.0
 40
0.0040557483177174
 41
0.0040557483177174
  0
VERTEX
  5
203
  8
PROFILEEDGES
 10
0.3726994938169723
 20
0.0723491814319604
 30
0.0
 40
0.0040557483177174
 41
0.0040557483177174
  0
SEQEND
  5
311
  8
PROFILEEDGES
  0
POLYLINE
  5
A6
  8
PROFILEEDGES
 66
     1
 10
0.0
 20
0.0
 30
0.0
  0
VERTEX
  5
204
  8
PROFILEEDGES
 10
0.3822903640294086
 20
0.0643546943727338
 30
0.0
 40
0.0040557483177174
 41
0.0040557483177174
  0
VERTEX
  5
205
  8
PROFILEEDGES
 10
0.3805292080917376
 20
0.066321564508836
 30
0.0
 40
0.0040557483177174
 41
0.0040557483177174
  0
SEQEND
  5
312
  8
PROFILEEDGES
  0
LINE
  5
A7
  8
0
 10
0.2704163177727972
 20
0.057488880093099
 30
0.0
 11
0.2704163176522825
 21
0.0551649045940139
 31
0.0
  0
POLYLINE
  5
A8
  8
PROFILEEDGES
 66
     1
 10
0.0
 20
0.0
 30
0.0
  0
VERTEX
  5
206
  8
PROFILEEDGES
 10
0.3869741573429221
 20
0.0574888811446691
 30
0.0
 40
0.0040557483177174
 41
0.0040557483177174
  0
VERTEX
  5
207
  8
PROFILEEDGES
 10
0.385520139688025
 20
0.0599283467603733
 30
0.0
 40
0.0040557483177174
 41
0.0040557483177174
  0
SEQEND
  5
313
  8
PROFILEEDGES
  0
LINE
  5
A9
  8
0
 10
0.2704163176522825
 20
0.0551649045940139
 30
0.0
 11
0.269078476957905
 21
0.0526329458213708
 31
0.0
  0
POLYLINE
  5
AA
  8
PROFILEEDGES
 66
     1
 10
0.0
 20
0.0
 30
0.0
  0
VERTEX
  5
208
  8
PROFILEEDGES
 10
0.3684385252230614
 20
0.0741667571200035
 30
0.0
 40
0.0040557483177174
 41
0.0040557483177174
  0
VERTEX
  5
209
  8
PROFILEEDGES
 10
0.3662546134499908
 20
0.0747596941007505
 30
0.0
 40
0.0040557483177174
 41
0.0040557483177174
  0
SEQEND
  5
314
  8
PROFILEEDGES
  0
LINE
  5
AB
  8
0
 10
0.2718703352749068
 20
0.0575628088507015
 30
0.0
 11
0.2704163176522825
 21
0.0551649045940139
 31
0.0
  0
LINE
  5
AC
  8
0
 10
0.2718703353975768
 20
0.059928345735027
 30
0.0
 11
0.2718703352749068
 21
0.0575628088507015
 31
0.0
  0
LINE
  5
AD
  8
0
 10
0.2734339562241372
 20
0.0622204043641235
 30
0.0
 11
0.2734339560994427
 21
0.0598158174804907
 31
0.0
  0
LINE
  5
AE
  8
0
 10
0.2734339560994427
 20
0.0598158174804907
 30
0.0
 11
0.2718703352749068
 21
0.0575628088507015
 31
0.0
  0
LINE
  5
AF
  8
0
 10
0.2751001110015294
 20
0.0643546934056758
 30
0.0
 11
0.2751001108749491
 21
0.0619137444567428
 31
0.0
  0
LINE
  5
B0
  8
0
 10
0.2751001108749491
 20
0.0619137444567428
 30
0.0
 11
0.2734339560994427
 21
0.0598158174804907
 31
0.0
  0
POLYLINE
  5
B1
  8
PROFILEEDGES
 66
     1
 10
0.0
 20
0.0
 30
0.0
  0
VERTEX
  5
20A
  8
PROFILEEDGES
 10
0.3883119980713849
 20
0.0549130375272347
 30
0.0
 40
0.0040557483177174
 41
0.0040557483177174
  0
VERTEX
  5
20B
  8
PROFILEEDGES
 10
0.3869741573429221
 20
0.0574888811446691
 30
0.0
 40
0.0040557483177174
 41
0.0040557483177174
  0
SEQEND
  5
315
  8
PROFILEEDGES
  0
LINE
  5
B2
  8
0
 10
0.3684385252230614
 20
0.0741667571200035
 30
0.0
 11
0.3684385250878122
 21
0.0715586392097288
 31
0.0
  0
LINE
  5
B3
  8
0
 10
0.2889519495514556
 20
0.0715586384964652
 30
0.0
 11
0.2868004136862996
 21
0.0707676315376685
 31
0.0
  0
LINE
  5
B4
  8
0
 10
0.2846909809816064
 20
0.0697720289252942
 30
0.0
 11
0.2826331883460614
 21
0.0685763318559613
 31
0.0
  0
LINE
  5
B5
  8
0
 10
0.2933422753476396
 20
0.0725135017995152
 30
0.0
 11
0.291135861316674
 21
0.0721414735979854
 31
0.0
  0
LINE
  5
B6
  8
0
 10
0.2955612164117939
 20
0.0753004742873369
 30
0.0
 11
0.2955612162755428
 21
0.0726730411327702
 31
0.0
  0
LINE
  5
B7
  8
0
 10
0.2977826520964846
 20
0.0726193703080338
 30
0.0
 11
0.2955612162755428
 21
0.0726730411327702
 31
0.0
  0
LINE
  5
B8
  8
0
 10
0.2977826522326875
 20
0.075245873219287
 30
0.0
 11
0.2977826520964846
 21
0.0726193703080338
 31
0.0
  0
LINE
  5
B9
  8
0
 10
0.3726994936833291
 20
0.0697720297150386
 30
0.0
 11
0.3705900609643252
 21
0.0707676322895332
 31
0.0
  0
LINE
  5
BA
  8
0
 10
0.2806363392196613
 20
0.0671859461687425
 30
0.0
 11
0.2787094615120196
 21
0.065607157905075
 31
0.0
  0
LINE
  5
BB
  8
0
 10
0.3726994938169723
 20
0.0723491814319604
 30
0.0
 11
0.3726994936833291
 21
0.0697720297150386
 31
0.0
  0
LINE
  5
BC
  8
0
 10
0.3747572863360414
 20
0.068576332682636
 30
0.0
 11
0.3726994936833291
 21
0.0697720297150386
 31
0.0
  0
LINE
  5
BD
  8
0
 10
0.3747572864686098
 20
0.0711327601251961
 30
0.0
 11
0.3747572863360414
 21
0.068576332682636
 31
0.0
  0
LINE
  5
BE
  8
0
 10
0.3767541354824121
 20
0.0671859470312421
 30
0.0
 11
0.3747572863360414
 21
0.068576332682636
 31
0.0
  0
LINE
  5
BF
  8
0
 10
0.2806363393509803
 20
0.0697182749153498
 30
0.0
 11
0.2806363392196613
 21
0.0671859461687425
 31
0.0
  0
LINE
  5
C0
  8
0
 10
0.2826331883460614
 20
0.0685763318559613
 30
0.0
 11
0.2806363392196613
 21
0.0671859461687425
 31
0.0
  0
LINE
  5
C1
  8
0
 10
0.2826331884786301
 20
0.0711327592940499
 30
0.0
 11
0.2826331883460614
 21
0.0685763318559613
 31
0.0
  0
LINE
  5
C2
  8
0
 10
0.361829258483968
 20
0.0753004748851924
 30
0.0
 11
0.3618292583477171
 21
0.0726730417274091
 31
0.0
  0
LINE
  5
C3
  8
0
 10
0.3767541356137311
 20
0.0697182757825146
 30
0.0
 11
0.3767541354824121
 21
0.0671859470312421
 31
0.0
  0
LINE
  5
C4
  8
0
 10
0.3596078225275371
 20
0.0726193708628059
 30
0.0
 11
0.2977826520964846
 21
0.0726193703080338
 31
0.0
  0
LINE
  5
C5
  8
0
 10
0.35960782266374
 20
0.0752458737770599
 30
0.0
 11
0.3596078225275371
 21
0.0726193708628059
 31
0.0
  0
LINE
  5
C6
  8
0
 10
0.2768612667865993
 20
0.0638471048890438
 30
0.0
 11
0.2751001108749491
 21
0.0619137444567428
 31
0.0
  0
LINE
  5
C7
  8
0
 10
0.2768612669149176
 20
0.0663215635735555
 30
0.0
 11
0.2768612667865993
 21
0.0638471048890438
 31
0.0
  0
LINE
  5
C8
  8
0
 10
0.2787094615120196
 20
0.065607157905075
 30
0.0
 11
0.2768612667865993
 21
0.0638471048890438
 31
0.0
  0
LINE
  5
C9
  8
0
 10
0.2787094616419198
 20
0.0681121224953327
 30
0.0
 11
0.2787094615120196
 21
0.065607157905075
 31
0.0
  0
LINE
  5
CA
  8
0
 10
0.291135861452447
 20
0.0747596934230459
 30
0.0
 11
0.291135861316674
 21
0.0721414735979854
 31
0.0
  0
LINE
  5
CB
  8
0
 10
0.2933422754837471
 20
0.0751381697581291
 30
0.0
 11
0.2933422753476396
 21
0.0725135017995152
 31
0.0
  0
LINE
  5
CC
  8
0
 10
0.3618292583477171
 20
0.0726730417274091
 30
0.0
 11
0.3596078225275371
 21
0.0726193708628059
 31
0.0
  0
LINE
  5
CD
  8
0
 10
0.2846909811152495
 20
0.0723491806379442
 30
0.0
 11
0.2846909809816064
 21
0.0697720289252942
 31
0.0
  0
LINE
  5
CE
  8
0
 10
0.2868004136862996
 20
0.0707676315376685
 30
0.0
 11
0.2846909809816064
 21
0.0697720289252942
 31
0.0
  0
LINE
  5
CF
  8
0
 10
0.2868004138208381
 20
0.0733620394119094
 30
0.0
 11
0.2868004136862996
 21
0.0707676315376685
 31
0.0
  0
LINE
  5
D0
  8
0
 10
0.3640481992779028
 20
0.0725135024339879
 30
0.0
 11
0.3618292583477171
 21
0.0726730417274091
 31
0.0
  0
LINE
  5
D1
  8
0
 10
0.36404819941401
 20
0.0751381703960338
 30
0.0
 11
0.3640481992779028
 21
0.0725135024339879
 31
0.0
  0
LINE
  5
D2
  8
0
 10
0.2889519496867048
 20
0.074166756402882
 30
0.0
 11
0.2889519495514556
 21
0.0715586384964652
 31
0.0
  0
LINE
  5
D3
  8
0
 10
0.3662546134499908
 20
0.0747596941007505
 30
0.0
 11
0.366254613314218
 21
0.0721414742720442
 31
0.0
  0
LINE
  5
D4
  8
0
 10
0.3684385250878122
 20
0.0715586392097288
 30
0.0
 11
0.366254613314218
 21
0.0721414742720442
 31
0.0
  0
LINE
  5
D5
  8
0
 10
0.3705900609643252
 20
0.0707676322895332
 30
0.0
 11
0.3684385250878122
 21
0.0715586392097288
 31
0.0
  0
LINE
  5
D6
  8
0
 10
0.3705900610988632
 20
0.0733620401678409
 30
0.0
 11
0.3705900609643252
 21
0.0707676322895332
 31
0.0
  0
LINE
  5
D7
  8
0
 10
0.366254613314218
 20
0.0721414742720442
 30
0.0
 11
0.3640481992779028
 21
0.0725135024339879
 31
0.0
  0
LINE
  5
D8
  8
0
 10
0.3786810133426131
 20
0.0681121233972652
 30
0.0
 11
0.3786810132127128
 21
0.065607158802155
 31
0.0
  0
LINE
  5
D9
  8
0
 10
0.2955612162755428
 20
0.0726730411327702
 30
0.0
 11
0.2933422753476396
 21
0.0725135017995152
 31
0.0
  0
LINE
  5
DA
  8
0
 10
0.3786810132127128
 20
0.065607158802155
 30
0.0
 11
0.3767541354824121
 21
0.0671859470312421
 31
0.0
  0
LINE
  5
DB
  8
0
 10
0.291135861316674
 20
0.0721414735979854
 30
0.0
 11
0.2889519495514556
 21
0.0715586384964652
 31
0.0
  0
LINE
  5
DC
  8
0
 10
0.3869741573429221
 20
0.0574888811446691
 30
0.0
 11
0.3869741572224074
 21
0.0551649056399267
 31
0.0
  0
LINE
  5
DD
  8
0
 10
0.388311997953146
 20
0.0526329468912934
 30
0.0
 11
0.3869741572224074
 21
0.0551649056399267
 31
0.0
  0
LINE
  5
DE
  8
0
 10
0.3883119980713849
 20
0.0549130375272347
 30
0.0
 11
0.388311997953146
 21
0.0526329468912934
 31
0.0
  0
LINE
  5
DF
  8
0
 10
0.3805292079634193
 20
0.0638471058192925
 30
0.0
 11
0.3786810132127128
 21
0.065607158802155
 31
0.0
  0
LINE
  5
E0
  8
0
 10
0.3869741572224074
 20
0.0551649056399267
 30
0.0
 11
0.3855201395653552
 21
0.0575628098705314
 31
0.0
  0
LINE
  5
E1
  8
0
 10
0.3805292080917376
 20
0.066321564508836
 30
0.0
 11
0.3805292079634193
 21
0.0638471058192925
 31
0.0
  0
LINE
  5
E2
  8
0
 10
0.389527613391794
 20
0.0522124614966584
 30
0.0
 11
0.3895276132759413
 21
0.0499783808063275
 31
0.0
  0
LINE
  5
E3
  8
0
 10
0.385520139688025
 20
0.0599283467603733
 30
0.0
 11
0.3855201395653552
 21
0.0575628098705314
 31
0.0
  0
LINE
  5
E4
  8
0
 10
0.3822903640294086
 20
0.0643546943727338
 30
0.0
 11
0.3822903639028283
 21
0.0619137454185982
 31
0.0
  0
LINE
  5
E5
  8
0
 10
0.3822903639028283
 20
0.0619137454185982
 30
0.0
 11
0.3805292079634193
 21
0.0638471058192925
 31
0.0
  0
LINE
  5
E6
  8
0
 10
0.3899341669821428
 20
0.0489450164631827
 30
0.0
 11
0.3895276132759413
 21
0.0499783808063275
 31
0.0
  0
LINE
  5
E7
  8
0
 10
0.3839565188331583
 20
0.0622204053612332
 30
0.0
 11
0.3839565187084639
 21
0.0598158184722362
 31
0.0
  0
LINE
  5
E8
  8
0
 10
0.3839565187084639
 20
0.0598158184722362
 30
0.0
 11
0.3822903639028283
 21
0.0619137454185982
 31
0.0
  0
LINE
  5
E9
  8
0
 10
0.3855201395653552
 20
0.0575628098705314
 30
0.0
 11
0.3839565187084639
 21
0.0598158184722362
 31
0.0
  0
LINE
  5
EA
  8
0
 10
0.3895276132759413
 20
0.0499783808063275
 30
0.0
 11
0.388311997953146
 21
0.0526329468912934
 31
0.0
  0
POLYLINE
  5
EB
  8
PROFILEEDGES
 66
     1
 10
0.0
 20
0.0
 30
0.0
  0
VERTEX
  5
20C
  8
PROFILEEDGES
 10
0.4764766115640096
 20
-0.0496044780533332
 30
0.0
 40
0.0040557483177174
 41
0.0040557483177174
  0
VERTEX
  5
20D
  8
PROFILEEDGES
 10
0.5830810922368308
 20
0.000000003583735
 30
0.0
 40
0.0040557483177174
 41
0.0040557483177174
  0
SEQEND
  5
316
  8
PROFILEEDGES
  0
POLYLINE
  5
EC
  8
PROFILEEDGES
 66
     1
 10
0.0
 20
0.0
 30
0.0
  0
VERTEX
  5
20E
  8
PROFILEEDGES
 10
0.4764766115640096
 20
-0.0496044780533332
 30
0.0
 40
0.0040557483177174
 41
0.0040557483177174
  0
VERTEX
  5
20F
  8
PROFILEEDGES
 10
0.4742653309874418
 20
-0.0496044780669834
 30
0.0
 40
0.0040557483177174
 41
0.0040557483177174
  0
SEQEND
  5
317
  8
PROFILEEDGES
  0
LINE
  5
ED
  8
0
 10
0.4742653302314574
 20
-0.0130746713863765
 30
0.0
 11
0.4829422354776832
 21
0.0000000029655792
 31
0.0
  0
LINE
  5
EE
  8
0
 10
0.4829422354776832
 20
0.0000000029655792
 30
0.0
 11
0.5830810922368308
 21
0.000000003583735
 31
0.0
  0
POLYLINE
  5
EF
  8
PROFILEEDGES
 66
     1
 10
0.0
 20
0.0
 30
0.0
  0
VERTEX
  5
210
  8
PROFILEEDGES
 10
0.1881499658507016
 20
0.0673122824386695
 30
0.0
 40
0.0040557483177174
 41
0.0040557483177174
  0
VERTEX
  5
211
  8
PROFILEEDGES
 10
0.1765649049449643
 20
0.0496044835435589
 30
0.0
 40
0.0040557483177174
 41
0.0040557483177174
  0
SEQEND
  5
318
  8
PROFILEEDGES
  0
POLYLINE
  5
F0
  8
PROFILEEDGES
 66
     1
 10
0.0
 20
0.0
 30
0.0
  0
VERTEX
  5
212
  8
PROFILEEDGES
 10
0.2225389049449625
 20
0.0496044839175458
 30
0.0
 40
0.0040557483177174
 41
0.0040557483177174
  0
VERTEX
  5
213
  8
PROFILEEDGES
 10
0.1954847763830961
 20
0.0496044836974675
 30
0.0
 40
0.0040557483177174
 41
0.0040557483177174
  0
SEQEND
  5
319
  8
PROFILEEDGES
  0
POLYLINE
  5
F1
  8
PROFILEEDGES
 66
     1
 10
0.0
 20
0.0
 30
0.0
  0
VERTEX
  5
214
  8
PROFILEEDGES
 10
0.2341239658506993
 20
0.0673122828126562
 30
0.0
 40
0.0040557483177174
 41
0.0040557483177174
  0
VERTEX
  5
215
  8
PROFILEEDGES
 10
0.2225389049449625
 20
0.0496044839175458
 30
0.0
 40
0.0040557483177174
 41
0.0040557483177174
  0
SEQEND
  5
31A
  8
PROFILEEDGES
  0
POLYLINE
  5
F2
  8
PROFILEEDGES
 66
     1
 10
0.0
 20
0.0
 30
0.0
  0
VERTEX
  5
216
  8
PROFILEEDGES
 10
0.1954847763830961
 20
0.0496044836974675
 30
0.0
 40
0.0040557483177174
 41
0.0040557483177174
  0
VERTEX
  5
217
  8
PROFILEEDGES
 10
0.1881499658507016
 20
0.0673122824386695
 30
0.0
 40
0.0040557483177174
 41
0.0040557483177174
  0
SEQEND
  5
31B
  8
PROFILEEDGES
  0
POLYLINE
  5
F3
  8
PROFILEEDGES
 66
     1
 10
0.0
 20
0.0
 30
0.0
  0
VERTEX
  5
218
  8
PROFILEEDGES
 10
0.2414587763830947
 20
0.049604484071454
 30
0.0
 40
0.0040557483177174
 41
0.0040557483177174
  0
VERTEX
  5
219
  8
PROFILEEDGES
 10
0.2341239658506993
 20
0.0673122828126562
 30
0.0
 40
0.0040557483177174
 41
0.0040557483177174
  0
SEQEND
  5
31C
  8
PROFILEEDGES
  0
POLYLINE
  5
F4
  8
PROFILEEDGES
 66
     1
 10
0.0
 20
0.0
 30
0.0
  0
VERTEX
  5
21A
  8
PROFILEEDGES
 10
-0.3175640341492733
 20
0.0673122783248143
 30
0.0
 40
0.0040557483177174
 41
0.0040557483177174
  0
VERTEX
  5
21B
  8
PROFILEEDGES
 10
-0.3291490950550401
 20
0.0496044784333969
 30
0.0
 40
0.0040557483177174
 41
0.0040557483177174
  0
SEQEND
  5
31D
  8
PROFILEEDGES
  0
POLYLINE
  5
F5
  8
PROFILEEDGES
 66
     1
 10
0.0
 20
0.0
 30
0.0
  0
VERTEX
  5
21C
  8
PROFILEEDGES
 10
-0.3102292236168784
 20
0.0496044795836121
 30
0.0
 40
0.0040557483177174
 41
0.0040557483177174
  0
VERTEX
  5
21D
  8
PROFILEEDGES
 10
-0.3175640341492733
 20
0.0673122783248143
 30
0.0
 40
0.0040557483177174
 41
0.0040557483177174
  0
SEQEND
  5
31E
  8
PROFILEEDGES
  0
POLYLINE
  5
F6
  8
PROFILEEDGES
 66
     1
 10
0.0
 20
0.0
 30
0.0
  0
VERTEX
  5
21E
  8
PROFILEEDGES
 10
-0.2831750950550411
 20
0.0496044798036906
 30
0.0
 40
0.0040557483177174
 41
0.0040557483177174
  0
VERTEX
  5
21F
  8
PROFILEEDGES
 10
-0.3102292236168784
 20
0.0496044795836121
 30
0.0
 40
0.0040557483177174
 41
0.0040557483177174
  0
SEQEND
  5
31F
  8
PROFILEEDGES
  0
POLYLINE
  5
F7
  8
PROFILEEDGES
 66
     1
 10
0.0
 20
0.0
 30
0.0
  0
VERTEX
  5
220
  8
PROFILEEDGES
 10
0.038642904944962
 20
0.0496044824215985
 30
0.0
 40
0.0040557483177174
 41
0.0040557483177174
  0
VERTEX
  5
221
  8
PROFILEEDGES
 10
0.0115887763831252
 20
0.0496044822015199
 30
0.0
 40
0.0040557483177174
 41
0.0040557483177174
  0
SEQEND
  5
320
  8
PROFILEEDGES
  0
POLYLINE
  5
F8
  8
PROFILEEDGES
 66
     1
 10
0.0
 20
0.0
 30
0.0
  0
VERTEX
  5
222
  8
PROFILEEDGES
 10
-0.0992790950550402
 20
0.0496044812996379
 30
0.0
 40
0.0040557483177174
 41
0.0040557483177174
  0
VERTEX
  5
223
  8
PROFILEEDGES
 10
-0.126333223616877
 20
0.0496044810795594
 30
0.0
 40
0.0040557483177174
 41
0.0040557483177174
  0
SEQEND
  5
321
  8
PROFILEEDGES
  0
POLYLINE
  5
F9
  8
PROFILEEDGES
 66
     1
 10
0.0
 20
0.0
 30
0.0
  0
VERTEX
  5
224
  8
PROFILEEDGES
 10
0.0575627763831234
 20
0.0496044825755069
 30
0.0
 40
0.0040557483177174
 41
0.0040557483177174
  0
VERTEX
  5
225
  8
PROFILEEDGES
 10
0.0502279658506995
 20
0.0673122813167091
 30
0.0
 40
0.0040557483177174
 41
0.0040557483177174
  0
SEQEND
  5
322
  8
PROFILEEDGES
  0
POLYLINE
  5
FA
  8
PROFILEEDGES
 66
     1
 10
0.0
 20
0.0
 30
0.0
  0
VERTEX
  5
226
  8
PROFILEEDGES
 10
-0.0803592236168787
 20
0.0496044814535463
 30
0.0
 40
0.0040557483177174
 41
0.0040557483177174
  0
VERTEX
  5
227
  8
PROFILEEDGES
 10
-0.087694034149274
 20
0.0673122801947483
 30
0.0
 40
0.0040557483177174
 41
0.0040557483177174
  0
SEQEND
  5
323
  8
PROFILEEDGES
  0
POLYLINE
  5
FB
  8
PROFILEEDGES
 66
     1
 10
0.0
 20
0.0
 30
0.0
  0
VERTEX
  5
228
  8
PROFILEEDGES
 10
-0.0417200341492988
 20
0.0673122805687352
 30
0.0
 40
0.0040557483177174
 41
0.0040557483177174
  0
VERTEX
  5
229
  8
PROFILEEDGES
 10
-0.0533050950550351
 20
0.0496044816736248
 30
0.0
 40
0.0040557483177174
 41
0.0040557483177174
  0
SEQEND
  5
324
  8
PROFILEEDGES
  0
POLYLINE
  5
FC
  8
PROFILEEDGES
 66
     1
 10
0.0
 20
0.0
 30
0.0
  0
VERTEX
  5
22A
  8
PROFILEEDGES
 10
-0.0073310950550372
 20
0.0496044820476117
 30
0.0
 40
0.0040557483177174
 41
0.0040557483177174
  0
VERTEX
  5
22B
  8
PROFILEEDGES
 10
-0.0343852236168797
 20
0.0496044818275332
 30
0.0
 40
0.0040557483177174
 41
0.0040557483177174
  0
SEQEND
  5
325
  8
PROFILEEDGES
  0
POLYLINE
  5
FD
  8
PROFILEEDGES
 66
     1
 10
0.0
 20
0.0
 30
0.0
  0
VERTEX
  5
22C
  8
PROFILEEDGES
 10
-0.087694034149274
 20
0.0673122801947483
 30
0.0
 40
0.0040557483177174
 41
0.0040557483177174
  0
VERTEX
  5
22D
  8
PROFILEEDGES
 10
-0.0992790950550402
 20
0.0496044812996379
 30
0.0
 40
0.0040557483177174
 41
0.0040557483177174
  0
SEQEND
  5
326
  8
PROFILEEDGES
  0
POLYLINE
  5
FE
  8
PROFILEEDGES
 66
     1
 10
0.0
 20
0.0
 30
0.0
  0
VERTEX
  5
22E
  8
PROFILEEDGES
 10
0.0846169049449609
 20
0.0496044827955853
 30
0.0
 40
0.0040557483177174
 41
0.0040557483177174
  0
VERTEX
  5
22F
  8
PROFILEEDGES
 10
0.0575627763831234
 20
0.0496044825755069
 30
0.0
 40
0.0040557483177174
 41
0.0040557483177174
  0
SEQEND
  5
327
  8
PROFILEEDGES
  0
POLYLINE
  5
FF
  8
PROFILEEDGES
 66
     1
 10
0.0
 20
0.0
 30
0.0
  0
VERTEX
  5
230
  8
PROFILEEDGES
 10
0.0962019658507033
 20
0.0673122816906958
 30
0.0
 40
0.0040557483177174
 41
0.0040557483177174
  0
VERTEX
  5
231
  8
PROFILEEDGES
 10
0.0846169049449609
 20
0.0496044827955853
 30
0.0
 40
0.0040557483177174
 41
0.0040557483177174
  0
SEQEND
  5
328
  8
PROFILEEDGES
  0
POLYLINE
  5
100
  8
PROFILEEDGES
 66
     1
 10
0.0
 20
0.0
 30
0.0
  0
VERTEX
  5
232
  8
PROFILEEDGES
 10
-0.0533050950550351
 20
0.0496044816736248
 30
0.0
 40
0.0040557483177174
 41
0.0040557483177174
  0
VERTEX
  5
233
  8
PROFILEEDGES
 10
-0.0803592236168787
 20
0.0496044814535463
 30
0.0
 40
0.0040557483177174
 41
0.0040557483177174
  0
SEQEND
  5
329
  8
PROFILEEDGES
  0
POLYLINE
  5
101
  8
PROFILEEDGES
 66
     1
 10
0.0
 20
0.0
 30
0.0
  0
VERTEX
  5
234
  8
PROFILEEDGES
 10
-0.0343852236168797
 20
0.0496044818275332
 30
0.0
 40
0.0040557483177174
 41
0.0040557483177174
  0
VERTEX
  5
235
  8
PROFILEEDGES
 10
-0.0417200341492988
 20
0.0673122805687352
 30
0.0
 40
0.0040557483177174
 41
0.0040557483177174
  0
SEQEND
  5
32A
  8
PROFILEEDGES
  0
POLYLINE
  5
102
  8
PROFILEEDGES
 66
     1
 10
0.0
 20
0.0
 30
0.0
  0
VERTEX
  5
236
  8
PROFILEEDGES
 10
0.103536776383099
 20
0.0496044829494938
 30
0.0
 40
0.0040557483177174
 41
0.0040557483177174
  0
VERTEX
  5
237
  8
PROFILEEDGES
 10
0.0962019658507033
 20
0.0673122816906958
 30
0.0
 40
0.0040557483177174
 41
0.0040557483177174
  0
SEQEND
  5
32B
  8
PROFILEEDGES
  0
POLYLINE
  5
103
  8
PROFILEEDGES
 66
     1
 10
0.0
 20
0.0
 30
0.0
  0
VERTEX
  5
238
  8
PROFILEEDGES
 10
0.0042539658507002
 20
0.0673122809427222
 30
0.0
 40
0.0040557483177174
 41
0.0040557483177174
  0
VERTEX
  5
239
  8
PROFILEEDGES
 10
-0.0073310950550372
 20
0.0496044820476117
 30
0.0
 40
0.0040557483177174
 41
0.0040557483177174
  0
SEQEND
  5
32C
  8
PROFILEEDGES
  0
POLYLINE
  5
104
  8
PROFILEEDGES
 66
     1
 10
0.0
 20
0.0
 30
0.0
  0
VERTEX
  5
23A
  8
PROFILEEDGES
 10
0.0115887763831252
 20
0.0496044822015199
 30
0.0
 40
0.0040557483177174
 41
0.0040557483177174
  0
VERTEX
  5
23B
  8
PROFILEEDGES
 10
0.0042539658507002
 20
0.0673122809427222
 30
0.0
 40
0.0040557483177174
 41
0.0040557483177174
  0
SEQEND
  5
32D
  8
PROFILEEDGES
  0
POLYLINE
  5
105
  8
PROFILEEDGES
 66
     1
 10
0.0
 20
0.0
 30
0.0
  0
VERTEX
  5
23C
  8
PROFILEEDGES
 10
0.0502279658506995
 20
0.0673122813167091
 30
0.0
 40
0.0040557483177174
 41
0.0040557483177174
  0
VERTEX
  5
23D
  8
PROFILEEDGES
 10
0.038642904944962
 20
0.0496044824215985
 30
0.0
 40
0.0040557483177174
 41
0.0040557483177174
  0
SEQEND
  5
32E
  8
PROFILEEDGES
  0
POLYLINE
  5
106
  8
PROFILEEDGES
 66
     1
 10
0.0
 20
0.0
 30
0.0
  0
VERTEX
  5
23E
  8
PROFILEEDGES
 10
0.1305909049449646
 20
0.0496044831695721
 30
0.0
 40
0.0040557483177174
 41
0.0040557483177174
  0
VERTEX
  5
23F
  8
PROFILEEDGES
 10
0.103536776383099
 20
0.0496044829494938
 30
0.0
 40
0.0040557483177174
 41
0.0040557483177174
  0
SEQEND
  5
32F
  8
PROFILEEDGES
  0
POLYLINE
  5
107
  8
PROFILEEDGES
 66
     1
 10
0.0
 20
0.0
 30
0.0
  0
VERTEX
  5
240
  8
PROFILEEDGES
 10
0.1421759658507023
 20
0.0673122820646825
 30
0.0
 40
0.0040557483177174
 41
0.0040557483177174
  0
VERTEX
  5
241
  8
PROFILEEDGES
 10
0.1305909049449646
 20
0.0496044831695721
 30
0.0
 40
0.0040557483177174
 41
0.0040557483177174
  0
SEQEND
  5
330
  8
PROFILEEDGES
  0
POLYLINE
  5
108
  8
PROFILEEDGES
 66
     1
 10
0.0
 20
0.0
 30
0.0
  0
VERTEX
  5
242
  8
PROFILEEDGES
 10
0.1495107763830975
 20
0.0496044833234806
 30
0.0
 40
0.0040557483177174
 41
0.0040557483177174
  0
VERTEX
  5
243
  8
PROFILEEDGES
 10
0.1421759658507023
 20
0.0673122820646825
 30
0.0
 40
0.0040557483177174
 41
0.0040557483177174
  0
SEQEND
  5
331
  8
PROFILEEDGES
  0
POLYLINE
  5
109
  8
PROFILEEDGES
 66
     1
 10
0.0
 20
0.0
 30
0.0
  0
VERTEX
  5
244
  8
PROFILEEDGES
 10
0.1765649049449643
 20
0.0496044835435589
 30
0.0
 40
0.0040557483177174
 41
0.0040557483177174
  0
VERTEX
  5
245
  8
PROFILEEDGES
 10
0.1495107763830975
 20
0.0496044833234806
 30
0.0
 40
0.0040557483177174
 41
0.0040557483177174
  0
SEQEND
  5
332
  8
PROFILEEDGES
  0
POLYLINE
  5
10A
  8
PROFILEEDGES
 66
     1
 10
0.0
 20
0.0
 30
0.0
  0
VERTEX
  5
246
  8
PROFILEEDGES
 10
-0.1912270950550374
 20
0.0496044805516643
 30
0.0
 40
0.0040557483177174
 41
0.0040557483177174
  0
VERTEX
  5
247
  8
PROFILEEDGES
 10
-0.2182812236168812
 20
0.0496044803315858
 30
0.0
 40
0.0040557483177174
 41
0.0040557483177174
  0
SEQEND
  5
333
  8
PROFILEEDGES
  0
POLYLINE
  5
10B
  8
PROFILEEDGES
 66
     1
 10
0.0
 20
0.0
 30
0.0
  0
VERTEX
  5
248
  8
PROFILEEDGES
 10
-0.1796420341492999
 20
0.0673122794467747
 30
0.0
 40
0.0040557483177174
 41
0.0040557483177174
  0
VERTEX
  5
249
  8
PROFILEEDGES
 10
-0.1912270950550374
 20
0.0496044805516643
 30
0.0
 40
0.0040557483177174
 41
0.0040557483177174
  0
SEQEND
  5
334
  8
PROFILEEDGES
  0
POLYLINE
  5
10C
  8
PROFILEEDGES
 66
     1
 10
0.0
 20
0.0
 30
0.0
  0
VERTEX
  5
24A
  8
PROFILEEDGES
 10
-0.1452530950550386
 20
0.0496044809256512
 30
0.0
 40
0.0040557483177174
 41
0.0040557483177174
  0
VERTEX
  5
24B
  8
PROFILEEDGES
 10
-0.1723072236168752
 20
0.0496044807055727
 30
0.0
 40
0.0040557483177174
 41
0.0040557483177174
  0
SEQEND
  5
335
  8
PROFILEEDGES
  0
POLYLINE
  5
10D
  8
PROFILEEDGES
 66
     1
 10
0.0
 20
0.0
 30
0.0
  0
VERTEX
  5
24C
  8
PROFILEEDGES
 10
-0.2182812236168812
 20
0.0496044803315858
 30
0.0
 40
0.0040557483177174
 41
0.0040557483177174
  0
VERTEX
  5
24D
  8
PROFILEEDGES
 10
-0.2256160341492758
 20
0.0673122790727879
 30
0.0
 40
0.0040557483177174
 41
0.0040557483177174
  0
SEQEND
  5
336
  8
PROFILEEDGES
  0
POLYLINE
  5
10E
  8
PROFILEEDGES
 66
     1
 10
0.0
 20
0.0
 30
0.0
  0
VERTEX
  5
24E
  8
PROFILEEDGES
 10
-0.126333223616877
 20
0.0496044810795594
 30
0.0
 40
0.0040557483177174
 41
0.0040557483177174
  0
VERTEX
  5
24F
  8
PROFILEEDGES
 10
-0.1336680341493013
 20
0.0673122798207619
 30
0.0
 40
0.0040557483177174
 41
0.0040557483177174
  0
SEQEND
  5
337
  8
PROFILEEDGES
  0
POLYLINE
  5
10F
  8
PROFILEEDGES
 66
     1
 10
0.0
 20
0.0
 30
0.0
  0
VERTEX
  5
250
  8
PROFILEEDGES
 10
-0.2715900341492744
 20
0.0673122786988011
 30
0.0
 40
0.0040557483177174
 41
0.0040557483177174
  0
VERTEX
  5
251
  8
PROFILEEDGES
 10
-0.2831750950550411
 20
0.0496044798036906
 30
0.0
 40
0.0040557483177174
 41
0.0040557483177174
  0
SEQEND
  5
338
  8
PROFILEEDGES
  0
POLYLINE
  5
110
  8
PROFILEEDGES
 66
     1
 10
0.0
 20
0.0
 30
0.0
  0
VERTEX
  5
252
  8
PROFILEEDGES
 10
-0.2642552236168796
 20
0.0496044799575991
 30
0.0
 40
0.0040557483177174
 41
0.0040557483177174
  0
VERTEX
  5
253
  8
PROFILEEDGES
 10
-0.2715900341492744
 20
0.0673122786988011
 30
0.0
 40
0.0040557483177174
 41
0.0040557483177174
  0
SEQEND
  5
339
  8
PROFILEEDGES
  0
POLYLINE
  5
111
  8
PROFILEEDGES
 66
     1
 10
0.0
 20
0.0
 30
0.0
  0
VERTEX
  5
254
  8
PROFILEEDGES
 10
-0.2372010950550136
 20
0.0496044801776775
 30
0.0
 40
0.0040557483177174
 41
0.0040557483177174
  0
VERTEX
  5
255
  8
PROFILEEDGES
 10
-0.2642552236168796
 20
0.0496044799575991
 30
0.0
 40
0.0040557483177174
 41
0.0040557483177174
  0
SEQEND
  5
33A
  8
PROFILEEDGES
  0
POLYLINE
  5
112
  8
PROFILEEDGES
 66
     1
 10
0.0
 20
0.0
 30
0.0
  0
VERTEX
  5
256
  8
PROFILEEDGES
 10
-0.2256160341492758
 20
0.0673122790727879
 30
0.0
 40
0.0040557483177174
 41
0.0040557483177174
  0
VERTEX
  5
257
  8
PROFILEEDGES
 10
-0.2372010950550136
 20
0.0496044801776775
 30
0.0
 40
0.0040557483177174
 41
0.0040557483177174
  0
SEQEND
  5
33B
  8
PROFILEEDGES
  0
POLYLINE
  5
113
  8
PROFILEEDGES
 66
     1
 10
0.0
 20
0.0
 30
0.0
  0
VERTEX
  5
258
  8
PROFILEEDGES
 10
-0.1723072236168752
 20
0.0496044807055727
 30
0.0
 40
0.0040557483177174
 41
0.0040557483177174
  0
VERTEX
  5
259
  8
PROFILEEDGES
 10
-0.1796420341492999
 20
0.0673122794467747
 30
0.0
 40
0.0040557483177174
 41
0.0040557483177174
  0
SEQEND
  5
33C
  8
PROFILEEDGES
  0
POLYLINE
  5
114
  8
PROFILEEDGES
 66
     1
 10
0.0
 20
0.0
 30
0.0
  0
VERTEX
  5
25A
  8
PROFILEEDGES
 10
-0.1336680341493013
 20
0.0673122798207619
 30
0.0
 40
0.0040557483177174
 41
0.0040557483177174
  0
VERTEX
  5
25B
  8
PROFILEEDGES
 10
-0.1452530950550386
 20
0.0496044809256512
 30
0.0
 40
0.0040557483177174
 41
0.0040557483177174
  0
SEQEND
  5
33D
  8
PROFILEEDGES
  0
POLYLINE
  5
115
  8
PROFILEEDGES
 66
     1
 10
0.0
 20
0.0
 30
0.0
  0
VERTEX
  5
25C
  8
PROFILEEDGES
 10
-0.2642552230044646
 20
-0.0496044832513206
 30
0.0
 40
0.0040557483177174
 41
0.0040557483177174
  0
VERTEX
  5
25D
  8
PROFILEEDGES
 10
-0.2372010944425984
 20
-0.0496044831373897
 30
0.0
 40
0.0040557483177174
 41
0.0040557483177174
  0
SEQEND
  5
33E
  8
PROFILEEDGES
  0
POLYLINE
  5
116
  8
PROFILEEDGES
 66
     1
 10
0.0
 20
0.0
 30
0.0
  0
VERTEX
  5
25E
  8
PROFILEEDGES
 10
-0.317564033318238
 20
-0.0673122822766852
 30
0.0
 40
0.0040557483177174
 41
0.0040557483177174
  0
VERTEX
  5
25F
  8
PROFILEEDGES
 10
-0.3102292230044629
 20
-0.0496044834449276
 30
0.0
 40
0.0040557483177174
 41
0.0040557483177174
  0
SEQEND
  5
33F
  8
PROFILEEDGES
  0
POLYLINE
  5
117
  8
PROFILEEDGES
 66
     1
 10
0.0
 20
0.0
 30
0.0
  0
VERTEX
  5
260
  8
PROFILEEDGES
 10
-0.2715900333182391
 20
-0.0673122820830782
 30
0.0
 40
0.0040557483177174
 41
0.0040557483177174
  0
VERTEX
  5
261
  8
PROFILEEDGES
 10
-0.2642552230044646
 20
-0.0496044832513206
 30
0.0
 40
0.0040557483177174
 41
0.0040557483177174
  0
SEQEND
  5
340
  8
PROFILEEDGES
  0
POLYLINE
  5
118
  8
PROFILEEDGES
 66
     1
 10
0.0
 20
0.0
 30
0.0
  0
VERTEX
  5
262
  8
PROFILEEDGES
 10
-0.2372010944425984
 20
-0.0496044831373897
 30
0.0
 40
0.0040557483177174
 41
0.0040557483177174
  0
VERTEX
  5
263
  8
PROFILEEDGES
 10
-0.2256160333182399
 20
-0.0673122818894711
 30
0.0
 40
0.0040557483177174
 41
0.0040557483177174
  0
SEQEND
  5
341
  8
PROFILEEDGES
  0
POLYLINE
  5
119
  8
PROFILEEDGES
 66
     1
 10
0.0
 20
0.0
 30
0.0
  0
VERTEX
  5
264
  8
PROFILEEDGES
 10
-0.2256160333182399
 20
-0.0673122818894711
 30
0.0
 40
0.0040557483177174
 41
0.0040557483177174
  0
VERTEX
  5
265
  8
PROFILEEDGES
 10
-0.2182812230044656
 20
-0.0496044830577137
 30
0.0
 40
0.0040557483177174
 41
0.0040557483177174
  0
SEQEND
  5
342
  8
PROFILEEDGES
  0
POLYLINE
  5
11A
  8
PROFILEEDGES
 66
     1
 10
0.0
 20
0.0
 30
0.0
  0
VERTEX
  5
266
  8
PROFILEEDGES
 10
-0.2831750944426259
 20
-0.0496044833309966
 30
0.0
 40
0.0040557483177174
 41
0.0040557483177174
  0
VERTEX
  5
267
  8
PROFILEEDGES
 10
-0.2715900333182391
 20
-0.0673122820830782
 30
0.0
 40
0.0040557483177174
 41
0.0040557483177174
  0
SEQEND
  5
343
  8
PROFILEEDGES
  0
POLYLINE
  5
11B
  8
PROFILEEDGES
 66
     1
 10
0.0
 20
0.0
 30
0.0
  0
VERTEX
  5
268
  8
PROFILEEDGES
 10
-0.3291490944426244
 20
-0.0496044830264503
 30
0.0
 40
0.0040557483177174
 41
0.0040557483177174
  0
VERTEX
  5
269
  8
PROFILEEDGES
 10
-0.317564033318238
 20
-0.0673122822766852
 30
0.0
 40
0.0040557483177174
 41
0.0040557483177174
  0
SEQEND
  5
344
  8
PROFILEEDGES
  0
POLYLINE
  5
11C
  8
PROFILEEDGES
 66
     1
 10
0.0
 20
0.0
 30
0.0
  0
VERTEX
  5
26A
  8
PROFILEEDGES
 10
-0.3102292230044629
 20
-0.0496044834449276
 30
0.0
 40
0.0040557483177174
 41
0.0040557483177174
  0
VERTEX
  5
26B
  8
PROFILEEDGES
 10
-0.2831750944426259
 20
-0.0496044833309966
 30
0.0
 40
0.0040557483177174
 41
0.0040557483177174
  0
SEQEND
  5
345
  8
PROFILEEDGES
  0
POLYLINE
  5
11D
  8
PROFILEEDGES
 66
     1
 10
0.0
 20
0.0
 30
0.0
  0
VERTEX
  5
26C
  8
PROFILEEDGES
 10
0.222538905557376
 20
-0.0496044812013197
 30
0.0
 40
0.0040557483177174
 41
0.0040557483177174
  0
VERTEX
  5
26D
  8
PROFILEEDGES
 10
0.2341239666817355
 20
-0.0673122799534013
 30
0.0
 40
0.0040557483177174
 41
0.0040557483177174
  0
SEQEND
  5
346
  8
PROFILEEDGES
  0
POLYLINE
  5
11E
  8
PROFILEEDGES
 66
     1
 10
0.0
 20
0.0
 30
0.0
  0
VERTEX
  5
26E
  8
PROFILEEDGES
 10
-0.1912270944426229
 20
-0.0496044829437827
 30
0.0
 40
0.0040557483177174
 41
0.0040557483177174
  0
VERTEX
  5
26F
  8
PROFILEEDGES
 10
-0.1796420333182644
 20
-0.0673122816958642
 30
0.0
 40
0.0040557483177174
 41
0.0040557483177174
  0
SEQEND
  5
347
  8
PROFILEEDGES
  0
POLYLINE
  5
11F
  8
PROFILEEDGES
 66
     1
 10
0.0
 20
0.0
 30
0.0
  0
VERTEX
  5
270
  8
PROFILEEDGES
 10
-0.0417200333182628
 20
-0.0673122811150431
 30
0.0
 40
0.0040557483177174
 41
0.0040557483177174
  0
VERTEX
  5
271
  8
PROFILEEDGES
 10
-0.0343852230044656
 20
-0.0496044822832857
 30
0.0
 40
0.0040557483177174
 41
0.0040557483177174
  0
SEQEND
  5
348
  8
PROFILEEDGES
  0
POLYLINE
  5
120
  8
PROFILEEDGES
 66
     1
 10
0.0
 20
0.0
 30
0.0
  0
VERTEX
  5
272
  8
PROFILEEDGES
 10
0.2341239666817355
 20
-0.0673122799534013
 30
0.0
 40
0.0040557483177174
 41
0.0040557483177174
  0
VERTEX
  5
273
  8
PROFILEEDGES
 10
0.2414587769955093
 20
-0.0496044811216438
 30
0.0
 40
0.0040557483177174
 41
0.0040557483177174
  0
SEQEND
  5
349
  8
PROFILEEDGES
  0
POLYLINE
  5
121
  8
PROFILEEDGES
 66
     1
 10
0.0
 20
0.0
 30
0.0
  0
VERTEX
  5
274
  8
PROFILEEDGES
 10
-0.1723072230044614
 20
-0.0496044828641069
 30
0.0
 40
0.0040557483177174
 41
0.0040557483177174
  0
VERTEX
  5
275
  8
PROFILEEDGES
 10
-0.1452530944426239
 20
-0.0496044827501755
 30
0.0
 40
0.0040557483177174
 41
0.0040557483177174
  0
SEQEND
  5
34A
  8
PROFILEEDGES
  0
POLYLINE
  5
122
  8
PROFILEEDGES
 66
     1
 10
0.0
 20
0.0
 30
0.0
  0
VERTEX
  5
276
  8
PROFILEEDGES
 10
-0.0343852230044656
 20
-0.0496044822832857
 30
0.0
 40
0.0040557483177174
 41
0.0040557483177174
  0
VERTEX
  5
277
  8
PROFILEEDGES
 10
-0.0073310944426221
 20
-0.0496044821693546
 30
0.0
 40
0.0040557483177174
 41
0.0040557483177174
  0
SEQEND
  5
34B
  8
PROFILEEDGES
  0
POLYLINE
  5
123
  8
PROFILEEDGES
 66
     1
 10
0.0
 20
0.0
 30
0.0
  0
VERTEX
  5
278
  8
PROFILEEDGES
 10
-0.1336680333182665
 20
-0.0673122815022571
 30
0.0
 40
0.0040557483177174
 41
0.0040557483177174
  0
VERTEX
  5
279
  8
PROFILEEDGES
 10
-0.1263332230044626
 20
-0.0496044826704996
 30
0.0
 40
0.0040557483177174
 41
0.0040557483177174
  0
SEQEND
  5
34C
  8
PROFILEEDGES
  0
POLYLINE
  5
124
  8
PROFILEEDGES
 66
     1
 10
0.0
 20
0.0
 30
0.0
  0
VERTEX
  5
27A
  8
PROFILEEDGES
 10
0.0846169055573758
 20
-0.0496044817821406
 30
0.0
 40
0.0040557483177174
 41
0.0040557483177174
  0
VERTEX
  5
27B
  8
PROFILEEDGES
 10
0.0962019666817393
 20
-0.0673122805342223
 30
0.0
 40
0.0040557483177174
 41
0.0040557483177174
  0
SEQEND
  5
34D
  8
PROFILEEDGES
  0
POLYLINE
  5
125
  8
PROFILEEDGES
 66
     1
 10
0.0
 20
0.0
 30
0.0
  0
VERTEX
  5
27C
  8
PROFILEEDGES
 10
0.0502279666817344
 20
-0.0673122807278292
 30
0.0
 40
0.0040557483177174
 41
0.0040557483177174
  0
VERTEX
  5
27D
  8
PROFILEEDGES
 10
0.0575627769955383
 20
-0.0496044818960718
 30
0.0
 40
0.0040557483177174
 41
0.0040557483177174
  0
SEQEND
  5
34E
  8
PROFILEEDGES
  0
POLYLINE
  5
126
  8
PROFILEEDGES
 66
     1
 10
0.0
 20
0.0
 30
0.0
  0
VERTEX
  5
27E
  8
PROFILEEDGES
 10
0.1495107769955119
 20
-0.0496044815088579
 30
0.0
 40
0.0040557483177174
 41
0.0040557483177174
  0
VERTEX
  5
27F
  8
PROFILEEDGES
 10
0.1765649055573785
 20
-0.0496044813949267
 30
0.0
 40
0.0040557483177174
 41
0.0040557483177174
  0
SEQEND
  5
34F
  8
PROFILEEDGES
  0
POLYLINE
  5
127
  8
PROFILEEDGES
 66
     1
 10
0.0
 20
0.0
 30
0.0
  0
VERTEX
  5
280
  8
PROFILEEDGES
 10
0.1765649055573785
 20
-0.0496044813949267
 30
0.0
 40
0.0040557483177174
 41
0.0040557483177174
  0
VERTEX
  5
281
  8
PROFILEEDGES
 10
0.1881499666817362
 20
-0.0673122801470082
 30
0.0
 40
0.0040557483177174
 41
0.0040557483177174
  0
SEQEND
  5
350
  8
PROFILEEDGES
  0
POLYLINE
  5
128
  8
PROFILEEDGES
 66
     1
 10
0.0
 20
0.0
 30
0.0
  0
VERTEX
  5
282
  8
PROFILEEDGES
 10
-0.1796420333182644
 20
-0.0673122816958642
 30
0.0
 40
0.0040557483177174
 41
0.0040557483177174
  0
VERTEX
  5
283
  8
PROFILEEDGES
 10
-0.1723072230044614
 20
-0.0496044828641069
 30
0.0
 40
0.0040557483177174
 41
0.0040557483177174
  0
SEQEND
  5
351
  8
PROFILEEDGES
  0
POLYLINE
  5
129
  8
PROFILEEDGES
 66
     1
 10
0.0
 20
0.0
 30
0.0
  0
VERTEX
  5
284
  8
PROFILEEDGES
 10
-0.0533050944426211
 20
-0.0496044823629617
 30
0.0
 40
0.0040557483177174
 41
0.0040557483177174
  0
VERTEX
  5
285
  8
PROFILEEDGES
 10
-0.0417200333182628
 20
-0.0673122811150431
 30
0.0
 40
0.0040557483177174
 41
0.0040557483177174
  0
SEQEND
  5
352
  8
PROFILEEDGES
  0
POLYLINE
  5
12A
  8
PROFILEEDGES
 66
     1
 10
0.0
 20
0.0
 30
0.0
  0
VERTEX
  5
286
  8
PROFILEEDGES
 10
-0.1452530944426239
 20
-0.0496044827501755
 30
0.0
 40
0.0040557483177174
 41
0.0040557483177174
  0
VERTEX
  5
287
  8
PROFILEEDGES
 10
-0.1336680333182665
 20
-0.0673122815022571
 30
0.0
 40
0.0040557483177174
 41
0.0040557483177174
  0
SEQEND
  5
353
  8
PROFILEEDGES
  0
POLYLINE
  5
12B
  8
PROFILEEDGES
 66
     1
 10
0.0
 20
0.0
 30
0.0
  0
VERTEX
  5
288
  8
PROFILEEDGES
 10
0.0042539666817358
 20
-0.0673122809214362
 30
0.0
 40
0.0040557483177174
 41
0.0040557483177174
  0
VERTEX
  5
289
  8
PROFILEEDGES
 10
0.011588776995539
 20
-0.0496044820896788
 30
0.0
 40
0.0040557483177174
 41
0.0040557483177174
  0
SEQEND
  5
354
  8
PROFILEEDGES
  0
POLYLINE
  5
12C
  8
PROFILEEDGES
 66
     1
 10
0.0
 20
0.0
 30
0.0
  0
VERTEX
  5
28A
  8
PROFILEEDGES
 10
0.1035367769955135
 20
-0.0496044817024648
 30
0.0
 40
0.0040557483177174
 41
0.0040557483177174
  0
VERTEX
  5
28B
  8
PROFILEEDGES
 10
0.1305909055573793
 20
-0.0496044815885335
 30
0.0
 40
0.0040557483177174
 41
0.0040557483177174
  0
SEQEND
  5
355
  8
PROFILEEDGES
  0
POLYLINE
  5
12D
  8
PROFILEEDGES
 66
     1
 10
0.0
 20
0.0
 30
0.0
  0
VERTEX
  5
28C
  8
PROFILEEDGES
 10
0.1881499666817362
 20
-0.0673122801470082
 30
0.0
 40
0.0040557483177174
 41
0.0040557483177174
  0
VERTEX
  5
28D
  8
PROFILEEDGES
 10
0.1954847769955109
 20
-0.0496044813152506
 30
0.0
 40
0.0040557483177174
 41
0.0040557483177174
  0
SEQEND
  5
356
  8
PROFILEEDGES
  0
POLYLINE
  5
12E
  8
PROFILEEDGES
 66
     1
 10
0.0
 20
0.0
 30
0.0
  0
VERTEX
  5
28E
  8
PROFILEEDGES
 10
0.0575627769955383
 20
-0.0496044818960718
 30
0.0
 40
0.0040557483177174
 41
0.0040557483177174
  0
VERTEX
  5
28F
  8
PROFILEEDGES
 10
0.0846169055573758
 20
-0.0496044817821406
 30
0.0
 40
0.0040557483177174
 41
0.0040557483177174
  0
SEQEND
  5
357
  8
PROFILEEDGES
  0
POLYLINE
  5
12F
  8
PROFILEEDGES
 66
     1
 10
0.0
 20
0.0
 30
0.0
  0
VERTEX
  5
290
  8
PROFILEEDGES
 10
-0.1263332230044626
 20
-0.0496044826704996
 30
0.0
 40
0.0040557483177174
 41
0.0040557483177174
  0
VERTEX
  5
291
  8
PROFILEEDGES
 10
-0.0992790944426257
 20
-0.0496044825565686
 30
0.0
 40
0.0040557483177174
 41
0.0040557483177174
  0
SEQEND
  5
358
  8
PROFILEEDGES
  0
POLYLINE
  5
130
  8
PROFILEEDGES
 66
     1
 10
0.0
 20
0.0
 30
0.0
  0
VERTEX
  5
292
  8
PROFILEEDGES
 10
-0.087694033318239
 20
-0.0673122813086502
 30
0.0
 40
0.0040557483177174
 41
0.0040557483177174
  0
VERTEX
  5
293
  8
PROFILEEDGES
 10
-0.0803592230044637
 20
-0.0496044824768927
 30
0.0
 40
0.0040557483177174
 41
0.0040557483177174
  0
SEQEND
  5
359
  8
PROFILEEDGES
  0
POLYLINE
  5
131
  8
PROFILEEDGES
 66
     1
 10
0.0
 20
0.0
 30
0.0
  0
VERTEX
  5
294
  8
PROFILEEDGES
 10
-0.0803592230044637
 20
-0.0496044824768927
 30
0.0
 40
0.0040557483177174
 41
0.0040557483177174
  0
VERTEX
  5
295
  8
PROFILEEDGES
 10
-0.0533050944426211
 20
-0.0496044823629617
 30
0.0
 40
0.0040557483177174
 41
0.0040557483177174
  0
SEQEND
  5
35A
  8
PROFILEEDGES
  0
POLYLINE
  5
132
  8
PROFILEEDGES
 66
     1
 10
0.0
 20
0.0
 30
0.0
  0
VERTEX
  5
296
  8
PROFILEEDGES
 10
0.011588776995539
 20
-0.0496044820896788
 30
0.0
 40
0.0040557483177174
 41
0.0040557483177174
  0
VERTEX
  5
297
  8
PROFILEEDGES
 10
0.0386429055573763
 20
-0.0496044819757475
 30
0.0
 40
0.0040557483177174
 41
0.0040557483177174
  0
SEQEND
  5
35B
  8
PROFILEEDGES
  0
POLYLINE
  5
133
  8
PROFILEEDGES
 66
     1
 10
0.0
 20
0.0
 30
0.0
  0
VERTEX
  5
298
  8
PROFILEEDGES
 10
-0.2182812230044656
 20
-0.0496044830577137
 30
0.0
 40
0.0040557483177174
 41
0.0040557483177174
  0
VERTEX
  5
299
  8
PROFILEEDGES
 10
-0.1912270944426229
 20
-0.0496044829437827
 30
0.0
 40
0.0040557483177174
 41
0.0040557483177174
  0
SEQEND
  5
35C
  8
PROFILEEDGES
  0
POLYLINE
  5
134
  8
PROFILEEDGES
 66
     1
 10
0.0
 20
0.0
 30
0.0
  0
VERTEX
  5
29A
  8
PROFILEEDGES
 10
0.0962019666817393
 20
-0.0673122805342223
 30
0.0
 40
0.0040557483177174
 41
0.0040557483177174
  0
VERTEX
  5
29B
  8
PROFILEEDGES
 10
0.1035367769955135
 20
-0.0496044817024648
 30
0.0
 40
0.0040557483177174
 41
0.0040557483177174
  0
SEQEND
  5
35D
  8
PROFILEEDGES
  0
POLYLINE
  5
135
  8
PROFILEEDGES
 66
     1
 10
0.0
 20
0.0
 30
0.0
  0
VERTEX
  5
29C
  8
PROFILEEDGES
 10
0.1954847769955109
 20
-0.0496044813152506
 30
0.0
 40
0.0040557483177174
 41
0.0040557483177174
  0
VERTEX
  5
29D
  8
PROFILEEDGES
 10
0.222538905557376
 20
-0.0496044812013197
 30
0.0
 40
0.0040557483177174
 41
0.0040557483177174
  0
SEQEND
  5
35E
  8
PROFILEEDGES
  0
POLYLINE
  5
136
  8
PROFILEEDGES
 66
     1
 10
0.0
 20
0.0
 30
0.0
  0
VERTEX
  5
29E
  8
PROFILEEDGES
 10
-0.0073310944426221
 20
-0.0496044821693546
 30
0.0
 40
0.0040557483177174
 41
0.0040557483177174
  0
VERTEX
  5
29F
  8
PROFILEEDGES
 10
0.0042539666817358
 20
-0.0673122809214362
 30
0.0
 40
0.0040557483177174
 41
0.0040557483177174
  0
SEQEND
  5
35F
  8
PROFILEEDGES
  0
POLYLINE
  5
137
  8
PROFILEEDGES
 66
     1
 10
0.0
 20
0.0
 30
0.0
  0
VERTEX
  5
2A0
  8
PROFILEEDGES
 10
0.1305909055573793
 20
-0.0496044815885335
 30
0.0
 40
0.0040557483177174
 41
0.0040557483177174
  0
VERTEX
  5
2A1
  8
PROFILEEDGES
 10
0.1421759666817376
 20
-0.0673122803406153
 30
0.0
 40
0.0040557483177174
 41
0.0040557483177174
  0
SEQEND
  5
360
  8
PROFILEEDGES
  0
POLYLINE
  5
138
  8
PROFILEEDGES
 66
     1
 10
0.0
 20
0.0
 30
0.0
  0
VERTEX
  5
2A2
  8
PROFILEEDGES
 10
0.1421759666817376
 20
-0.0673122803406153
 30
0.0
 40
0.0040557483177174
 41
0.0040557483177174
  0
VERTEX
  5
2A3
  8
PROFILEEDGES
 10
0.1495107769955119
 20
-0.0496044815088579
 30
0.0
 40
0.0040557483177174
 41
0.0040557483177174
  0
SEQEND
  5
361
  8
PROFILEEDGES
  0
POLYLINE
  5
139
  8
PROFILEEDGES
 66
     1
 10
0.0
 20
0.0
 30
0.0
  0
VERTEX
  5
2A4
  8
PROFILEEDGES
 10
0.0386429055573763
 20
-0.0496044819757475
 30
0.0
 40
0.0040557483177174
 41
0.0040557483177174
  0
VERTEX
  5
2A5
  8
PROFILEEDGES
 10
0.0502279666817344
 20
-0.0673122807278292
 30
0.0
 40
0.0040557483177174
 41
0.0040557483177174
  0
SEQEND
  5
362
  8
PROFILEEDGES
  0
POLYLINE
  5
13A
  8
PROFILEEDGES
 66
     1
 10
0.0
 20
0.0
 30
0.0
  0
VERTEX
  5
2A6
  8
PROFILEEDGES
 10
-0.0992790944426257
 20
-0.0496044825565686
 30
0.0
 40
0.0040557483177174
 41
0.0040557483177174
  0
VERTEX
  5
2A7
  8
PROFILEEDGES
 10
-0.087694033318239
 20
-0.0673122813086502
 30
0.0
 40
0.0040557483177174
 41
0.0040557483177174
  0
SEQEND
  5
363
  8
PROFILEEDGES
  0
POLYLINE
  5
13B
  8
PROFILEEDGES
 66
     1
 10
0.0
 20
0.0
 30
0.0
  0
VERTEX
  5
2A8
  8
PROFILEEDGES
 10
-0.5671603927677092
 20
0.1515661249820357
 30
0.0
 40
0.0040557483177174
 41
0.0040557483177174
  0
VERTEX
  5
2A9
  8
PROFILEEDGES
 10
-0.4459210925430361
 20
0.0496044784797931
 30
0.0
 40
0.0040557483177174
 41
0.0040557483177174
  0
SEQEND
  5
364
  8
PROFILEEDGES
  0
POLYLINE
  5
13C
  8
PROFILEEDGES
 66
     1
 10
0.0
 20
0.0
 30
0.0
  0
VERTEX
  5
2AA
  8
PROFILEEDGES
 10
-0.3291490944426244
 20
-0.0496044830264503
 30
0.0
 40
0.0040557483177174
 41
0.0040557483177174
  0
VERTEX
  5
2AB
  8
PROFILEEDGES
 10
-0.4459210919306206
 20
-0.0496044837472824
 30
0.0
 40
0.0040557483177174
 41
0.0040557483177174
  0
SEQEND
  5
365
  8
PROFILEEDGES
  0
POLYLINE
  5
13D
  8
PROFILEEDGES
 66
     1
 10
0.0
 20
0.0
 30
0.0
  0
VERTEX
  5
2AC
  8
PROFILEEDGES
 10
-0.4459210919306206
 20
-0.0496044837472824
 30
0.0
 40
0.0040557483177174
 41
0.0040557483177174
  0
VERTEX
  5
2AD
  8
PROFILEEDGES
 10
-0.5671603908964782
 20
-0.1515661319841841
 30
0.0
 40
0.0040557483177174
 41
0.0040557483177174
  0
SEQEND
  5
366
  8
PROFILEEDGES
  0
POLYLINE
  5
13E
  8
PROFILEEDGES
 66
     1
 10
0.0
 20
0.0
 30
0.0
  0
VERTEX
  5
2AE
  8
PROFILEEDGES
 10
-0.4459210925430361
 20
0.0496044784797931
 30
0.0
 40
0.0040557483177174
 41
0.0040557483177174
  0
VERTEX
  5
2AF
  8
PROFILEEDGES
 10
-0.3291490950550401
 20
0.0496044784333969
 30
0.0
 40
0.0040557483177174
 41
0.0040557483177174
  0
SEQEND
  5
367
  8
PROFILEEDGES
  0
POLYLINE
  5
13F
  8
PROFILEEDGES
 66
     1
 10
0.0
 20
0.0
 30
0.0
  0
VERTEX
  5
2B0
  8
PROFILEEDGES
 10
-0.5671603908964782
 20
-0.1515661319841841
 30
0.0
 40
0.0040557483177174
 41
0.0040557483177174
  0
VERTEX
  5
2B1
  8
PROFILEEDGES
 10
-0.5830810913012144
 20
-0.1515661320824623
 30
0.0
 40
0.0040557483177174
 41
0.0040557483177174
  0
SEQEND
  5
368
  8
PROFILEEDGES
  0
POLYLINE
  5
140
  8
PROFILEEDGES
 66
     1
 10
0.0
 20
0.0
 30
0.0
  0
VERTEX
  5
2B2
  8
PROFILEEDGES
 10
0.5830810922368308
 20
0.000000003583735
 30
0.0
 40
0.0040557483177174
 41
0.0040557483177174
  0
VERTEX
  5
2B3
  8
PROFILEEDGES
 10
0.4742653303750257
 20
0.0496044859652765
 30
0.0
 40
0.0040557483177174
 41
0.0040557483177174
  0
SEQEND
  5
369
  8
PROFILEEDGES
  0
POLYLINE
  5
141
  8
PROFILEEDGES
 66
     1
 10
0.0
 20
0.0
 30
0.0
  0
VERTEX
  5
2B4
  8
PROFILEEDGES
 10
-0.5830810931724457
 20
0.1515661248525247
 30
0.0
 40
0.0040557483177174
 41
0.0040557483177174
  0
VERTEX
  5
2B5
  8
PROFILEEDGES
 10
-0.5671603927677092
 20
0.1515661249820357
 30
0.0
 40
0.0040557483177174
 41
0.0040557483177174
  0
SEQEND
  5
36A
  8
PROFILEEDGES
  0
LINE
  5
142
  8
0
 10
0.5830810922368308
 20
0.000000003583735
 30
0.0
 11
0.4742653300755753
 21
0.0350756664845952
 31
0.0
  0
POLYLINE
  5
143
  8
PROFILEEDGES
 66
     1
 10
0.0
 20
0.0
 30
0.0
  0
VERTEX
  5
2B6
  8
PROFILEEDGES
 10
0.4742653303750257
 20
0.0496044859652765
 30
0.0
 40
0.0040557483177174
 41
0.0040557483177174
  0
VERTEX
  5
2B7
  8
PROFILEEDGES
 10
0.3905361814513134
 20
0.049604485284161
 30
0.0
 40
0.0040557483177174
 41
0.0040557483177174
  0
SEQEND
  5
36B
  8
PROFILEEDGES
  0
POLYLINE
  5
144
  8
PROFILEEDGES
 66
     1
 10
0.0
 20
0.0
 30
0.0
  0
VERTEX
  5
2B8
  8
PROFILEEDGES
 10
0.3905361814513134
 20
0.049604485284161
 30
0.0
 40
0.0040557483177174
 41
0.0040557483177174
  0
VERTEX
  5
2B9
  8
PROFILEEDGES
 10
0.3900494825816443
 20
0.0496044852802019
 30
0.0
 40
0.0040557483177174
 41
0.0040557483177174
  0
SEQEND
  5
36C
  8
PROFILEEDGES
  0
POLYLINE
  5
145
  8
PROFILEEDGES
 66
     1
 10
0.0
 20
0.0
 30
0.0
  0
VERTEX
  5
2BA
  8
PROFILEEDGES
 10
0.2673409925274572
 20
0.0496044842819993
 30
0.0
 40
0.0040557483177174
 41
0.0040557483177174
  0
VERTEX
  5
2BB
  8
PROFILEEDGES
 10
0.2668542938041892
 20
0.0496044842780401
 30
0.0
 40
0.0040557483177174
 41
0.0040557483177174
  0
SEQEND
  5
36D
  8
PROFILEEDGES
  0
POLYLINE
  5
146
  8
PROFILEEDGES
 66
     1
 10
0.0
 20
0.0
 30
0.0
  0
VERTEX
  5
2BC
  8
PROFILEEDGES
 10
0.2668542938041892
 20
0.0496044842780401
 30
0.0
 40
0.0040557483177174
 41
0.0040557483177174
  0
VERTEX
  5
2BD
  8
PROFILEEDGES
 10
0.2414587763830947
 20
0.049604484071454
 30
0.0
 40
0.0040557483177174
 41
0.0040557483177174
  0
SEQEND
  5
36E
  8
PROFILEEDGES
  0
POLYLINE
  5
147
  8
PROFILEEDGES
 66
     1
 10
0.0
 20
0.0
 30
0.0
  0
VERTEX
  5
2BE
  8
PROFILEEDGES
 10
0.2414587769955093
 20
-0.0496044811216438
 30
0.0
 40
0.0040557483177174
 41
0.0040557483177174
  0
VERTEX
  5
2BF
  8
PROFILEEDGES
 10
0.26677496838418
 20
-0.0496044807894694
 30
0.0
 40
0.0040557483177174
 41
0.0040557483177174
  0
SEQEND
  5
36F
  8
PROFILEEDGES
  0
POLYLINE
  5
148
  8
PROFILEEDGES
 66
     1
 10
0.0
 20
0.0
 30
0.0
  0
VERTEX
  5
2C0
  8
PROFILEEDGES
 10
0.26677496838418
 20
-0.0496044807894694
 30
0.0
 40
0.0040557483177174
 41
0.0040557483177174
  0
VERTEX
  5
2C1
  8
PROFILEEDGES
 10
0.39061550799476
 20
-0.0496044791645547
 30
0.0
 40
0.0040557483177174
 41
0.0040557483177174
  0
SEQEND
  5
370
  8
PROFILEEDGES
  0
POLYLINE
  5
149
  8
PROFILEEDGES
 66
     1
 10
0.0
 20
0.0
 30
0.0
  0
VERTEX
  5
2C2
  8
PROFILEEDGES
 10
0.39061550799476
 20
-0.0496044791645547
 30
0.0
 40
0.0040557483177174
 41
0.0040557483177174
  0
VERTEX
  5
2C3
  8
PROFILEEDGES
 10
0.4742653309874418
 20
-0.0496044780669834
 30
0.0
 40
0.0040557483177174
 41
0.0040557483177174
  0
SEQEND
  5
371
  8
PROFILEEDGES
  0
POLYLINE
  5
14A
  8
PROFILEEDGES
 66
     1
 10
0.0
 20
0.0
 30
0.0
  0
VERTEX
  5
2C4
  8
PROFILEEDGES
 10
0.26677496841299
 20
-0.0536176933793171
 30
0.0
 40
0.0040557483177174
 41
0.0040557483177174
  0
VERTEX
  5
2C5
  8
PROFILEEDGES
 10
0.26677496838418
 20
-0.0496044807894694
 30
0.0
 40
0.0040557483177174
 41
0.0040557483177174
  0
SEQEND
  5
372
  8
PROFILEEDGES
  0
POLYLINE
  5
14B
  8
PROFILEEDGES
 66
     1
 10
0.0
 20
0.0
 30
0.0
  0
VERTEX
  5
2C6
  8
PROFILEEDGES
 10
0.39061550802357
 20
-0.0536176929616359
 30
0.0
 40
0.0040557483177174
 41
0.0040557483177174
  0
VERTEX
  5
2C7
  8
PROFILEEDGES
 10
0.39061550799476
 20
-0.0496044791645547
 30
0.0
 40
0.0040557483177174
 41
0.0040557483177174
  0
SEQEND
  5
373
  8
PROFILEEDGES
  0
POLYLINE
  5
14C
  8
PROFILEEDGES
 66
     1
 10
0.0
 20
0.0
 30
0.0
  0
VERTEX
  5
2C8
  8
PROFILEEDGES
 10
0.4742653309874418
 20
-0.0496044780669834
 30
0.0
 40
0.0040557483177174
 41
0.0040557483177174
  0
VERTEX
  5
2C9
  8
PROFILEEDGES
 10
0.4742653302314574
 20
-0.0130746713863765
 30
0.0
 40
0.0040557483177174
 41
0.0040557483177174
  0
SEQEND
  5
374
  8
PROFILEEDGES
  0
LINE
  5
14D
  8
0
 10
-0.3291490950550401
 20
0.0496044784333969
 30
0.0
 11
-0.3291490944426244
 21
-0.0496044830264503
 31
0.0
  0
LINE
  5
14E
  8
0
 10
-0.4459210925430361
 20
0.0496044784797931
 30
0.0
 11
-0.4459210919306206
 21
-0.0496044837472824
 31
0.0
  0
LINE
  5
14F
  8
0
 10
-0.5671603927677092
 20
0.1515661249820357
 30
0.0
 11
-0.5671603908964782
 21
-0.1515661319841841
 31
0.0
  0
POLYLINE
  5
150
  8
PROFILEEDGES
 66
     1
 10
0.0
 20
0.0
 30
0.0
  0
VERTEX
  5
2CA
  8
PROFILEEDGES
 10
0.4742653300755753
 20
0.0350756664845952
 30
0.0
 40
0.0040557483177174
 41
0.0040557483177174
  0
VERTEX
  5
2CB
  8
PROFILEEDGES
 10
0.4742653303750257
 20
0.0496044859652765
 30
0.0
 40
0.0040557483177174
 41
0.0040557483177174
  0
SEQEND
  5
375
  8
PROFILEEDGES
  0
LINE
  5
151
  8
0
 10
-0.317564033318238
 20
-0.0673122822766852
 30
0.0
 11
-0.3175640341492733
 21
0.0673122783248143
 31
0.0
  0
LINE
  5
152
  8
0
 10
-0.3102292230044629
 20
-0.0496044834449276
 30
0.0
 11
-0.3102292236168784
 21
0.0496044795836121
 31
0.0
  0
LINE
  5
153
  8
0
 10
-0.2831750944426259
 20
-0.0496044833309966
 30
0.0
 11
-0.2831750950550411
 21
0.0496044798036906
 31
0.0
  0
LINE
  5
154
  8
0
 10
-0.2715900333182391
 20
-0.0673122820830782
 30
0.0
 11
-0.2715900341492744
 21
0.0673122786988011
 31
0.0
  0
LINE
  5
155
  8
0
 10
-0.2642552230044646
 20
-0.0496044832513206
 30
0.0
 11
-0.2642552236168796
 21
0.0496044799575991
 31
0.0
  0
LINE
  5
156
  8
0
 10
-0.2372010944425984
 20
-0.0496044831373897
 30
0.0
 11
-0.2372010950550136
 21
0.0496044801776775
 31
0.0
  0
LINE
  5
157
  8
0
 10
-0.2256160333182399
 20
-0.0673122818894711
 30
0.0
 11
-0.2256160341492758
 21
0.0673122790727879
 31
0.0
  0
LINE
  5
158
  8
0
 10
-0.1723072230044614
 20
-0.0496044828641069
 30
0.0
 11
-0.1723072236168752
 21
0.0496044807055727
 31
0.0
  0
LINE
  5
159
  8
0
 10
-0.087694033318239
 20
-0.0673122813086502
 30
0.0
 11
-0.087694034149274
 21
0.0673122801947483
 31
0.0
  0
LINE
  5
15A
  8
0
 10
-0.0803592230044637
 20
-0.0496044824768927
 30
0.0
 11
-0.0803592236168787
 21
0.0496044814535463
 31
0.0
  0
LINE
  5
15B
  8
0
 10
-0.0417200333182628
 20
-0.0673122811150431
 30
0.0
 11
-0.0417200341492988
 21
0.0673122805687352
 31
0.0
  0
LINE
  5
15C
  8
0
 10
-0.0343852230044656
 20
-0.0496044822832857
 30
0.0
 11
-0.0343852236168797
 21
0.0496044818275332
 31
0.0
  0
LINE
  5
15D
  8
0
 10
0.0962019666817393
 20
-0.0673122805342223
 30
0.0
 11
0.0962019658507033
 21
0.0673122816906958
 31
0.0
  0
LINE
  5
15E
  8
0
 10
-0.2182812230044656
 20
-0.0496044830577137
 30
0.0
 11
-0.2182812236168812
 21
0.0496044803315858
 31
0.0
  0
LINE
  5
15F
  8
0
 10
-0.1912270944426229
 20
-0.0496044829437827
 30
0.0
 11
-0.1912270950550374
 21
0.0496044805516643
 31
0.0
  0
LINE
  5
160
  8
0
 10
-0.1336680333182665
 20
-0.0673122815022571
 30
0.0
 11
-0.1336680341493013
 21
0.0673122798207619
 31
0.0
  0
LINE
  5
161
  8
0
 10
-0.1263332230044626
 20
-0.0496044826704996
 30
0.0
 11
-0.126333223616877
 21
0.0496044810795594
 31
0.0
  0
LINE
  5
162
  8
0
 10
-0.0073310944426221
 20
-0.0496044821693546
 30
0.0
 11
-0.0073310950550372
 21
0.0496044820476117
 31
0.0
  0
LINE
  5
163
  8
0
 10
0.0386429055573763
 20
-0.0496044819757475
 30
0.0
 11
0.038642904944962
 21
0.0496044824215985
 31
0.0
  0
LINE
  5
164
  8
0
 10
-0.1452530944426239
 20
-0.0496044827501755
 30
0.0
 11
-0.1452530950550386
 21
0.0496044809256512
 31
0.0
  0
LINE
  5
165
  8
0
 10
-0.0992790944426257
 20
-0.0496044825565686
 30
0.0
 11
-0.0992790950550402
 21
0.0496044812996379
 31
0.0
  0
LINE
  5
166
  8
0
 10
-0.0533050944426211
 20
-0.0496044823629617
 30
0.0
 11
-0.0533050950550351
 21
0.0496044816736248
 31
0.0
  0
LINE
  5
167
  8
0
 10
0.0042539666817358
 20
-0.0673122809214362
 30
0.0
 11
0.0042539658507002
 21
0.0673122809427222
 31
0.0
  0
LINE
  5
168
  8
0
 10
0.011588776995539
 20
-0.0496044820896788
 30
0.0
 11
0.0115887763831252
 21
0.0496044822015199
 31
0.0
  0
LINE
  5
169
  8
0
 10
0.0502279666817344
 20
-0.0673122807278292
 30
0.0
 11
0.0502279658506995
 21
0.0673122813167091
 31
0.0
  0
LINE
  5
16A
  8
0
 10
0.0575627769955383
 20
-0.0496044818960718
 30
0.0
 11
0.0575627763831234
 21
0.0496044825755069
 31
0.0
  0
LINE
  5
16B
  8
0
 10
-0.1796420333182644
 20
-0.0673122816958642
 30
0.0
 11
-0.1796420341492999
 21
0.0673122794467747
 31
0.0
  0
LINE
  5
16C
  8
0
 10
0.0846169055573758
 20
-0.0496044817821406
 30
0.0
 11
0.0846169049449609
 21
0.0496044827955853
 31
0.0
  0
LINE
  5
16D
  8
0
 10
0.1495107769955119
 20
-0.0496044815088579
 30
0.0
 11
0.1495107763830975
 21
0.0496044833234806
 31
0.0
  0
LINE
  5
16E
  8
0
 10
0.222538905557376
 20
-0.0496044812013197
 30
0.0
 11
0.2225389049449625
 21
0.0496044839175458
 31
0.0
  0
LINE
  5
16F
  8
0
 10
0.1954847769955109
 20
-0.0496044813152506
 30
0.0
 11
0.1954847763830961
 21
0.0496044836974675
 31
0.0
  0
LINE
  5
170
  8
0
 10
0.1035367769955135
 20
-0.0496044817024648
 30
0.0
 11
0.103536776383099
 21
0.0496044829494938
 31
0.0
  0
LINE
  5
171
  8
0
 10
0.1305909055573793
 20
-0.0496044815885335
 30
0.0
 11
0.1305909049449646
 21
0.0496044831695721
 31
0.0
  0
LINE
  5
172
  8
0
 10
0.2341239666817355
 20
-0.0673122799534013
 30
0.0
 11
0.2341239658506993
 21
0.0673122828126562
 31
0.0
  0
LINE
  5
173
  8
0
 10
0.1421759666817376
 20
-0.0673122803406153
 30
0.0
 11
0.1421759658507023
 21
0.0673122820646825
 31
0.0
  0
LINE
  5
174
  8
0
 10
0.1765649055573785
 20
-0.0496044813949267
 30
0.0
 11
0.1765649049449643
 21
0.0496044835435589
 31
0.0
  0
LINE
  5
175
  8
0
 10
0.2414587769955093
 20
-0.0496044811216438
 30
0.0
 11
0.2414587763830947
 21
0.049604484071454
 31
0.0
  0
POLYLINE
  5
176
  8
PROFILEEDGES
 66
     1
 10
0.0
 20
0.0
 30
0.0
  0
VERTEX
  5
2CC
  8
PROFILEEDGES
 10
0.4742653302314574
 20
-0.0130746713863765
 30
0.0
 40
0.0040557483177174
 41
0.0040557483177174
  0
VERTEX
  5
2CD
  8
PROFILEEDGES
 10
0.4742653300755753
 20
0.0350756664845952
 30
0.0
 40
0.0040557483177174
 41
0.0040557483177174
  0
SEQEND
  5
376
  8
PROFILEEDGES
  0
LINE
  5
177
  8
0
 10
0.1881499666817362
 20
-0.0673122801470082
 30
0.0
 11
0.1881499658507016
 21
0.0673122824386695
 31
0.0
  0
POLYLINE
  5
178
  8
PROFILEEDGES
 66
     1
 10
0.0
 20
0.0
 30
0.0
  0
VERTEX
  5
2CE
  8
PROFILEEDGES
 10
-0.5830810913012144
 20
-0.1515661320824623
 30
0.0
 40
0.0040557483177174
 41
0.0040557483177174
  0
VERTEX
  5
2CF
  8
PROFILEEDGES
 10
-0.5830810931724457
 20
0.1515661248525247
 30
0.0
 40
0.0040557483177174
 41
0.0040557483177174
  0
SEQEND
  5
377
  8
PROFILEEDGES
  0
ENDSEC
  0
EOF
