  0
SECTION
  2
HEADER
  9
$ACADVER
  1
AC1009
  9
$DWGCODEPAGE
  3
ansi_1252
  9
$INSBASE
 10
0.0
 20
0.0
 30
0.0
  9
$EXTMIN
 10
1.000000000000000E+20
 20
1.000000000000000E+20
 30
1.000000000000000E+20
  9
$EXTMAX
 10
-1.000000000000000E+20
 20
-1.000000000000000E+20
 30
-1.000000000000000E+20
  9
$LIMMIN
 10
0.0
 20
0.0
  9
$LIMMAX
 10
12.0
 20
9.0
  9
$ORTHOMODE
 70
     0
  9
$REGENMODE
 70
     1
  9
$FILLMODE
 70
     1
  9
$QTEXTMODE
 70
     0
  9
$MIRRTEXT
 70
     1
  9
$DRAGMODE
 70
     2
  9
$LTSCALE
 40
1.0
  9
$OSMODE
 70
    37
  9
$ATTMODE
 70
     1
  9
$TEXTSIZE
 40
0.2
  9
$TRACEWID
 40
0.05
  9
$TEXTSTYLE
  7
STANDARD
  9
$CLAYER
  8
0
  9
$CELTYPE
  6
BYLAYER
  9
$CECOLOR
 62
   256
  9
$DIMSCALE
 40
1.0
  9
$DIMASZ
 40
0.18
  9
$DIMEXO
 40
0.0625
  9
$DIMDLI
 40
0.38
  9
$DIMRND
 40
0.0
  9
$DIMDLE
 40
0.0
  9
$DIMEXE
 40
0.18
  9
$DIMTP
 40
0.0
  9
$DIMTM
 40
0.0
  9
$DIMTXT
 40
0.18
  9
$DIMCEN
 40
0.09
  9
$DIMTSZ
 40
0.0
  9
$DIMTOL
 70
     0
  9
$DIMLIM
 70
     0
  9
$DIMTIH
 70
     1
  9
$DIMTOH
 70
     1
  9
$DIMSE1
 70
     0
  9
$DIMSE2
 70
     0
  9
$DIMTAD
 70
     0
  9
$DIMZIN
 70
     0
  9
$DIMBLK
  1

  9
$DIMASO
 70
     1
  9
$DIMSHO
 70
     1
  9
$DIMPOST
  1

  9
$DIMAPOST
  1

  9
$DIMALT
 70
     0
  9
$DIMALTD
 70
     2
  9
$DIMALTF
 40
25.4
  9
$DIMLFAC
 40
1.0
  9
$DIMTOFL
 70
     0
  9
$DIMTVP
 40
0.0
  9
$DIMTIX
 70
     0
  9
$DIMSOXD
 70
     0
  9
$DIMSAH
 70
     0
  9
$DIMBLK1
  1

  9
$DIMBLK2
  1

  9
$DIMSTYLE
  2
STANDARD
  9
$DIMCLRD
 70
     0
  9
$DIMCLRE
 70
     0
  9
$DIMCLRT
 70
     0
  9
$DIMTFAC
 40
1.0
  9
$DIMGAP
 40
0.09
  9
$LUNITS
 70
     2
  9
$LUPREC
 70
     4
  9
$SKETCHINC
 40
0.1
  9
$FILLETRAD
 40
0.0
  9
$AUNITS
 70
     0
  9
$AUPREC
 70
     0
  9
$MENU
  1
.
  9
$ELEVATION
 40
0.0
  9
$PELEVATION
 40
0.0
  9
$THICKNESS
 40
0.0
  9
$LIMCHECK
 70
     0
  9
$CHAMFERA
 40
0.0
  9
$CHAMFERB
 40
0.0
  9
$SKPOLY
 70
     0
  9
$TDCREATE
 40
2460271.726087848
  9
$TDUPDATE
 40
2460271.726088241
  9
$TDINDWG
 40
0.0000000116
  9
$TDUSRTIMER
 40
0.0000000116
  9
$USRTIMER
 70
     1
  9
$ANGBASE
 50
0.0
  9
$ANGDIR
 70
     0
  9
$PDMODE
 70
     0
  9
$PDSIZE
 40
0.0
  9
$PLINEWID
 40
0.0
  9
$COORDS
 70
     1
  9
$SPLFRAME
 70
     0
  9
$SPLINETYPE
 70
     6
  9
$SPLINESEGS
 70
     8
  9
$ATTDIA
 70
     0
  9
$ATTREQ
 70
     1
  9
$HANDLING
 70
     1
  9
$HANDSEED
  5
6DC
  9
$SURFTAB1
 70
     6
  9
$SURFTAB2
 70
     6
  9
$SURFTYPE
 70
     6
  9
$SURFU
 70
     6
  9
$SURFV
 70
     6
  9
$UCSNAME
  2

  9
$UCSORG
 10
0.0
 20
0.0
 30
0.0
  9
$UCSXDIR
 10
1.0
 20
0.0
 30
0.0
  9
$UCSYDIR
 10
0.0
 20
1.0
 30
0.0
  9
$PUCSNAME
  2

  9
$PUCSORG
 10
0.0
 20
0.0
 30
0.0
  9
$PUCSXDIR
 10
1.0
 20
0.0
 30
0.0
  9
$PUCSYDIR
 10
0.0
 20
1.0
 30
0.0
  9
$USERI1
 70
     0
  9
$USERI2
 70
     0
  9
$USERI3
 70
     0
  9
$USERI4
 70
     0
  9
$USERI5
 70
     0
  9
$USERR1
 40
0.0
  9
$USERR2
 40
0.0
  9
$USERR3
 40
0.0
  9
$USERR4
 40
0.0
  9
$USERR5
 40
0.0
  9
$WORLDVIEW
 70
     1
  9
$SHADEDGE
 70
     3
  9
$SHADEDIF
 70
    70
  9
$TILEMODE
 70
     1
  9
$MAXACTVP
 70
    64
  9
$PLIMCHECK
 70
     0
  9
$PEXTMIN
 10
1.000000000000000E+20
 20
1.000000000000000E+20
 30
1.000000000000000E+20
  9
$PEXTMAX
 10
-1.000000000000000E+20
 20
-1.000000000000000E+20
 30
-1.000000000000000E+20
  9
$PLIMMIN
 10
0.0
 20
0.0
  9
$PLIMMAX
 10
12.0
 20
9.0
  9
$UNITMODE
 70
     0
  9
$VISRETAIN
 70
     1
  9
$PLINEGEN
 70
     0
  9
$PSLTSCALE
 70
     1
  0
ENDSEC
  0
SECTION
  2
TABLES
  0
TABLE
  2
VPORT
 70
     1
  0
VPORT
  2
*ACTIVE
 70
     0
 10
0.0
 20
0.0
 11
1.0
 21
1.0
 12
0.0
 22
0.0
 13
0.0
 23
0.0
 14
0.5
 24
0.5
 15
0.5
 25
0.5
 16
0.0
 26
0.0
 36
1.0
 17
0.0
 27
0.0
 37
-1000.0
 40
8.489609381708462
 41
1.658454647256439
 42
50.0
 43
21.65323049263376
 44
29.26626599432165
 50
0.0
 51
0.0
 71
     0
 72
   100
 73
     1
 74
     3
 75
     0
 76
     0
 77
     0
 78
     0
  0
ENDTAB
  0
TABLE
  2
LTYPE
 70
     1
  0
LTYPE
  2
CONTINUOUS
 70
     0
  3
Solid line
 72
    65
 73
     0
 40
0.0
  0
ENDTAB
  0
TABLE
  2
LAYER
 70
     3
  0
LAYER
  2
0
 70
     0
 62
     7
  6
CONTINUOUS
  0
LAYER
  2
PROFILEEDGES
 70
     0
 62
     7
  6
CONTINUOUS
  0
LAYER
  2
SECTIONCUTEDGES
 70
     0
 62
     7
  6
CONTINUOUS
  0
ENDTAB
  0
TABLE
  2
STYLE
 70
     1
  0
STYLE
  2
STANDARD
 70
     0
 40
0.0
 41
1.0
 50
0.0
 71
     0
 42
0.2
  3
txt
  4

  0
ENDTAB
  0
TABLE
  2
VIEW
 70
     0
  0
ENDTAB
  0
TABLE
  2
UCS
 70
     0
  0
ENDTAB
  0
TABLE
  2
APPID
 70
     1
  0
APPID
  2
ACAD
 70
     0
  0
ENDTAB
  0
TABLE
  2
DIMSTYLE
 70
     1
  0
DIMSTYLE
  2
STANDARD
 70
     0
  3

  4

  5

  6

  7

 40
1.0
 41
0.18
 42
0.0625
 43
0.38
 44
0.18
 45
0.0
 46
0.0
 47
0.0
 48
0.0
140
0.18
141
0.09
142
0.0
143
25.4
144
1.0
145
0.0
146
1.0
147
0.09
 71
     0
 72
     0
 73
     1
 74
     1
 75
     0
 76
     0
 77
     0
 78
     0
170
     0
171
     2
172
     0
173
     0
174
     0
175
     0
176
     0
177
     0
178
     0
  0
ENDTAB
  0
ENDSEC
  0
SECTION
  2
BLOCKS
  0
BLOCK
  8
0
  2
$MODEL_SPACE
 70
     0
 10
0.0
 20
0.0
 30
0.0
  3
$MODEL_SPACE
  1

  0
ENDBLK
  5
21
  8
0
  0
BLOCK
 67
     1
  8
0
  2
$PAPER_SPACE
 70
     0
 10
0.0
 20
0.0
 30
0.0
  3
$PAPER_SPACE
  1

  0
ENDBLK
  5
1D
 67
     1
  8
0
  0
ENDSEC
  0
SECTION
  2
ENTITIES
  0
POLYLINE
  5
60
  8
PROFILEEDGES
 66
     1
 10
0.0
 20
0.0
 30
0.0
  0
VERTEX
  5
20B
  8
PROFILEEDGES
 10
-2.778192923862265
 20
-0.0654880411397957
 30
0.0
 40
0.0190136828257748
 41
0.0190136828257748
  0
VERTEX
  5
20C
  8
PROFILEEDGES
 10
-2.784447246839934
 20
-0.144956749380232
 30
0.0
 40
0.0190136828257748
 41
0.0190136828257748
  0
SEQEND
  5
541
  8
PROFILEEDGES
  0
POLYLINE
  5
61
  8
PROFILEEDGES
 66
     1
 10
0.0
 20
0.0
 30
0.0
  0
VERTEX
  5
20D
  8
PROFILEEDGES
 10
-2.80305621358433
 20
-0.2224686742822682
 30
0.0
 40
0.0190136828257748
 41
0.0190136828257748
  0
VERTEX
  5
20E
  8
PROFILEEDGES
 10
-2.784447246839934
 20
-0.144956749380232
 30
0.0
 40
0.0190136828257748
 41
0.0190136828257748
  0
SEQEND
  5
542
  8
PROFILEEDGES
  0
POLYLINE
  5
62
  8
PROFILEEDGES
 66
     1
 10
0.0
 20
0.0
 30
0.0
  0
VERTEX
  5
20F
  8
PROFILEEDGES
 10
-2.80305621358433
 20
-0.2224686742822682
 30
0.0
 40
0.0190136828257748
 41
0.0190136828257748
  0
VERTEX
  5
210
  8
PROFILEEDGES
 10
-2.833561609574574
 20
-0.2961152150074854
 30
0.0
 40
0.0190136828257748
 41
0.0190136828257748
  0
SEQEND
  5
543
  8
PROFILEEDGES
  0
POLYLINE
  5
63
  8
PROFILEEDGES
 66
     1
 10
0.0
 20
0.0
 30
0.0
  0
VERTEX
  5
211
  8
PROFILEEDGES
 10
-2.833561609574574
 20
-0.2961152150074854
 30
0.0
 40
0.0190136828257748
 41
0.0190136828257748
  0
VERTEX
  5
212
  8
PROFILEEDGES
 10
-2.875212290719789
 20
-0.3640829493043725
 30
0.0
 40
0.0190136828257748
 41
0.0190136828257748
  0
SEQEND
  5
544
  8
PROFILEEDGES
  0
POLYLINE
  5
64
  8
PROFILEEDGES
 66
     1
 10
0.0
 20
0.0
 30
0.0
  0
VERTEX
  5
213
  8
PROFILEEDGES
 10
-2.926982679019502
 20
-0.4246982859825618
 30
0.0
 40
0.0190136828257748
 41
0.0190136828257748
  0
VERTEX
  5
214
  8
PROFILEEDGES
 10
-2.875212290719789
 20
-0.3640829493043725
 30
0.0
 40
0.0190136828257748
 41
0.0190136828257748
  0
SEQEND
  5
545
  8
PROFILEEDGES
  0
POLYLINE
  5
65
  8
PROFILEEDGES
 66
     1
 10
0.0
 20
0.0
 30
0.0
  0
VERTEX
  5
215
  8
PROFILEEDGES
 10
-2.926982679019502
 20
-0.4246982859825618
 30
0.0
 40
0.0190136828257748
 41
0.0190136828257748
  0
VERTEX
  5
216
  8
PROFILEEDGES
 10
-2.987598015697688
 20
-0.4764686742822682
 30
0.0
 40
0.0190136828257748
 41
0.0190136828257748
  0
SEQEND
  5
546
  8
PROFILEEDGES
  0
POLYLINE
  5
66
  8
PROFILEEDGES
 66
     1
 10
0.0
 20
0.0
 30
0.0
  0
VERTEX
  5
217
  8
PROFILEEDGES
 10
-3.055565749994572
 20
-0.5181193554274862
 30
0.0
 40
0.0190136828257748
 41
0.0190136828257748
  0
VERTEX
  5
218
  8
PROFILEEDGES
 10
-2.987598015697688
 20
-0.4764686742822682
 30
0.0
 40
0.0190136828257748
 41
0.0190136828257748
  0
SEQEND
  5
547
  8
PROFILEEDGES
  0
POLYLINE
  5
67
  8
PROFILEEDGES
 66
     1
 10
0.0
 20
0.0
 30
0.0
  0
VERTEX
  5
219
  8
PROFILEEDGES
 10
-3.055565749994572
 20
-0.5181193554274862
 30
0.0
 40
0.0190136828257748
 41
0.0190136828257748
  0
VERTEX
  5
21A
  8
PROFILEEDGES
 10
-3.129212290719789
 20
-0.5486247514177337
 30
0.0
 40
0.0190136828257748
 41
0.0190136828257748
  0
SEQEND
  5
548
  8
PROFILEEDGES
  0
POLYLINE
  5
68
  8
PROFILEEDGES
 66
     1
 10
0.0
 20
0.0
 30
0.0
  0
VERTEX
  5
21B
  8
PROFILEEDGES
 10
-3.129212290719789
 20
-0.5486247514177337
 30
0.0
 40
0.0190136828257748
 41
0.0190136828257748
  0
VERTEX
  5
21C
  8
PROFILEEDGES
 10
-3.206724215621828
 20
-0.5672337181621262
 30
0.0
 40
0.0190136828257748
 41
0.0190136828257748
  0
SEQEND
  5
549
  8
PROFILEEDGES
  0
POLYLINE
  5
69
  8
PROFILEEDGES
 66
     1
 10
0.0
 20
0.0
 30
0.0
  0
VERTEX
  5
21D
  8
PROFILEEDGES
 10
-3.286192923862265
 20
-0.5734880411397957
 30
0.0
 40
0.0190136828257748
 41
0.0190136828257748
  0
VERTEX
  5
21E
  8
PROFILEEDGES
 10
-3.206724215621828
 20
-0.5672337181621262
 30
0.0
 40
0.0190136828257748
 41
0.0190136828257748
  0
SEQEND
  5
54A
  8
PROFILEEDGES
  0
POLYLINE
  5
6A
  8
PROFILEEDGES
 66
     1
 10
0.0
 20
0.0
 30
0.0
  0
VERTEX
  5
21F
  8
PROFILEEDGES
 10
-3.286192923862265
 20
-0.5734880411397957
 30
0.0
 40
0.0190136828257748
 41
0.0190136828257748
  0
VERTEX
  5
220
  8
PROFILEEDGES
 10
-3.365661632102701
 20
-0.5672337181621262
 30
0.0
 40
0.0190136828257748
 41
0.0190136828257748
  0
SEQEND
  5
54B
  8
PROFILEEDGES
  0
POLYLINE
  5
6B
  8
PROFILEEDGES
 66
     1
 10
0.0
 20
0.0
 30
0.0
  0
VERTEX
  5
221
  8
PROFILEEDGES
 10
-3.44317355700474
 20
-0.5486247514177337
 30
0.0
 40
0.0190136828257748
 41
0.0190136828257748
  0
VERTEX
  5
222
  8
PROFILEEDGES
 10
-3.365661632102701
 20
-0.5672337181621262
 30
0.0
 40
0.0190136828257748
 41
0.0190136828257748
  0
SEQEND
  5
54C
  8
PROFILEEDGES
  0
POLYLINE
  5
6C
  8
PROFILEEDGES
 66
     1
 10
0.0
 20
0.0
 30
0.0
  0
VERTEX
  5
223
  8
PROFILEEDGES
 10
-3.44317355700474
 20
-0.5486247514177337
 30
0.0
 40
0.0190136828257748
 41
0.0190136828257748
  0
VERTEX
  5
224
  8
PROFILEEDGES
 10
-3.516820097729958
 20
-0.5181193554274862
 30
0.0
 40
0.0190136828257748
 41
0.0190136828257748
  0
SEQEND
  5
54D
  8
PROFILEEDGES
  0
POLYLINE
  5
6D
  8
PROFILEEDGES
 66
     1
 10
0.0
 20
0.0
 30
0.0
  0
VERTEX
  5
225
  8
PROFILEEDGES
 10
-3.516820097729958
 20
-0.5181193554274862
 30
0.0
 40
0.0190136828257748
 41
0.0190136828257748
  0
VERTEX
  5
226
  8
PROFILEEDGES
 10
-3.584787832026842
 20
-0.4764686742822682
 30
0.0
 40
0.0190136828257748
 41
0.0190136828257748
  0
SEQEND
  5
54E
  8
PROFILEEDGES
  0
POLYLINE
  5
6E
  8
PROFILEEDGES
 66
     1
 10
0.0
 20
0.0
 30
0.0
  0
VERTEX
  5
227
  8
PROFILEEDGES
 10
-3.645403168705034
 20
-0.4246982859825618
 30
0.0
 40
0.0190136828257748
 41
0.0190136828257748
  0
VERTEX
  5
228
  8
PROFILEEDGES
 10
-3.584787832026842
 20
-0.4764686742822682
 30
0.0
 40
0.0190136828257748
 41
0.0190136828257748
  0
SEQEND
  5
54F
  8
PROFILEEDGES
  0
POLYLINE
  5
6F
  8
PROFILEEDGES
 66
     1
 10
0.0
 20
0.0
 30
0.0
  0
VERTEX
  5
229
  8
PROFILEEDGES
 10
-3.645403168705034
 20
-0.4246982859825618
 30
0.0
 40
0.0190136828257748
 41
0.0190136828257748
  0
VERTEX
  5
22A
  8
PROFILEEDGES
 10
-3.69717355700474
 20
-0.3640829493043725
 30
0.0
 40
0.0190136828257748
 41
0.0190136828257748
  0
SEQEND
  5
550
  8
PROFILEEDGES
  0
POLYLINE
  5
70
  8
PROFILEEDGES
 66
     1
 10
0.0
 20
0.0
 30
0.0
  0
VERTEX
  5
22B
  8
PROFILEEDGES
 10
-3.738824238149955
 20
-0.2961152150074854
 30
0.0
 40
0.0190136828257748
 41
0.0190136828257748
  0
VERTEX
  5
22C
  8
PROFILEEDGES
 10
-3.69717355700474
 20
-0.3640829493043725
 30
0.0
 40
0.0190136828257748
 41
0.0190136828257748
  0
SEQEND
  5
551
  8
PROFILEEDGES
  0
POLYLINE
  5
71
  8
PROFILEEDGES
 66
     1
 10
0.0
 20
0.0
 30
0.0
  0
VERTEX
  5
22D
  8
PROFILEEDGES
 10
-3.738824238149955
 20
-0.2961152150074854
 30
0.0
 40
0.0190136828257748
 41
0.0190136828257748
  0
VERTEX
  5
22E
  8
PROFILEEDGES
 10
-3.7693296341402
 20
-0.2224686742822682
 30
0.0
 40
0.0190136828257748
 41
0.0190136828257748
  0
SEQEND
  5
552
  8
PROFILEEDGES
  0
POLYLINE
  5
72
  8
PROFILEEDGES
 66
     1
 10
0.0
 20
0.0
 30
0.0
  0
VERTEX
  5
22F
  8
PROFILEEDGES
 10
-3.7693296341402
 20
-0.2224686742822682
 30
0.0
 40
0.0190136828257748
 41
0.0190136828257748
  0
VERTEX
  5
230
  8
PROFILEEDGES
 10
-3.787938600884595
 20
-0.144956749380232
 30
0.0
 40
0.0190136828257748
 41
0.0190136828257748
  0
SEQEND
  5
553
  8
PROFILEEDGES
  0
POLYLINE
  5
73
  8
PROFILEEDGES
 66
     1
 10
0.0
 20
0.0
 30
0.0
  0
VERTEX
  5
231
  8
PROFILEEDGES
 10
-3.7693296341402
 20
0.0914925920026768
 30
0.0
 40
0.0190136828257748
 41
0.0190136828257748
  0
VERTEX
  5
232
  8
PROFILEEDGES
 10
-3.787938600884595
 20
0.0139806671006407
 30
0.0
 40
0.0190136828257748
 41
0.0190136828257748
  0
SEQEND
  5
554
  8
PROFILEEDGES
  0
POLYLINE
  5
74
  8
PROFILEEDGES
 66
     1
 10
0.0
 20
0.0
 30
0.0
  0
VERTEX
  5
233
  8
PROFILEEDGES
 10
-3.794192923862265
 20
-0.0654880411397957
 30
0.0
 40
0.0190136828257748
 41
0.0190136828257748
  0
VERTEX
  5
234
  8
PROFILEEDGES
 10
-3.787938600884595
 20
0.0139806671006407
 30
0.0
 40
0.0190136828257748
 41
0.0190136828257748
  0
SEQEND
  5
555
  8
PROFILEEDGES
  0
POLYLINE
  5
75
  8
PROFILEEDGES
 66
     1
 10
0.0
 20
0.0
 30
0.0
  0
VERTEX
  5
235
  8
PROFILEEDGES
 10
-3.787938600884595
 20
-0.144956749380232
 30
0.0
 40
0.0190136828257748
 41
0.0190136828257748
  0
VERTEX
  5
236
  8
PROFILEEDGES
 10
-3.794192923862265
 20
-0.0654880411397957
 30
0.0
 40
0.0190136828257748
 41
0.0190136828257748
  0
SEQEND
  5
556
  8
PROFILEEDGES
  0
POLYLINE
  5
76
  8
PROFILEEDGES
 66
     1
 10
0.0
 20
0.0
 30
0.0
  0
VERTEX
  5
237
  8
PROFILEEDGES
 10
-3.7693296341402
 20
0.0914925920026768
 30
0.0
 40
0.0190136828257748
 41
0.0190136828257748
  0
VERTEX
  5
238
  8
PROFILEEDGES
 10
-3.738824238149955
 20
0.165139132727894
 30
0.0
 40
0.0190136828257748
 41
0.0190136828257748
  0
SEQEND
  5
557
  8
PROFILEEDGES
  0
POLYLINE
  5
77
  8
PROFILEEDGES
 66
     1
 10
0.0
 20
0.0
 30
0.0
  0
VERTEX
  5
239
  8
PROFILEEDGES
 10
-3.738824238149955
 20
0.165139132727894
 30
0.0
 40
0.0190136828257748
 41
0.0190136828257748
  0
VERTEX
  5
23A
  8
PROFILEEDGES
 10
-3.69717355700474
 20
0.2331068670247811
 30
0.0
 40
0.0190136828257748
 41
0.0190136828257748
  0
SEQEND
  5
558
  8
PROFILEEDGES
  0
POLYLINE
  5
78
  8
PROFILEEDGES
 66
     1
 10
0.0
 20
0.0
 30
0.0
  0
VERTEX
  5
23B
  8
PROFILEEDGES
 10
-3.645403168705034
 20
0.2937222037029704
 30
0.0
 40
0.0190136828257748
 41
0.0190136828257748
  0
VERTEX
  5
23C
  8
PROFILEEDGES
 10
-3.69717355700474
 20
0.2331068670247811
 30
0.0
 40
0.0190136828257748
 41
0.0190136828257748
  0
SEQEND
  5
559
  8
PROFILEEDGES
  0
POLYLINE
  5
79
  8
PROFILEEDGES
 66
     1
 10
0.0
 20
0.0
 30
0.0
  0
VERTEX
  5
23D
  8
PROFILEEDGES
 10
-3.645403168705034
 20
0.2937222037029704
 30
0.0
 40
0.0190136828257748
 41
0.0190136828257748
  0
VERTEX
  5
23E
  8
PROFILEEDGES
 10
-3.584787832026842
 20
0.3454925920026768
 30
0.0
 40
0.0190136828257748
 41
0.0190136828257748
  0
SEQEND
  5
55A
  8
PROFILEEDGES
  0
POLYLINE
  5
7A
  8
PROFILEEDGES
 66
     1
 10
0.0
 20
0.0
 30
0.0
  0
VERTEX
  5
23F
  8
PROFILEEDGES
 10
-3.516820097729958
 20
0.3871432731478948
 30
0.0
 40
0.0190136828257748
 41
0.0190136828257748
  0
VERTEX
  5
240
  8
PROFILEEDGES
 10
-3.584787832026842
 20
0.3454925920026768
 30
0.0
 40
0.0190136828257748
 41
0.0190136828257748
  0
SEQEND
  5
55B
  8
PROFILEEDGES
  0
POLYLINE
  5
7B
  8
PROFILEEDGES
 66
     1
 10
0.0
 20
0.0
 30
0.0
  0
VERTEX
  5
241
  8
PROFILEEDGES
 10
-3.516820097729958
 20
0.3871432731478948
 30
0.0
 40
0.0190136828257748
 41
0.0190136828257748
  0
VERTEX
  5
242
  8
PROFILEEDGES
 10
-3.44317355700474
 20
0.4176486691381424
 30
0.0
 40
0.0190136828257748
 41
0.0190136828257748
  0
SEQEND
  5
55C
  8
PROFILEEDGES
  0
POLYLINE
  5
7C
  8
PROFILEEDGES
 66
     1
 10
0.0
 20
0.0
 30
0.0
  0
VERTEX
  5
243
  8
PROFILEEDGES
 10
-3.44317355700474
 20
0.4176486691381424
 30
0.0
 40
0.0190136828257748
 41
0.0190136828257748
  0
VERTEX
  5
244
  8
PROFILEEDGES
 10
-3.365661632102701
 20
0.4362576358825349
 30
0.0
 40
0.0190136828257748
 41
0.0190136828257748
  0
SEQEND
  5
55D
  8
PROFILEEDGES
  0
POLYLINE
  5
7D
  8
PROFILEEDGES
 66
     1
 10
0.0
 20
0.0
 30
0.0
  0
VERTEX
  5
245
  8
PROFILEEDGES
 10
-3.286192923862265
 20
0.4425119588602043
 30
0.0
 40
0.0190136828257748
 41
0.0190136828257748
  0
VERTEX
  5
246
  8
PROFILEEDGES
 10
-3.365661632102701
 20
0.4362576358825349
 30
0.0
 40
0.0190136828257748
 41
0.0190136828257748
  0
SEQEND
  5
55E
  8
PROFILEEDGES
  0
POLYLINE
  5
7E
  8
PROFILEEDGES
 66
     1
 10
0.0
 20
0.0
 30
0.0
  0
VERTEX
  5
247
  8
PROFILEEDGES
 10
-3.286192923862265
 20
0.4425119588602043
 30
0.0
 40
0.0190136828257748
 41
0.0190136828257748
  0
VERTEX
  5
248
  8
PROFILEEDGES
 10
-3.206724215621828
 20
0.4362576358825349
 30
0.0
 40
0.0190136828257748
 41
0.0190136828257748
  0
SEQEND
  5
55F
  8
PROFILEEDGES
  0
POLYLINE
  5
7F
  8
PROFILEEDGES
 66
     1
 10
0.0
 20
0.0
 30
0.0
  0
VERTEX
  5
249
  8
PROFILEEDGES
 10
-3.129212290719789
 20
0.4176486691381424
 30
0.0
 40
0.0190136828257748
 41
0.0190136828257748
  0
VERTEX
  5
24A
  8
PROFILEEDGES
 10
-3.206724215621828
 20
0.4362576358825349
 30
0.0
 40
0.0190136828257748
 41
0.0190136828257748
  0
SEQEND
  5
560
  8
PROFILEEDGES
  0
POLYLINE
  5
80
  8
PROFILEEDGES
 66
     1
 10
0.0
 20
0.0
 30
0.0
  0
VERTEX
  5
24B
  8
PROFILEEDGES
 10
-3.129212290719789
 20
0.4176486691381424
 30
0.0
 40
0.0190136828257748
 41
0.0190136828257748
  0
VERTEX
  5
24C
  8
PROFILEEDGES
 10
-3.055565749994572
 20
0.3871432731478948
 30
0.0
 40
0.0190136828257748
 41
0.0190136828257748
  0
SEQEND
  5
561
  8
PROFILEEDGES
  0
POLYLINE
  5
81
  8
PROFILEEDGES
 66
     1
 10
0.0
 20
0.0
 30
0.0
  0
VERTEX
  5
24D
  8
PROFILEEDGES
 10
-3.055565749994572
 20
0.3871432731478948
 30
0.0
 40
0.0190136828257748
 41
0.0190136828257748
  0
VERTEX
  5
24E
  8
PROFILEEDGES
 10
-2.987598015697688
 20
0.3454925920026768
 30
0.0
 40
0.0190136828257748
 41
0.0190136828257748
  0
SEQEND
  5
562
  8
PROFILEEDGES
  0
POLYLINE
  5
82
  8
PROFILEEDGES
 66
     1
 10
0.0
 20
0.0
 30
0.0
  0
VERTEX
  5
24F
  8
PROFILEEDGES
 10
-2.926982679019502
 20
0.2937222037029704
 30
0.0
 40
0.0190136828257748
 41
0.0190136828257748
  0
VERTEX
  5
250
  8
PROFILEEDGES
 10
-2.987598015697688
 20
0.3454925920026768
 30
0.0
 40
0.0190136828257748
 41
0.0190136828257748
  0
SEQEND
  5
563
  8
PROFILEEDGES
  0
POLYLINE
  5
83
  8
PROFILEEDGES
 66
     1
 10
0.0
 20
0.0
 30
0.0
  0
VERTEX
  5
251
  8
PROFILEEDGES
 10
-2.926982679019502
 20
0.2937222037029704
 30
0.0
 40
0.0190136828257748
 41
0.0190136828257748
  0
VERTEX
  5
252
  8
PROFILEEDGES
 10
-2.875212290719789
 20
0.2331068670247811
 30
0.0
 40
0.0190136828257748
 41
0.0190136828257748
  0
SEQEND
  5
564
  8
PROFILEEDGES
  0
POLYLINE
  5
84
  8
PROFILEEDGES
 66
     1
 10
0.0
 20
0.0
 30
0.0
  0
VERTEX
  5
253
  8
PROFILEEDGES
 10
-2.833561609574574
 20
0.165139132727894
 30
0.0
 40
0.0190136828257748
 41
0.0190136828257748
  0
VERTEX
  5
254
  8
PROFILEEDGES
 10
-2.875212290719789
 20
0.2331068670247811
 30
0.0
 40
0.0190136828257748
 41
0.0190136828257748
  0
SEQEND
  5
565
  8
PROFILEEDGES
  0
POLYLINE
  5
85
  8
PROFILEEDGES
 66
     1
 10
0.0
 20
0.0
 30
0.0
  0
VERTEX
  5
255
  8
PROFILEEDGES
 10
-2.833561609574574
 20
0.165139132727894
 30
0.0
 40
0.0190136828257748
 41
0.0190136828257748
  0
VERTEX
  5
256
  8
PROFILEEDGES
 10
-2.80305621358433
 20
0.0914925920026768
 30
0.0
 40
0.0190136828257748
 41
0.0190136828257748
  0
SEQEND
  5
566
  8
PROFILEEDGES
  0
POLYLINE
  5
86
  8
PROFILEEDGES
 66
     1
 10
0.0
 20
0.0
 30
0.0
  0
VERTEX
  5
257
  8
PROFILEEDGES
 10
-2.80305621358433
 20
0.0914925920026768
 30
0.0
 40
0.0190136828257748
 41
0.0190136828257748
  0
VERTEX
  5
258
  8
PROFILEEDGES
 10
-2.784447246839934
 20
0.0139806671006407
 30
0.0
 40
0.0190136828257748
 41
0.0190136828257748
  0
SEQEND
  5
567
  8
PROFILEEDGES
  0
POLYLINE
  5
87
  8
PROFILEEDGES
 66
     1
 10
0.0
 20
0.0
 30
0.0
  0
VERTEX
  5
259
  8
PROFILEEDGES
 10
-2.778192923862265
 20
-0.0654880411397957
 30
0.0
 40
0.0190136828257748
 41
0.0190136828257748
  0
VERTEX
  5
25A
  8
PROFILEEDGES
 10
-2.784447246839934
 20
0.0139806671006407
 30
0.0
 40
0.0190136828257748
 41
0.0190136828257748
  0
SEQEND
  5
568
  8
PROFILEEDGES
  0
POLYLINE
  5
88
  8
PROFILEEDGES
 66
     1
 10
0.0
 20
0.0
 30
0.0
  0
VERTEX
  5
25B
  8
PROFILEEDGES
 10
-1.108142923862265
 20
-2.097488041139796
 30
0.0
 40
0.0190136828257748
 41
0.0190136828257748
  0
VERTEX
  5
25C
  8
PROFILEEDGES
 10
-1.109941041718346
 20
-2.120335294758922
 30
0.0
 40
0.0190136828257748
 41
0.0190136828257748
  0
SEQEND
  5
569
  8
PROFILEEDGES
  0
POLYLINE
  5
89
  8
PROFILEEDGES
 66
     1
 10
0.0
 20
0.0
 30
0.0
  0
VERTEX
  5
25D
  8
PROFILEEDGES
 10
-1.115291119657358
 20
-2.142619973168257
 30
0.0
 40
0.0190136828257748
 41
0.0190136828257748
  0
VERTEX
  5
25E
  8
PROFILEEDGES
 10
-1.109941041718346
 20
-2.120335294758922
 30
0.0
 40
0.0190136828257748
 41
0.0190136828257748
  0
SEQEND
  5
56A
  8
PROFILEEDGES
  0
POLYLINE
  5
8A
  8
PROFILEEDGES
 66
     1
 10
0.0
 20
0.0
 30
0.0
  0
VERTEX
  5
25F
  8
PROFILEEDGES
 10
-1.115291119657358
 20
-2.142619973168257
 30
0.0
 40
0.0190136828257748
 41
0.0190136828257748
  0
VERTEX
  5
260
  8
PROFILEEDGES
 10
-1.124061421004553
 20
-2.163793353626758
 30
0.0
 40
0.0190136828257748
 41
0.0190136828257748
  0
SEQEND
  5
56B
  8
PROFILEEDGES
  0
POLYLINE
  5
8B
  8
PROFILEEDGES
 66
     1
 10
0.0
 20
0.0
 30
0.0
  0
VERTEX
  5
261
  8
PROFILEEDGES
 10
-1.124061421004553
 20
-2.163793353626758
 30
0.0
 40
0.0190136828257748
 41
0.0190136828257748
  0
VERTEX
  5
262
  8
PROFILEEDGES
 10
-1.136035991833803
 20
-2.183334077237112
 30
0.0
 40
0.0190136828257748
 41
0.0190136828257748
  0
SEQEND
  5
56C
  8
PROFILEEDGES
  0
POLYLINE
  5
8C
  8
PROFILEEDGES
 66
     1
 10
0.0
 20
0.0
 30
0.0
  0
VERTEX
  5
263
  8
PROFILEEDGES
 10
-1.15091997846997
 20
-2.200760986532091
 30
0.0
 40
0.0190136828257748
 41
0.0190136828257748
  0
VERTEX
  5
264
  8
PROFILEEDGES
 10
-1.136035991833803
 20
-2.183334077237112
 30
0.0
 40
0.0190136828257748
 41
0.0190136828257748
  0
SEQEND
  5
56D
  8
PROFILEEDGES
  0
POLYLINE
  5
8D
  8
PROFILEEDGES
 66
     1
 10
0.0
 20
0.0
 30
0.0
  0
VERTEX
  5
265
  8
PROFILEEDGES
 10
-1.15091997846997
 20
-2.200760986532091
 30
0.0
 40
0.0190136828257748
 41
0.0190136828257748
  0
VERTEX
  5
266
  8
PROFILEEDGES
 10
-1.168346887764949
 20
-2.215644973168258
 30
0.0
 40
0.0190136828257748
 41
0.0190136828257748
  0
SEQEND
  5
56E
  8
PROFILEEDGES
  0
POLYLINE
  5
8E
  8
PROFILEEDGES
 66
     1
 10
0.0
 20
0.0
 30
0.0
  0
VERTEX
  5
267
  8
PROFILEEDGES
 10
-1.187887611375303
 20
-2.227619543997507
 30
0.0
 40
0.0190136828257748
 41
0.0190136828257748
  0
VERTEX
  5
268
  8
PROFILEEDGES
 10
-1.168346887764949
 20
-2.215644973168258
 30
0.0
 40
0.0190136828257748
 41
0.0190136828257748
  0
SEQEND
  5
56F
  8
PROFILEEDGES
  0
POLYLINE
  5
8F
  8
PROFILEEDGES
 66
     1
 10
0.0
 20
0.0
 30
0.0
  0
VERTEX
  5
269
  8
PROFILEEDGES
 10
-1.187887611375303
 20
-2.227619543997507
 30
0.0
 40
0.0190136828257748
 41
0.0190136828257748
  0
VERTEX
  5
26A
  8
PROFILEEDGES
 10
-1.209060991833803
 20
-2.236389845344702
 30
0.0
 40
0.0190136828257748
 41
0.0190136828257748
  0
SEQEND
  5
570
  8
PROFILEEDGES
  0
POLYLINE
  5
90
  8
PROFILEEDGES
 66
     1
 10
0.0
 20
0.0
 30
0.0
  0
VERTEX
  5
26B
  8
PROFILEEDGES
 10
-1.209060991833803
 20
-2.236389845344702
 30
0.0
 40
0.0190136828257748
 41
0.0190136828257748
  0
VERTEX
  5
26C
  8
PROFILEEDGES
 10
-1.231345670243139
 20
-2.241739923283715
 30
0.0
 40
0.0190136828257748
 41
0.0190136828257748
  0
SEQEND
  5
571
  8
PROFILEEDGES
  0
POLYLINE
  5
91
  8
PROFILEEDGES
 66
     1
 10
0.0
 20
0.0
 30
0.0
  0
VERTEX
  5
26D
  8
PROFILEEDGES
 10
-1.254192923862265
 20
-2.243538041139796
 30
0.0
 40
0.0190136828257748
 41
0.0190136828257748
  0
VERTEX
  5
26E
  8
PROFILEEDGES
 10
-1.231345670243139
 20
-2.241739923283715
 30
0.0
 40
0.0190136828257748
 41
0.0190136828257748
  0
SEQEND
  5
572
  8
PROFILEEDGES
  0
POLYLINE
  5
92
  8
PROFILEEDGES
 66
     1
 10
0.0
 20
0.0
 30
0.0
  0
VERTEX
  5
26F
  8
PROFILEEDGES
 10
-1.254192923862265
 20
-2.243538041139796
 30
0.0
 40
0.0190136828257748
 41
0.0190136828257748
  0
VERTEX
  5
270
  8
PROFILEEDGES
 10
-1.277040177481391
 20
-2.241739923283715
 30
0.0
 40
0.0190136828257748
 41
0.0190136828257748
  0
SEQEND
  5
573
  8
PROFILEEDGES
  0
POLYLINE
  5
93
  8
PROFILEEDGES
 66
     1
 10
0.0
 20
0.0
 30
0.0
  0
VERTEX
  5
271
  8
PROFILEEDGES
 10
-1.299324855890727
 20
-2.236389845344702
 30
0.0
 40
0.0190136828257748
 41
0.0190136828257748
  0
VERTEX
  5
272
  8
PROFILEEDGES
 10
-1.277040177481391
 20
-2.241739923283715
 30
0.0
 40
0.0190136828257748
 41
0.0190136828257748
  0
SEQEND
  5
574
  8
PROFILEEDGES
  0
POLYLINE
  5
94
  8
PROFILEEDGES
 66
     1
 10
0.0
 20
0.0
 30
0.0
  0
VERTEX
  5
273
  8
PROFILEEDGES
 10
-1.299324855890727
 20
-2.236389845344702
 30
0.0
 40
0.0190136828257748
 41
0.0190136828257748
  0
VERTEX
  5
274
  8
PROFILEEDGES
 10
-1.320498236349227
 20
-2.227619543997507
 30
0.0
 40
0.0190136828257748
 41
0.0190136828257748
  0
SEQEND
  5
575
  8
PROFILEEDGES
  0
POLYLINE
  5
95
  8
PROFILEEDGES
 66
     1
 10
0.0
 20
0.0
 30
0.0
  0
VERTEX
  5
275
  8
PROFILEEDGES
 10
-1.320498236349227
 20
-2.227619543997507
 30
0.0
 40
0.0190136828257748
 41
0.0190136828257748
  0
VERTEX
  5
276
  8
PROFILEEDGES
 10
-1.340038959959581
 20
-2.215644973168258
 30
0.0
 40
0.0190136828257748
 41
0.0190136828257748
  0
SEQEND
  5
576
  8
PROFILEEDGES
  0
POLYLINE
  5
96
  8
PROFILEEDGES
 66
     1
 10
0.0
 20
0.0
 30
0.0
  0
VERTEX
  5
277
  8
PROFILEEDGES
 10
-1.35746586925456
 20
-2.200760986532091
 30
0.0
 40
0.0190136828257748
 41
0.0190136828257748
  0
VERTEX
  5
278
  8
PROFILEEDGES
 10
-1.340038959959581
 20
-2.215644973168258
 30
0.0
 40
0.0190136828257748
 41
0.0190136828257748
  0
SEQEND
  5
577
  8
PROFILEEDGES
  0
POLYLINE
  5
97
  8
PROFILEEDGES
 66
     1
 10
0.0
 20
0.0
 30
0.0
  0
VERTEX
  5
279
  8
PROFILEEDGES
 10
-1.35746586925456
 20
-2.200760986532091
 30
0.0
 40
0.0190136828257748
 41
0.0190136828257748
  0
VERTEX
  5
27A
  8
PROFILEEDGES
 10
-1.372349855890727
 20
-2.183334077237112
 30
0.0
 40
0.0190136828257748
 41
0.0190136828257748
  0
SEQEND
  5
578
  8
PROFILEEDGES
  0
POLYLINE
  5
98
  8
PROFILEEDGES
 66
     1
 10
0.0
 20
0.0
 30
0.0
  0
VERTEX
  5
27B
  8
PROFILEEDGES
 10
-1.384324426719976
 20
-2.163793353626758
 30
0.0
 40
0.0190136828257748
 41
0.0190136828257748
  0
VERTEX
  5
27C
  8
PROFILEEDGES
 10
-1.372349855890727
 20
-2.183334077237112
 30
0.0
 40
0.0190136828257748
 41
0.0190136828257748
  0
SEQEND
  5
579
  8
PROFILEEDGES
  0
POLYLINE
  5
99
  8
PROFILEEDGES
 66
     1
 10
0.0
 20
0.0
 30
0.0
  0
VERTEX
  5
27D
  8
PROFILEEDGES
 10
-1.384324426719976
 20
-2.163793353626758
 30
0.0
 40
0.0190136828257748
 41
0.0190136828257748
  0
VERTEX
  5
27E
  8
PROFILEEDGES
 10
-1.393094728067171
 20
-2.142619973168257
 30
0.0
 40
0.0190136828257748
 41
0.0190136828257748
  0
SEQEND
  5
57A
  8
PROFILEEDGES
  0
POLYLINE
  5
9A
  8
PROFILEEDGES
 66
     1
 10
0.0
 20
0.0
 30
0.0
  0
VERTEX
  5
27F
  8
PROFILEEDGES
 10
-1.393094728067171
 20
-2.142619973168257
 30
0.0
 40
0.0190136828257748
 41
0.0190136828257748
  0
VERTEX
  5
280
  8
PROFILEEDGES
 10
-1.398444806006184
 20
-2.120335294758922
 30
0.0
 40
0.0190136828257748
 41
0.0190136828257748
  0
SEQEND
  5
57B
  8
PROFILEEDGES
  0
POLYLINE
  5
9B
  8
PROFILEEDGES
 66
     1
 10
0.0
 20
0.0
 30
0.0
  0
VERTEX
  5
281
  8
PROFILEEDGES
 10
-1.393094728067171
 20
-2.052356109111334
 30
0.0
 40
0.0190136828257748
 41
0.0190136828257748
  0
VERTEX
  5
282
  8
PROFILEEDGES
 10
-1.398444806006184
 20
-2.07464078752067
 30
0.0
 40
0.0190136828257748
 41
0.0190136828257748
  0
SEQEND
  5
57C
  8
PROFILEEDGES
  0
POLYLINE
  5
9C
  8
PROFILEEDGES
 66
     1
 10
0.0
 20
0.0
 30
0.0
  0
VERTEX
  5
283
  8
PROFILEEDGES
 10
-1.400242923862265
 20
-2.097488041139796
 30
0.0
 40
0.0190136828257748
 41
0.0190136828257748
  0
VERTEX
  5
284
  8
PROFILEEDGES
 10
-1.398444806006184
 20
-2.07464078752067
 30
0.0
 40
0.0190136828257748
 41
0.0190136828257748
  0
SEQEND
  5
57D
  8
PROFILEEDGES
  0
POLYLINE
  5
9D
  8
PROFILEEDGES
 66
     1
 10
0.0
 20
0.0
 30
0.0
  0
VERTEX
  5
285
  8
PROFILEEDGES
 10
-1.398444806006184
 20
-2.120335294758922
 30
0.0
 40
0.0190136828257748
 41
0.0190136828257748
  0
VERTEX
  5
286
  8
PROFILEEDGES
 10
-1.400242923862265
 20
-2.097488041139796
 30
0.0
 40
0.0190136828257748
 41
0.0190136828257748
  0
SEQEND
  5
57E
  8
PROFILEEDGES
  0
POLYLINE
  5
9E
  8
PROFILEEDGES
 66
     1
 10
0.0
 20
0.0
 30
0.0
  0
VERTEX
  5
287
  8
PROFILEEDGES
 10
-1.393094728067171
 20
-2.052356109111334
 30
0.0
 40
0.0190136828257748
 41
0.0190136828257748
  0
VERTEX
  5
288
  8
PROFILEEDGES
 10
-1.384324426719976
 20
-2.031182728652833
 30
0.0
 40
0.0190136828257748
 41
0.0190136828257748
  0
SEQEND
  5
57F
  8
PROFILEEDGES
  0
POLYLINE
  5
9F
  8
PROFILEEDGES
 66
     1
 10
0.0
 20
0.0
 30
0.0
  0
VERTEX
  5
289
  8
PROFILEEDGES
 10
-1.384324426719976
 20
-2.031182728652833
 30
0.0
 40
0.0190136828257748
 41
0.0190136828257748
  0
VERTEX
  5
28A
  8
PROFILEEDGES
 10
-1.372349855890727
 20
-2.011642005042479
 30
0.0
 40
0.0190136828257748
 41
0.0190136828257748
  0
SEQEND
  5
580
  8
PROFILEEDGES
  0
POLYLINE
  5
A0
  8
PROFILEEDGES
 66
     1
 10
0.0
 20
0.0
 30
0.0
  0
VERTEX
  5
28B
  8
PROFILEEDGES
 10
-1.35746586925456
 20
-1.9942150957475
 30
0.0
 40
0.0190136828257748
 41
0.0190136828257748
  0
VERTEX
  5
28C
  8
PROFILEEDGES
 10
-1.372349855890727
 20
-2.011642005042479
 30
0.0
 40
0.0190136828257748
 41
0.0190136828257748
  0
SEQEND
  5
581
  8
PROFILEEDGES
  0
POLYLINE
  5
A1
  8
PROFILEEDGES
 66
     1
 10
0.0
 20
0.0
 30
0.0
  0
VERTEX
  5
28D
  8
PROFILEEDGES
 10
-1.35746586925456
 20
-1.9942150957475
 30
0.0
 40
0.0190136828257748
 41
0.0190136828257748
  0
VERTEX
  5
28E
  8
PROFILEEDGES
 10
-1.340038959959581
 20
-1.979331109111334
 30
0.0
 40
0.0190136828257748
 41
0.0190136828257748
  0
SEQEND
  5
582
  8
PROFILEEDGES
  0
POLYLINE
  5
A2
  8
PROFILEEDGES
 66
     1
 10
0.0
 20
0.0
 30
0.0
  0
VERTEX
  5
28F
  8
PROFILEEDGES
 10
-1.320498236349227
 20
-1.967356538282084
 30
0.0
 40
0.0190136828257748
 41
0.0190136828257748
  0
VERTEX
  5
290
  8
PROFILEEDGES
 10
-1.340038959959581
 20
-1.979331109111334
 30
0.0
 40
0.0190136828257748
 41
0.0190136828257748
  0
SEQEND
  5
583
  8
PROFILEEDGES
  0
POLYLINE
  5
A3
  8
PROFILEEDGES
 66
     1
 10
0.0
 20
0.0
 30
0.0
  0
VERTEX
  5
291
  8
PROFILEEDGES
 10
-1.320498236349227
 20
-1.967356538282084
 30
0.0
 40
0.0190136828257748
 41
0.0190136828257748
  0
VERTEX
  5
292
  8
PROFILEEDGES
 10
-1.299324855890727
 20
-1.958586236934889
 30
0.0
 40
0.0190136828257748
 41
0.0190136828257748
  0
SEQEND
  5
584
  8
PROFILEEDGES
  0
POLYLINE
  5
A4
  8
PROFILEEDGES
 66
     1
 10
0.0
 20
0.0
 30
0.0
  0
VERTEX
  5
293
  8
PROFILEEDGES
 10
-1.299324855890727
 20
-1.958586236934889
 30
0.0
 40
0.0190136828257748
 41
0.0190136828257748
  0
VERTEX
  5
294
  8
PROFILEEDGES
 10
-1.277040177481391
 20
-1.953236158995876
 30
0.0
 40
0.0190136828257748
 41
0.0190136828257748
  0
SEQEND
  5
585
  8
PROFILEEDGES
  0
POLYLINE
  5
A5
  8
PROFILEEDGES
 66
     1
 10
0.0
 20
0.0
 30
0.0
  0
VERTEX
  5
295
  8
PROFILEEDGES
 10
-1.254192923862265
 20
-1.951438041139796
 30
0.0
 40
0.0190136828257748
 41
0.0190136828257748
  0
VERTEX
  5
296
  8
PROFILEEDGES
 10
-1.277040177481391
 20
-1.953236158995876
 30
0.0
 40
0.0190136828257748
 41
0.0190136828257748
  0
SEQEND
  5
586
  8
PROFILEEDGES
  0
POLYLINE
  5
A6
  8
PROFILEEDGES
 66
     1
 10
0.0
 20
0.0
 30
0.0
  0
VERTEX
  5
297
  8
PROFILEEDGES
 10
-1.254192923862265
 20
-1.951438041139796
 30
0.0
 40
0.0190136828257748
 41
0.0190136828257748
  0
VERTEX
  5
298
  8
PROFILEEDGES
 10
-1.231345670243139
 20
-1.953236158995876
 30
0.0
 40
0.0190136828257748
 41
0.0190136828257748
  0
SEQEND
  5
587
  8
PROFILEEDGES
  0
POLYLINE
  5
A7
  8
PROFILEEDGES
 66
     1
 10
0.0
 20
0.0
 30
0.0
  0
VERTEX
  5
299
  8
PROFILEEDGES
 10
-1.209060991833803
 20
-1.958586236934889
 30
0.0
 40
0.0190136828257748
 41
0.0190136828257748
  0
VERTEX
  5
29A
  8
PROFILEEDGES
 10
-1.231345670243139
 20
-1.953236158995876
 30
0.0
 40
0.0190136828257748
 41
0.0190136828257748
  0
SEQEND
  5
588
  8
PROFILEEDGES
  0
POLYLINE
  5
A8
  8
PROFILEEDGES
 66
     1
 10
0.0
 20
0.0
 30
0.0
  0
VERTEX
  5
29B
  8
PROFILEEDGES
 10
-1.209060991833803
 20
-1.958586236934889
 30
0.0
 40
0.0190136828257748
 41
0.0190136828257748
  0
VERTEX
  5
29C
  8
PROFILEEDGES
 10
-1.187887611375303
 20
-1.967356538282084
 30
0.0
 40
0.0190136828257748
 41
0.0190136828257748
  0
SEQEND
  5
589
  8
PROFILEEDGES
  0
POLYLINE
  5
A9
  8
PROFILEEDGES
 66
     1
 10
0.0
 20
0.0
 30
0.0
  0
VERTEX
  5
29D
  8
PROFILEEDGES
 10
-1.187887611375303
 20
-1.967356538282084
 30
0.0
 40
0.0190136828257748
 41
0.0190136828257748
  0
VERTEX
  5
29E
  8
PROFILEEDGES
 10
-1.168346887764949
 20
-1.979331109111334
 30
0.0
 40
0.0190136828257748
 41
0.0190136828257748
  0
SEQEND
  5
58A
  8
PROFILEEDGES
  0
POLYLINE
  5
AA
  8
PROFILEEDGES
 66
     1
 10
0.0
 20
0.0
 30
0.0
  0
VERTEX
  5
29F
  8
PROFILEEDGES
 10
-1.15091997846997
 20
-1.9942150957475
 30
0.0
 40
0.0190136828257748
 41
0.0190136828257748
  0
VERTEX
  5
2A0
  8
PROFILEEDGES
 10
-1.168346887764949
 20
-1.979331109111334
 30
0.0
 40
0.0190136828257748
 41
0.0190136828257748
  0
SEQEND
  5
58B
  8
PROFILEEDGES
  0
POLYLINE
  5
AB
  8
PROFILEEDGES
 66
     1
 10
0.0
 20
0.0
 30
0.0
  0
VERTEX
  5
2A1
  8
PROFILEEDGES
 10
-1.15091997846997
 20
-1.9942150957475
 30
0.0
 40
0.0190136828257748
 41
0.0190136828257748
  0
VERTEX
  5
2A2
  8
PROFILEEDGES
 10
-1.136035991833803
 20
-2.011642005042479
 30
0.0
 40
0.0190136828257748
 41
0.0190136828257748
  0
SEQEND
  5
58C
  8
PROFILEEDGES
  0
POLYLINE
  5
AC
  8
PROFILEEDGES
 66
     1
 10
0.0
 20
0.0
 30
0.0
  0
VERTEX
  5
2A3
  8
PROFILEEDGES
 10
-1.124061421004553
 20
-2.031182728652833
 30
0.0
 40
0.0190136828257748
 41
0.0190136828257748
  0
VERTEX
  5
2A4
  8
PROFILEEDGES
 10
-1.136035991833803
 20
-2.011642005042479
 30
0.0
 40
0.0190136828257748
 41
0.0190136828257748
  0
SEQEND
  5
58D
  8
PROFILEEDGES
  0
POLYLINE
  5
AD
  8
PROFILEEDGES
 66
     1
 10
0.0
 20
0.0
 30
0.0
  0
VERTEX
  5
2A5
  8
PROFILEEDGES
 10
-1.124061421004553
 20
-2.031182728652833
 30
0.0
 40
0.0190136828257748
 41
0.0190136828257748
  0
VERTEX
  5
2A6
  8
PROFILEEDGES
 10
-1.115291119657358
 20
-2.052356109111334
 30
0.0
 40
0.0190136828257748
 41
0.0190136828257748
  0
SEQEND
  5
58E
  8
PROFILEEDGES
  0
POLYLINE
  5
AE
  8
PROFILEEDGES
 66
     1
 10
0.0
 20
0.0
 30
0.0
  0
VERTEX
  5
2A7
  8
PROFILEEDGES
 10
-1.115291119657358
 20
-2.052356109111334
 30
0.0
 40
0.0190136828257748
 41
0.0190136828257748
  0
VERTEX
  5
2A8
  8
PROFILEEDGES
 10
-1.109941041718346
 20
-2.07464078752067
 30
0.0
 40
0.0190136828257748
 41
0.0190136828257748
  0
SEQEND
  5
58F
  8
PROFILEEDGES
  0
POLYLINE
  5
AF
  8
PROFILEEDGES
 66
     1
 10
0.0
 20
0.0
 30
0.0
  0
VERTEX
  5
2A9
  8
PROFILEEDGES
 10
-1.108142923862265
 20
-2.097488041139796
 30
0.0
 40
0.0190136828257748
 41
0.0190136828257748
  0
VERTEX
  5
2AA
  8
PROFILEEDGES
 10
-1.109941041718346
 20
-2.07464078752067
 30
0.0
 40
0.0190136828257748
 41
0.0190136828257748
  0
SEQEND
  5
590
  8
PROFILEEDGES
  0
POLYLINE
  5
B0
  8
PROFILEEDGES
 66
     1
 10
0.0
 20
0.0
 30
0.0
  0
VERTEX
  5
2AB
  8
PROFILEEDGES
 10
-5.172142923862265
 20
-2.097488041139796
 30
0.0
 40
0.0190136828257748
 41
0.0190136828257748
  0
VERTEX
  5
2AC
  8
PROFILEEDGES
 10
-5.173941041718345
 20
-2.120335294758922
 30
0.0
 40
0.0190136828257748
 41
0.0190136828257748
  0
SEQEND
  5
591
  8
PROFILEEDGES
  0
POLYLINE
  5
B1
  8
PROFILEEDGES
 66
     1
 10
0.0
 20
0.0
 30
0.0
  0
VERTEX
  5
2AD
  8
PROFILEEDGES
 10
-5.179291119657358
 20
-2.142619973168257
 30
0.0
 40
0.0190136828257748
 41
0.0190136828257748
  0
VERTEX
  5
2AE
  8
PROFILEEDGES
 10
-5.173941041718345
 20
-2.120335294758922
 30
0.0
 40
0.0190136828257748
 41
0.0190136828257748
  0
SEQEND
  5
592
  8
PROFILEEDGES
  0
POLYLINE
  5
B2
  8
PROFILEEDGES
 66
     1
 10
0.0
 20
0.0
 30
0.0
  0
VERTEX
  5
2AF
  8
PROFILEEDGES
 10
-5.179291119657358
 20
-2.142619973168257
 30
0.0
 40
0.0190136828257748
 41
0.0190136828257748
  0
VERTEX
  5
2B0
  8
PROFILEEDGES
 10
-5.188061421004553
 20
-2.163793353626758
 30
0.0
 40
0.0190136828257748
 41
0.0190136828257748
  0
SEQEND
  5
593
  8
PROFILEEDGES
  0
POLYLINE
  5
B3
  8
PROFILEEDGES
 66
     1
 10
0.0
 20
0.0
 30
0.0
  0
VERTEX
  5
2B1
  8
PROFILEEDGES
 10
-5.188061421004553
 20
-2.163793353626758
 30
0.0
 40
0.0190136828257748
 41
0.0190136828257748
  0
VERTEX
  5
2B2
  8
PROFILEEDGES
 10
-5.200035991833802
 20
-2.183334077237112
 30
0.0
 40
0.0190136828257748
 41
0.0190136828257748
  0
SEQEND
  5
594
  8
PROFILEEDGES
  0
POLYLINE
  5
B4
  8
PROFILEEDGES
 66
     1
 10
0.0
 20
0.0
 30
0.0
  0
VERTEX
  5
2B3
  8
PROFILEEDGES
 10
-5.214919978469969
 20
-2.200760986532091
 30
0.0
 40
0.0190136828257748
 41
0.0190136828257748
  0
VERTEX
  5
2B4
  8
PROFILEEDGES
 10
-5.200035991833802
 20
-2.183334077237112
 30
0.0
 40
0.0190136828257748
 41
0.0190136828257748
  0
SEQEND
  5
595
  8
PROFILEEDGES
  0
POLYLINE
  5
B5
  8
PROFILEEDGES
 66
     1
 10
0.0
 20
0.0
 30
0.0
  0
VERTEX
  5
2B5
  8
PROFILEEDGES
 10
-5.214919978469969
 20
-2.200760986532091
 30
0.0
 40
0.0190136828257748
 41
0.0190136828257748
  0
VERTEX
  5
2B6
  8
PROFILEEDGES
 10
-5.232346887764948
 20
-2.215644973168258
 30
0.0
 40
0.0190136828257748
 41
0.0190136828257748
  0
SEQEND
  5
596
  8
PROFILEEDGES
  0
POLYLINE
  5
B6
  8
PROFILEEDGES
 66
     1
 10
0.0
 20
0.0
 30
0.0
  0
VERTEX
  5
2B7
  8
PROFILEEDGES
 10
-5.251887611375302
 20
-2.227619543997507
 30
0.0
 40
0.0190136828257748
 41
0.0190136828257748
  0
VERTEX
  5
2B8
  8
PROFILEEDGES
 10
-5.232346887764948
 20
-2.215644973168258
 30
0.0
 40
0.0190136828257748
 41
0.0190136828257748
  0
SEQEND
  5
597
  8
PROFILEEDGES
  0
POLYLINE
  5
B7
  8
PROFILEEDGES
 66
     1
 10
0.0
 20
0.0
 30
0.0
  0
VERTEX
  5
2B9
  8
PROFILEEDGES
 10
-5.251887611375302
 20
-2.227619543997507
 30
0.0
 40
0.0190136828257748
 41
0.0190136828257748
  0
VERTEX
  5
2BA
  8
PROFILEEDGES
 10
-5.273060991833803
 20
-2.236389845344702
 30
0.0
 40
0.0190136828257748
 41
0.0190136828257748
  0
SEQEND
  5
598
  8
PROFILEEDGES
  0
POLYLINE
  5
B8
  8
PROFILEEDGES
 66
     1
 10
0.0
 20
0.0
 30
0.0
  0
VERTEX
  5
2BB
  8
PROFILEEDGES
 10
-5.273060991833803
 20
-2.236389845344702
 30
0.0
 40
0.0190136828257748
 41
0.0190136828257748
  0
VERTEX
  5
2BC
  8
PROFILEEDGES
 10
-5.295345670243139
 20
-2.241739923283715
 30
0.0
 40
0.0190136828257748
 41
0.0190136828257748
  0
SEQEND
  5
599
  8
PROFILEEDGES
  0
POLYLINE
  5
B9
  8
PROFILEEDGES
 66
     1
 10
0.0
 20
0.0
 30
0.0
  0
VERTEX
  5
2BD
  8
PROFILEEDGES
 10
-5.318192923862265
 20
-2.243538041139796
 30
0.0
 40
0.0190136828257748
 41
0.0190136828257748
  0
VERTEX
  5
2BE
  8
PROFILEEDGES
 10
-5.295345670243139
 20
-2.241739923283715
 30
0.0
 40
0.0190136828257748
 41
0.0190136828257748
  0
SEQEND
  5
59A
  8
PROFILEEDGES
  0
POLYLINE
  5
BA
  8
PROFILEEDGES
 66
     1
 10
0.0
 20
0.0
 30
0.0
  0
VERTEX
  5
2BF
  8
PROFILEEDGES
 10
-5.318192923862265
 20
-2.243538041139796
 30
0.0
 40
0.0190136828257748
 41
0.0190136828257748
  0
VERTEX
  5
2C0
  8
PROFILEEDGES
 10
-5.341040177481391
 20
-2.241739923283715
 30
0.0
 40
0.0190136828257748
 41
0.0190136828257748
  0
SEQEND
  5
59B
  8
PROFILEEDGES
  0
POLYLINE
  5
BB
  8
PROFILEEDGES
 66
     1
 10
0.0
 20
0.0
 30
0.0
  0
VERTEX
  5
2C1
  8
PROFILEEDGES
 10
-5.363324855890727
 20
-2.236389845344702
 30
0.0
 40
0.0190136828257748
 41
0.0190136828257748
  0
VERTEX
  5
2C2
  8
PROFILEEDGES
 10
-5.341040177481391
 20
-2.241739923283715
 30
0.0
 40
0.0190136828257748
 41
0.0190136828257748
  0
SEQEND
  5
59C
  8
PROFILEEDGES
  0
POLYLINE
  5
BC
  8
PROFILEEDGES
 66
     1
 10
0.0
 20
0.0
 30
0.0
  0
VERTEX
  5
2C3
  8
PROFILEEDGES
 10
-5.363324855890727
 20
-2.236389845344702
 30
0.0
 40
0.0190136828257748
 41
0.0190136828257748
  0
VERTEX
  5
2C4
  8
PROFILEEDGES
 10
-5.384498236349227
 20
-2.227619543997507
 30
0.0
 40
0.0190136828257748
 41
0.0190136828257748
  0
SEQEND
  5
59D
  8
PROFILEEDGES
  0
POLYLINE
  5
BD
  8
PROFILEEDGES
 66
     1
 10
0.0
 20
0.0
 30
0.0
  0
VERTEX
  5
2C5
  8
PROFILEEDGES
 10
-5.384498236349227
 20
-2.227619543997507
 30
0.0
 40
0.0190136828257748
 41
0.0190136828257748
  0
VERTEX
  5
2C6
  8
PROFILEEDGES
 10
-5.404038959959581
 20
-2.215644973168258
 30
0.0
 40
0.0190136828257748
 41
0.0190136828257748
  0
SEQEND
  5
59E
  8
PROFILEEDGES
  0
POLYLINE
  5
BE
  8
PROFILEEDGES
 66
     1
 10
0.0
 20
0.0
 30
0.0
  0
VERTEX
  5
2C7
  8
PROFILEEDGES
 10
-5.42146586925456
 20
-2.200760986532091
 30
0.0
 40
0.0190136828257748
 41
0.0190136828257748
  0
VERTEX
  5
2C8
  8
PROFILEEDGES
 10
-5.404038959959581
 20
-2.215644973168258
 30
0.0
 40
0.0190136828257748
 41
0.0190136828257748
  0
SEQEND
  5
59F
  8
PROFILEEDGES
  0
POLYLINE
  5
BF
  8
PROFILEEDGES
 66
     1
 10
0.0
 20
0.0
 30
0.0
  0
VERTEX
  5
2C9
  8
PROFILEEDGES
 10
-5.42146586925456
 20
-2.200760986532091
 30
0.0
 40
0.0190136828257748
 41
0.0190136828257748
  0
VERTEX
  5
2CA
  8
PROFILEEDGES
 10
-5.436349855890727
 20
-2.183334077237112
 30
0.0
 40
0.0190136828257748
 41
0.0190136828257748
  0
SEQEND
  5
5A0
  8
PROFILEEDGES
  0
POLYLINE
  5
C0
  8
PROFILEEDGES
 66
     1
 10
0.0
 20
0.0
 30
0.0
  0
VERTEX
  5
2CB
  8
PROFILEEDGES
 10
-5.448324426719976
 20
-2.163793353626758
 30
0.0
 40
0.0190136828257748
 41
0.0190136828257748
  0
VERTEX
  5
2CC
  8
PROFILEEDGES
 10
-5.436349855890727
 20
-2.183334077237112
 30
0.0
 40
0.0190136828257748
 41
0.0190136828257748
  0
SEQEND
  5
5A1
  8
PROFILEEDGES
  0
POLYLINE
  5
C1
  8
PROFILEEDGES
 66
     1
 10
0.0
 20
0.0
 30
0.0
  0
VERTEX
  5
2CD
  8
PROFILEEDGES
 10
-5.448324426719976
 20
-2.163793353626758
 30
0.0
 40
0.0190136828257748
 41
0.0190136828257748
  0
VERTEX
  5
2CE
  8
PROFILEEDGES
 10
-5.457094728067172
 20
-2.142619973168257
 30
0.0
 40
0.0190136828257748
 41
0.0190136828257748
  0
SEQEND
  5
5A2
  8
PROFILEEDGES
  0
POLYLINE
  5
C2
  8
PROFILEEDGES
 66
     1
 10
0.0
 20
0.0
 30
0.0
  0
VERTEX
  5
2CF
  8
PROFILEEDGES
 10
-5.457094728067172
 20
-2.142619973168257
 30
0.0
 40
0.0190136828257748
 41
0.0190136828257748
  0
VERTEX
  5
2D0
  8
PROFILEEDGES
 10
-5.462444806006184
 20
-2.120335294758922
 30
0.0
 40
0.0190136828257748
 41
0.0190136828257748
  0
SEQEND
  5
5A3
  8
PROFILEEDGES
  0
POLYLINE
  5
C3
  8
PROFILEEDGES
 66
     1
 10
0.0
 20
0.0
 30
0.0
  0
VERTEX
  5
2D1
  8
PROFILEEDGES
 10
-5.457094728067172
 20
-2.052356109111334
 30
0.0
 40
0.0190136828257748
 41
0.0190136828257748
  0
VERTEX
  5
2D2
  8
PROFILEEDGES
 10
-5.462444806006184
 20
-2.07464078752067
 30
0.0
 40
0.0190136828257748
 41
0.0190136828257748
  0
SEQEND
  5
5A4
  8
PROFILEEDGES
  0
POLYLINE
  5
C4
  8
PROFILEEDGES
 66
     1
 10
0.0
 20
0.0
 30
0.0
  0
VERTEX
  5
2D3
  8
PROFILEEDGES
 10
-5.464242923862265
 20
-2.097488041139796
 30
0.0
 40
0.0190136828257748
 41
0.0190136828257748
  0
VERTEX
  5
2D4
  8
PROFILEEDGES
 10
-5.462444806006184
 20
-2.07464078752067
 30
0.0
 40
0.0190136828257748
 41
0.0190136828257748
  0
SEQEND
  5
5A5
  8
PROFILEEDGES
  0
POLYLINE
  5
C5
  8
PROFILEEDGES
 66
     1
 10
0.0
 20
0.0
 30
0.0
  0
VERTEX
  5
2D5
  8
PROFILEEDGES
 10
-5.462444806006184
 20
-2.120335294758922
 30
0.0
 40
0.0190136828257748
 41
0.0190136828257748
  0
VERTEX
  5
2D6
  8
PROFILEEDGES
 10
-5.464242923862265
 20
-2.097488041139796
 30
0.0
 40
0.0190136828257748
 41
0.0190136828257748
  0
SEQEND
  5
5A6
  8
PROFILEEDGES
  0
POLYLINE
  5
C6
  8
PROFILEEDGES
 66
     1
 10
0.0
 20
0.0
 30
0.0
  0
VERTEX
  5
2D7
  8
PROFILEEDGES
 10
-5.457094728067172
 20
-2.052356109111334
 30
0.0
 40
0.0190136828257748
 41
0.0190136828257748
  0
VERTEX
  5
2D8
  8
PROFILEEDGES
 10
-5.448324426719976
 20
-2.031182728652833
 30
0.0
 40
0.0190136828257748
 41
0.0190136828257748
  0
SEQEND
  5
5A7
  8
PROFILEEDGES
  0
POLYLINE
  5
C7
  8
PROFILEEDGES
 66
     1
 10
0.0
 20
0.0
 30
0.0
  0
VERTEX
  5
2D9
  8
PROFILEEDGES
 10
-5.448324426719976
 20
-2.031182728652833
 30
0.0
 40
0.0190136828257748
 41
0.0190136828257748
  0
VERTEX
  5
2DA
  8
PROFILEEDGES
 10
-5.436349855890727
 20
-2.011642005042479
 30
0.0
 40
0.0190136828257748
 41
0.0190136828257748
  0
SEQEND
  5
5A8
  8
PROFILEEDGES
  0
POLYLINE
  5
C8
  8
PROFILEEDGES
 66
     1
 10
0.0
 20
0.0
 30
0.0
  0
VERTEX
  5
2DB
  8
PROFILEEDGES
 10
-5.42146586925456
 20
-1.9942150957475
 30
0.0
 40
0.0190136828257748
 41
0.0190136828257748
  0
VERTEX
  5
2DC
  8
PROFILEEDGES
 10
-5.436349855890727
 20
-2.011642005042479
 30
0.0
 40
0.0190136828257748
 41
0.0190136828257748
  0
SEQEND
  5
5A9
  8
PROFILEEDGES
  0
POLYLINE
  5
C9
  8
PROFILEEDGES
 66
     1
 10
0.0
 20
0.0
 30
0.0
  0
VERTEX
  5
2DD
  8
PROFILEEDGES
 10
-5.42146586925456
 20
-1.9942150957475
 30
0.0
 40
0.0190136828257748
 41
0.0190136828257748
  0
VERTEX
  5
2DE
  8
PROFILEEDGES
 10
-5.404038959959581
 20
-1.979331109111334
 30
0.0
 40
0.0190136828257748
 41
0.0190136828257748
  0
SEQEND
  5
5AA
  8
PROFILEEDGES
  0
POLYLINE
  5
CA
  8
PROFILEEDGES
 66
     1
 10
0.0
 20
0.0
 30
0.0
  0
VERTEX
  5
2DF
  8
PROFILEEDGES
 10
-5.384498236349227
 20
-1.967356538282084
 30
0.0
 40
0.0190136828257748
 41
0.0190136828257748
  0
VERTEX
  5
2E0
  8
PROFILEEDGES
 10
-5.404038959959581
 20
-1.979331109111334
 30
0.0
 40
0.0190136828257748
 41
0.0190136828257748
  0
SEQEND
  5
5AB
  8
PROFILEEDGES
  0
POLYLINE
  5
CB
  8
PROFILEEDGES
 66
     1
 10
0.0
 20
0.0
 30
0.0
  0
VERTEX
  5
2E1
  8
PROFILEEDGES
 10
-5.384498236349227
 20
-1.967356538282084
 30
0.0
 40
0.0190136828257748
 41
0.0190136828257748
  0
VERTEX
  5
2E2
  8
PROFILEEDGES
 10
-5.363324855890727
 20
-1.958586236934889
 30
0.0
 40
0.0190136828257748
 41
0.0190136828257748
  0
SEQEND
  5
5AC
  8
PROFILEEDGES
  0
POLYLINE
  5
CC
  8
PROFILEEDGES
 66
     1
 10
0.0
 20
0.0
 30
0.0
  0
VERTEX
  5
2E3
  8
PROFILEEDGES
 10
-5.363324855890727
 20
-1.958586236934889
 30
0.0
 40
0.0190136828257748
 41
0.0190136828257748
  0
VERTEX
  5
2E4
  8
PROFILEEDGES
 10
-5.341040177481391
 20
-1.953236158995876
 30
0.0
 40
0.0190136828257748
 41
0.0190136828257748
  0
SEQEND
  5
5AD
  8
PROFILEEDGES
  0
POLYLINE
  5
CD
  8
PROFILEEDGES
 66
     1
 10
0.0
 20
0.0
 30
0.0
  0
VERTEX
  5
2E5
  8
PROFILEEDGES
 10
-5.318192923862265
 20
-1.951438041139796
 30
0.0
 40
0.0190136828257748
 41
0.0190136828257748
  0
VERTEX
  5
2E6
  8
PROFILEEDGES
 10
-5.341040177481391
 20
-1.953236158995876
 30
0.0
 40
0.0190136828257748
 41
0.0190136828257748
  0
SEQEND
  5
5AE
  8
PROFILEEDGES
  0
POLYLINE
  5
CE
  8
PROFILEEDGES
 66
     1
 10
0.0
 20
0.0
 30
0.0
  0
VERTEX
  5
2E7
  8
PROFILEEDGES
 10
-5.318192923862265
 20
-1.951438041139796
 30
0.0
 40
0.0190136828257748
 41
0.0190136828257748
  0
VERTEX
  5
2E8
  8
PROFILEEDGES
 10
-5.295345670243139
 20
-1.953236158995876
 30
0.0
 40
0.0190136828257748
 41
0.0190136828257748
  0
SEQEND
  5
5AF
  8
PROFILEEDGES
  0
POLYLINE
  5
CF
  8
PROFILEEDGES
 66
     1
 10
0.0
 20
0.0
 30
0.0
  0
VERTEX
  5
2E9
  8
PROFILEEDGES
 10
-5.273060991833803
 20
-1.958586236934889
 30
0.0
 40
0.0190136828257748
 41
0.0190136828257748
  0
VERTEX
  5
2EA
  8
PROFILEEDGES
 10
-5.295345670243139
 20
-1.953236158995876
 30
0.0
 40
0.0190136828257748
 41
0.0190136828257748
  0
SEQEND
  5
5B0
  8
PROFILEEDGES
  0
POLYLINE
  5
D0
  8
PROFILEEDGES
 66
     1
 10
0.0
 20
0.0
 30
0.0
  0
VERTEX
  5
2EB
  8
PROFILEEDGES
 10
-5.273060991833803
 20
-1.958586236934889
 30
0.0
 40
0.0190136828257748
 41
0.0190136828257748
  0
VERTEX
  5
2EC
  8
PROFILEEDGES
 10
-5.251887611375302
 20
-1.967356538282084
 30
0.0
 40
0.0190136828257748
 41
0.0190136828257748
  0
SEQEND
  5
5B1
  8
PROFILEEDGES
  0
POLYLINE
  5
D1
  8
PROFILEEDGES
 66
     1
 10
0.0
 20
0.0
 30
0.0
  0
VERTEX
  5
2ED
  8
PROFILEEDGES
 10
-5.251887611375302
 20
-1.967356538282084
 30
0.0
 40
0.0190136828257748
 41
0.0190136828257748
  0
VERTEX
  5
2EE
  8
PROFILEEDGES
 10
-5.232346887764948
 20
-1.979331109111334
 30
0.0
 40
0.0190136828257748
 41
0.0190136828257748
  0
SEQEND
  5
5B2
  8
PROFILEEDGES
  0
POLYLINE
  5
D2
  8
PROFILEEDGES
 66
     1
 10
0.0
 20
0.0
 30
0.0
  0
VERTEX
  5
2EF
  8
PROFILEEDGES
 10
-5.214919978469969
 20
-1.9942150957475
 30
0.0
 40
0.0190136828257748
 41
0.0190136828257748
  0
VERTEX
  5
2F0
  8
PROFILEEDGES
 10
-5.232346887764948
 20
-1.979331109111334
 30
0.0
 40
0.0190136828257748
 41
0.0190136828257748
  0
SEQEND
  5
5B3
  8
PROFILEEDGES
  0
POLYLINE
  5
D3
  8
PROFILEEDGES
 66
     1
 10
0.0
 20
0.0
 30
0.0
  0
VERTEX
  5
2F1
  8
PROFILEEDGES
 10
-5.214919978469969
 20
-1.9942150957475
 30
0.0
 40
0.0190136828257748
 41
0.0190136828257748
  0
VERTEX
  5
2F2
  8
PROFILEEDGES
 10
-5.200035991833802
 20
-2.011642005042479
 30
0.0
 40
0.0190136828257748
 41
0.0190136828257748
  0
SEQEND
  5
5B4
  8
PROFILEEDGES
  0
POLYLINE
  5
D4
  8
PROFILEEDGES
 66
     1
 10
0.0
 20
0.0
 30
0.0
  0
VERTEX
  5
2F3
  8
PROFILEEDGES
 10
-5.188061421004553
 20
-2.031182728652833
 30
0.0
 40
0.0190136828257748
 41
0.0190136828257748
  0
VERTEX
  5
2F4
  8
PROFILEEDGES
 10
-5.200035991833802
 20
-2.011642005042479
 30
0.0
 40
0.0190136828257748
 41
0.0190136828257748
  0
SEQEND
  5
5B5
  8
PROFILEEDGES
  0
POLYLINE
  5
D5
  8
PROFILEEDGES
 66
     1
 10
0.0
 20
0.0
 30
0.0
  0
VERTEX
  5
2F5
  8
PROFILEEDGES
 10
-5.188061421004553
 20
-2.031182728652833
 30
0.0
 40
0.0190136828257748
 41
0.0190136828257748
  0
VERTEX
  5
2F6
  8
PROFILEEDGES
 10
-5.179291119657358
 20
-2.052356109111334
 30
0.0
 40
0.0190136828257748
 41
0.0190136828257748
  0
SEQEND
  5
5B6
  8
PROFILEEDGES
  0
POLYLINE
  5
D6
  8
PROFILEEDGES
 66
     1
 10
0.0
 20
0.0
 30
0.0
  0
VERTEX
  5
2F7
  8
PROFILEEDGES
 10
-5.179291119657358
 20
-2.052356109111334
 30
0.0
 40
0.0190136828257748
 41
0.0190136828257748
  0
VERTEX
  5
2F8
  8
PROFILEEDGES
 10
-5.173941041718345
 20
-2.07464078752067
 30
0.0
 40
0.0190136828257748
 41
0.0190136828257748
  0
SEQEND
  5
5B7
  8
PROFILEEDGES
  0
POLYLINE
  5
D7
  8
PROFILEEDGES
 66
     1
 10
0.0
 20
0.0
 30
0.0
  0
VERTEX
  5
2F9
  8
PROFILEEDGES
 10
-5.172142923862265
 20
-2.097488041139796
 30
0.0
 40
0.0190136828257748
 41
0.0190136828257748
  0
VERTEX
  5
2FA
  8
PROFILEEDGES
 10
-5.173941041718345
 20
-2.07464078752067
 30
0.0
 40
0.0190136828257748
 41
0.0190136828257748
  0
SEQEND
  5
5B8
  8
PROFILEEDGES
  0
POLYLINE
  5
D8
  8
PROFILEEDGES
 66
     1
 10
0.0
 20
0.0
 30
0.0
  0
VERTEX
  5
2FB
  8
PROFILEEDGES
 10
-5.172142923862265
 20
1.966511958860204
 30
0.0
 40
0.0190136828257748
 41
0.0190136828257748
  0
VERTEX
  5
2FC
  8
PROFILEEDGES
 10
-5.173941041718345
 20
1.943664705241078
 30
0.0
 40
0.0190136828257748
 41
0.0190136828257748
  0
SEQEND
  5
5B9
  8
PROFILEEDGES
  0
POLYLINE
  5
D9
  8
PROFILEEDGES
 66
     1
 10
0.0
 20
0.0
 30
0.0
  0
VERTEX
  5
2FD
  8
PROFILEEDGES
 10
-5.179291119657358
 20
1.921380026831742
 30
0.0
 40
0.0190136828257748
 41
0.0190136828257748
  0
VERTEX
  5
2FE
  8
PROFILEEDGES
 10
-5.173941041718345
 20
1.943664705241078
 30
0.0
 40
0.0190136828257748
 41
0.0190136828257748
  0
SEQEND
  5
5BA
  8
PROFILEEDGES
  0
POLYLINE
  5
DA
  8
PROFILEEDGES
 66
     1
 10
0.0
 20
0.0
 30
0.0
  0
VERTEX
  5
2FF
  8
PROFILEEDGES
 10
-5.179291119657358
 20
1.921380026831742
 30
0.0
 40
0.0190136828257748
 41
0.0190136828257748
  0
VERTEX
  5
300
  8
PROFILEEDGES
 10
-5.188061421004553
 20
1.900206646373242
 30
0.0
 40
0.0190136828257748
 41
0.0190136828257748
  0
SEQEND
  5
5BB
  8
PROFILEEDGES
  0
POLYLINE
  5
DB
  8
PROFILEEDGES
 66
     1
 10
0.0
 20
0.0
 30
0.0
  0
VERTEX
  5
301
  8
PROFILEEDGES
 10
-5.188061421004553
 20
1.900206646373242
 30
0.0
 40
0.0190136828257748
 41
0.0190136828257748
  0
VERTEX
  5
302
  8
PROFILEEDGES
 10
-5.200035991833802
 20
1.880665922762888
 30
0.0
 40
0.0190136828257748
 41
0.0190136828257748
  0
SEQEND
  5
5BC
  8
PROFILEEDGES
  0
POLYLINE
  5
DC
  8
PROFILEEDGES
 66
     1
 10
0.0
 20
0.0
 30
0.0
  0
VERTEX
  5
303
  8
PROFILEEDGES
 10
-5.214919978469969
 20
1.863239013467909
 30
0.0
 40
0.0190136828257748
 41
0.0190136828257748
  0
VERTEX
  5
304
  8
PROFILEEDGES
 10
-5.200035991833802
 20
1.880665922762888
 30
0.0
 40
0.0190136828257748
 41
0.0190136828257748
  0
SEQEND
  5
5BD
  8
PROFILEEDGES
  0
POLYLINE
  5
DD
  8
PROFILEEDGES
 66
     1
 10
0.0
 20
0.0
 30
0.0
  0
VERTEX
  5
305
  8
PROFILEEDGES
 10
-5.214919978469969
 20
1.863239013467909
 30
0.0
 40
0.0190136828257748
 41
0.0190136828257748
  0
VERTEX
  5
306
  8
PROFILEEDGES
 10
-5.232346887764948
 20
1.848355026831742
 30
0.0
 40
0.0190136828257748
 41
0.0190136828257748
  0
SEQEND
  5
5BE
  8
PROFILEEDGES
  0
POLYLINE
  5
DE
  8
PROFILEEDGES
 66
     1
 10
0.0
 20
0.0
 30
0.0
  0
VERTEX
  5
307
  8
PROFILEEDGES
 10
-5.251887611375302
 20
1.836380456002493
 30
0.0
 40
0.0190136828257748
 41
0.0190136828257748
  0
VERTEX
  5
308
  8
PROFILEEDGES
 10
-5.232346887764948
 20
1.848355026831742
 30
0.0
 40
0.0190136828257748
 41
0.0190136828257748
  0
SEQEND
  5
5BF
  8
PROFILEEDGES
  0
POLYLINE
  5
DF
  8
PROFILEEDGES
 66
     1
 10
0.0
 20
0.0
 30
0.0
  0
VERTEX
  5
309
  8
PROFILEEDGES
 10
-5.251887611375302
 20
1.836380456002493
 30
0.0
 40
0.0190136828257748
 41
0.0190136828257748
  0
VERTEX
  5
30A
  8
PROFILEEDGES
 10
-5.273060991833803
 20
1.827610154655298
 30
0.0
 40
0.0190136828257748
 41
0.0190136828257748
  0
SEQEND
  5
5C0
  8
PROFILEEDGES
  0
POLYLINE
  5
E0
  8
PROFILEEDGES
 66
     1
 10
0.0
 20
0.0
 30
0.0
  0
VERTEX
  5
30B
  8
PROFILEEDGES
 10
-5.273060991833803
 20
1.827610154655298
 30
0.0
 40
0.0190136828257748
 41
0.0190136828257748
  0
VERTEX
  5
30C
  8
PROFILEEDGES
 10
-5.295345670243139
 20
1.822260076716285
 30
0.0
 40
0.0190136828257748
 41
0.0190136828257748
  0
SEQEND
  5
5C1
  8
PROFILEEDGES
  0
POLYLINE
  5
E1
  8
PROFILEEDGES
 66
     1
 10
0.0
 20
0.0
 30
0.0
  0
VERTEX
  5
30D
  8
PROFILEEDGES
 10
-5.318192923862265
 20
1.820461958860204
 30
0.0
 40
0.0190136828257748
 41
0.0190136828257748
  0
VERTEX
  5
30E
  8
PROFILEEDGES
 10
-5.295345670243139
 20
1.822260076716285
 30
0.0
 40
0.0190136828257748
 41
0.0190136828257748
  0
SEQEND
  5
5C2
  8
PROFILEEDGES
  0
POLYLINE
  5
E2
  8
PROFILEEDGES
 66
     1
 10
0.0
 20
0.0
 30
0.0
  0
VERTEX
  5
30F
  8
PROFILEEDGES
 10
-5.318192923862265
 20
1.820461958860204
 30
0.0
 40
0.0190136828257748
 41
0.0190136828257748
  0
VERTEX
  5
310
  8
PROFILEEDGES
 10
-5.341040177481391
 20
1.822260076716285
 30
0.0
 40
0.0190136828257748
 41
0.0190136828257748
  0
SEQEND
  5
5C3
  8
PROFILEEDGES
  0
POLYLINE
  5
E3
  8
PROFILEEDGES
 66
     1
 10
0.0
 20
0.0
 30
0.0
  0
VERTEX
  5
311
  8
PROFILEEDGES
 10
-5.363324855890727
 20
1.827610154655298
 30
0.0
 40
0.0190136828257748
 41
0.0190136828257748
  0
VERTEX
  5
312
  8
PROFILEEDGES
 10
-5.341040177481391
 20
1.822260076716285
 30
0.0
 40
0.0190136828257748
 41
0.0190136828257748
  0
SEQEND
  5
5C4
  8
PROFILEEDGES
  0
POLYLINE
  5
E4
  8
PROFILEEDGES
 66
     1
 10
0.0
 20
0.0
 30
0.0
  0
VERTEX
  5
313
  8
PROFILEEDGES
 10
-5.363324855890727
 20
1.827610154655298
 30
0.0
 40
0.0190136828257748
 41
0.0190136828257748
  0
VERTEX
  5
314
  8
PROFILEEDGES
 10
-5.384498236349227
 20
1.836380456002493
 30
0.0
 40
0.0190136828257748
 41
0.0190136828257748
  0
SEQEND
  5
5C5
  8
PROFILEEDGES
  0
POLYLINE
  5
E5
  8
PROFILEEDGES
 66
     1
 10
0.0
 20
0.0
 30
0.0
  0
VERTEX
  5
315
  8
PROFILEEDGES
 10
-5.384498236349227
 20
1.836380456002493
 30
0.0
 40
0.0190136828257748
 41
0.0190136828257748
  0
VERTEX
  5
316
  8
PROFILEEDGES
 10
-5.404038959959581
 20
1.848355026831742
 30
0.0
 40
0.0190136828257748
 41
0.0190136828257748
  0
SEQEND
  5
5C6
  8
PROFILEEDGES
  0
POLYLINE
  5
E6
  8
PROFILEEDGES
 66
     1
 10
0.0
 20
0.0
 30
0.0
  0
VERTEX
  5
317
  8
PROFILEEDGES
 10
-5.42146586925456
 20
1.863239013467909
 30
0.0
 40
0.0190136828257748
 41
0.0190136828257748
  0
VERTEX
  5
318
  8
PROFILEEDGES
 10
-5.404038959959581
 20
1.848355026831742
 30
0.0
 40
0.0190136828257748
 41
0.0190136828257748
  0
SEQEND
  5
5C7
  8
PROFILEEDGES
  0
POLYLINE
  5
E7
  8
PROFILEEDGES
 66
     1
 10
0.0
 20
0.0
 30
0.0
  0
VERTEX
  5
319
  8
PROFILEEDGES
 10
-5.42146586925456
 20
1.863239013467909
 30
0.0
 40
0.0190136828257748
 41
0.0190136828257748
  0
VERTEX
  5
31A
  8
PROFILEEDGES
 10
-5.436349855890727
 20
1.880665922762888
 30
0.0
 40
0.0190136828257748
 41
0.0190136828257748
  0
SEQEND
  5
5C8
  8
PROFILEEDGES
  0
POLYLINE
  5
E8
  8
PROFILEEDGES
 66
     1
 10
0.0
 20
0.0
 30
0.0
  0
VERTEX
  5
31B
  8
PROFILEEDGES
 10
-5.448324426719976
 20
1.900206646373242
 30
0.0
 40
0.0190136828257748
 41
0.0190136828257748
  0
VERTEX
  5
31C
  8
PROFILEEDGES
 10
-5.436349855890727
 20
1.880665922762888
 30
0.0
 40
0.0190136828257748
 41
0.0190136828257748
  0
SEQEND
  5
5C9
  8
PROFILEEDGES
  0
POLYLINE
  5
E9
  8
PROFILEEDGES
 66
     1
 10
0.0
 20
0.0
 30
0.0
  0
VERTEX
  5
31D
  8
PROFILEEDGES
 10
-5.448324426719976
 20
1.900206646373242
 30
0.0
 40
0.0190136828257748
 41
0.0190136828257748
  0
VERTEX
  5
31E
  8
PROFILEEDGES
 10
-5.457094728067172
 20
1.921380026831742
 30
0.0
 40
0.0190136828257748
 41
0.0190136828257748
  0
SEQEND
  5
5CA
  8
PROFILEEDGES
  0
POLYLINE
  5
EA
  8
PROFILEEDGES
 66
     1
 10
0.0
 20
0.0
 30
0.0
  0
VERTEX
  5
31F
  8
PROFILEEDGES
 10
-5.457094728067172
 20
1.921380026831742
 30
0.0
 40
0.0190136828257748
 41
0.0190136828257748
  0
VERTEX
  5
320
  8
PROFILEEDGES
 10
-5.462444806006184
 20
1.943664705241078
 30
0.0
 40
0.0190136828257748
 41
0.0190136828257748
  0
SEQEND
  5
5CB
  8
PROFILEEDGES
  0
POLYLINE
  5
EB
  8
PROFILEEDGES
 66
     1
 10
0.0
 20
0.0
 30
0.0
  0
VERTEX
  5
321
  8
PROFILEEDGES
 10
-5.457094728067172
 20
2.011643890888666
 30
0.0
 40
0.0190136828257748
 41
0.0190136828257748
  0
VERTEX
  5
322
  8
PROFILEEDGES
 10
-5.462444806006184
 20
1.98935921247933
 30
0.0
 40
0.0190136828257748
 41
0.0190136828257748
  0
SEQEND
  5
5CC
  8
PROFILEEDGES
  0
POLYLINE
  5
EC
  8
PROFILEEDGES
 66
     1
 10
0.0
 20
0.0
 30
0.0
  0
VERTEX
  5
323
  8
PROFILEEDGES
 10
-5.464242923862265
 20
1.966511958860204
 30
0.0
 40
0.0190136828257748
 41
0.0190136828257748
  0
VERTEX
  5
324
  8
PROFILEEDGES
 10
-5.462444806006184
 20
1.98935921247933
 30
0.0
 40
0.0190136828257748
 41
0.0190136828257748
  0
SEQEND
  5
5CD
  8
PROFILEEDGES
  0
POLYLINE
  5
ED
  8
PROFILEEDGES
 66
     1
 10
0.0
 20
0.0
 30
0.0
  0
VERTEX
  5
325
  8
PROFILEEDGES
 10
-5.462444806006184
 20
1.943664705241078
 30
0.0
 40
0.0190136828257748
 41
0.0190136828257748
  0
VERTEX
  5
326
  8
PROFILEEDGES
 10
-5.464242923862265
 20
1.966511958860204
 30
0.0
 40
0.0190136828257748
 41
0.0190136828257748
  0
SEQEND
  5
5CE
  8
PROFILEEDGES
  0
POLYLINE
  5
EE
  8
PROFILEEDGES
 66
     1
 10
0.0
 20
0.0
 30
0.0
  0
VERTEX
  5
327
  8
PROFILEEDGES
 10
-5.457094728067172
 20
2.011643890888666
 30
0.0
 40
0.0190136828257748
 41
0.0190136828257748
  0
VERTEX
  5
328
  8
PROFILEEDGES
 10
-5.448324426719976
 20
2.032817271347166
 30
0.0
 40
0.0190136828257748
 41
0.0190136828257748
  0
SEQEND
  5
5CF
  8
PROFILEEDGES
  0
POLYLINE
  5
EF
  8
PROFILEEDGES
 66
     1
 10
0.0
 20
0.0
 30
0.0
  0
VERTEX
  5
329
  8
PROFILEEDGES
 10
-5.448324426719976
 20
2.032817271347166
 30
0.0
 40
0.0190136828257748
 41
0.0190136828257748
  0
VERTEX
  5
32A
  8
PROFILEEDGES
 10
-5.436349855890727
 20
2.05235799495752
 30
0.0
 40
0.0190136828257748
 41
0.0190136828257748
  0
SEQEND
  5
5D0
  8
PROFILEEDGES
  0
POLYLINE
  5
F0
  8
PROFILEEDGES
 66
     1
 10
0.0
 20
0.0
 30
0.0
  0
VERTEX
  5
32B
  8
PROFILEEDGES
 10
-5.42146586925456
 20
2.069784904252499
 30
0.0
 40
0.0190136828257748
 41
0.0190136828257748
  0
VERTEX
  5
32C
  8
PROFILEEDGES
 10
-5.436349855890727
 20
2.05235799495752
 30
0.0
 40
0.0190136828257748
 41
0.0190136828257748
  0
SEQEND
  5
5D1
  8
PROFILEEDGES
  0
POLYLINE
  5
F1
  8
PROFILEEDGES
 66
     1
 10
0.0
 20
0.0
 30
0.0
  0
VERTEX
  5
32D
  8
PROFILEEDGES
 10
-5.42146586925456
 20
2.069784904252499
 30
0.0
 40
0.0190136828257748
 41
0.0190136828257748
  0
VERTEX
  5
32E
  8
PROFILEEDGES
 10
-5.404038959959581
 20
2.084668890888666
 30
0.0
 40
0.0190136828257748
 41
0.0190136828257748
  0
SEQEND
  5
5D2
  8
PROFILEEDGES
  0
POLYLINE
  5
F2
  8
PROFILEEDGES
 66
     1
 10
0.0
 20
0.0
 30
0.0
  0
VERTEX
  5
32F
  8
PROFILEEDGES
 10
-5.384498236349227
 20
2.096643461717916
 30
0.0
 40
0.0190136828257748
 41
0.0190136828257748
  0
VERTEX
  5
330
  8
PROFILEEDGES
 10
-5.404038959959581
 20
2.084668890888666
 30
0.0
 40
0.0190136828257748
 41
0.0190136828257748
  0
SEQEND
  5
5D3
  8
PROFILEEDGES
  0
POLYLINE
  5
F3
  8
PROFILEEDGES
 66
     1
 10
0.0
 20
0.0
 30
0.0
  0
VERTEX
  5
331
  8
PROFILEEDGES
 10
-5.384498236349227
 20
2.096643461717916
 30
0.0
 40
0.0190136828257748
 41
0.0190136828257748
  0
VERTEX
  5
332
  8
PROFILEEDGES
 10
-5.363324855890727
 20
2.105413763065111
 30
0.0
 40
0.0190136828257748
 41
0.0190136828257748
  0
SEQEND
  5
5D4
  8
PROFILEEDGES
  0
POLYLINE
  5
F4
  8
PROFILEEDGES
 66
     1
 10
0.0
 20
0.0
 30
0.0
  0
VERTEX
  5
333
  8
PROFILEEDGES
 10
-5.363324855890727
 20
2.105413763065111
 30
0.0
 40
0.0190136828257748
 41
0.0190136828257748
  0
VERTEX
  5
334
  8
PROFILEEDGES
 10
-5.341040177481391
 20
2.110763841004123
 30
0.0
 40
0.0190136828257748
 41
0.0190136828257748
  0
SEQEND
  5
5D5
  8
PROFILEEDGES
  0
POLYLINE
  5
F5
  8
PROFILEEDGES
 66
     1
 10
0.0
 20
0.0
 30
0.0
  0
VERTEX
  5
335
  8
PROFILEEDGES
 10
-5.318192923862265
 20
2.112561958860204
 30
0.0
 40
0.0190136828257748
 41
0.0190136828257748
  0
VERTEX
  5
336
  8
PROFILEEDGES
 10
-5.341040177481391
 20
2.110763841004123
 30
0.0
 40
0.0190136828257748
 41
0.0190136828257748
  0
SEQEND
  5
5D6
  8
PROFILEEDGES
  0
POLYLINE
  5
F6
  8
PROFILEEDGES
 66
     1
 10
0.0
 20
0.0
 30
0.0
  0
VERTEX
  5
337
  8
PROFILEEDGES
 10
-5.318192923862265
 20
2.112561958860204
 30
0.0
 40
0.0190136828257748
 41
0.0190136828257748
  0
VERTEX
  5
338
  8
PROFILEEDGES
 10
-5.295345670243139
 20
2.110763841004123
 30
0.0
 40
0.0190136828257748
 41
0.0190136828257748
  0
SEQEND
  5
5D7
  8
PROFILEEDGES
  0
POLYLINE
  5
F7
  8
PROFILEEDGES
 66
     1
 10
0.0
 20
0.0
 30
0.0
  0
VERTEX
  5
339
  8
PROFILEEDGES
 10
-5.273060991833803
 20
2.105413763065111
 30
0.0
 40
0.0190136828257748
 41
0.0190136828257748
  0
VERTEX
  5
33A
  8
PROFILEEDGES
 10
-5.295345670243139
 20
2.110763841004123
 30
0.0
 40
0.0190136828257748
 41
0.0190136828257748
  0
SEQEND
  5
5D8
  8
PROFILEEDGES
  0
POLYLINE
  5
F8
  8
PROFILEEDGES
 66
     1
 10
0.0
 20
0.0
 30
0.0
  0
VERTEX
  5
33B
  8
PROFILEEDGES
 10
-5.273060991833803
 20
2.105413763065111
 30
0.0
 40
0.0190136828257748
 41
0.0190136828257748
  0
VERTEX
  5
33C
  8
PROFILEEDGES
 10
-5.251887611375302
 20
2.096643461717916
 30
0.0
 40
0.0190136828257748
 41
0.0190136828257748
  0
SEQEND
  5
5D9
  8
PROFILEEDGES
  0
POLYLINE
  5
F9
  8
PROFILEEDGES
 66
     1
 10
0.0
 20
0.0
 30
0.0
  0
VERTEX
  5
33D
  8
PROFILEEDGES
 10
-5.251887611375302
 20
2.096643461717916
 30
0.0
 40
0.0190136828257748
 41
0.0190136828257748
  0
VERTEX
  5
33E
  8
PROFILEEDGES
 10
-5.232346887764948
 20
2.084668890888666
 30
0.0
 40
0.0190136828257748
 41
0.0190136828257748
  0
SEQEND
  5
5DA
  8
PROFILEEDGES
  0
POLYLINE
  5
FA
  8
PROFILEEDGES
 66
     1
 10
0.0
 20
0.0
 30
0.0
  0
VERTEX
  5
33F
  8
PROFILEEDGES
 10
-5.214919978469969
 20
2.069784904252499
 30
0.0
 40
0.0190136828257748
 41
0.0190136828257748
  0
VERTEX
  5
340
  8
PROFILEEDGES
 10
-5.232346887764948
 20
2.084668890888666
 30
0.0
 40
0.0190136828257748
 41
0.0190136828257748
  0
SEQEND
  5
5DB
  8
PROFILEEDGES
  0
POLYLINE
  5
FB
  8
PROFILEEDGES
 66
     1
 10
0.0
 20
0.0
 30
0.0
  0
VERTEX
  5
341
  8
PROFILEEDGES
 10
-5.214919978469969
 20
2.069784904252499
 30
0.0
 40
0.0190136828257748
 41
0.0190136828257748
  0
VERTEX
  5
342
  8
PROFILEEDGES
 10
-5.200035991833802
 20
2.05235799495752
 30
0.0
 40
0.0190136828257748
 41
0.0190136828257748
  0
SEQEND
  5
5DC
  8
PROFILEEDGES
  0
POLYLINE
  5
FC
  8
PROFILEEDGES
 66
     1
 10
0.0
 20
0.0
 30
0.0
  0
VERTEX
  5
343
  8
PROFILEEDGES
 10
-5.188061421004553
 20
2.032817271347166
 30
0.0
 40
0.0190136828257748
 41
0.0190136828257748
  0
VERTEX
  5
344
  8
PROFILEEDGES
 10
-5.200035991833802
 20
2.05235799495752
 30
0.0
 40
0.0190136828257748
 41
0.0190136828257748
  0
SEQEND
  5
5DD
  8
PROFILEEDGES
  0
POLYLINE
  5
FD
  8
PROFILEEDGES
 66
     1
 10
0.0
 20
0.0
 30
0.0
  0
VERTEX
  5
345
  8
PROFILEEDGES
 10
-5.188061421004553
 20
2.032817271347166
 30
0.0
 40
0.0190136828257748
 41
0.0190136828257748
  0
VERTEX
  5
346
  8
PROFILEEDGES
 10
-5.179291119657358
 20
2.011643890888666
 30
0.0
 40
0.0190136828257748
 41
0.0190136828257748
  0
SEQEND
  5
5DE
  8
PROFILEEDGES
  0
POLYLINE
  5
FE
  8
PROFILEEDGES
 66
     1
 10
0.0
 20
0.0
 30
0.0
  0
VERTEX
  5
347
  8
PROFILEEDGES
 10
-5.179291119657358
 20
2.011643890888666
 30
0.0
 40
0.0190136828257748
 41
0.0190136828257748
  0
VERTEX
  5
348
  8
PROFILEEDGES
 10
-5.173941041718345
 20
1.98935921247933
 30
0.0
 40
0.0190136828257748
 41
0.0190136828257748
  0
SEQEND
  5
5DF
  8
PROFILEEDGES
  0
POLYLINE
  5
FF
  8
PROFILEEDGES
 66
     1
 10
0.0
 20
0.0
 30
0.0
  0
VERTEX
  5
349
  8
PROFILEEDGES
 10
-5.172142923862265
 20
1.966511958860204
 30
0.0
 40
0.0190136828257748
 41
0.0190136828257748
  0
VERTEX
  5
34A
  8
PROFILEEDGES
 10
-5.173941041718345
 20
1.98935921247933
 30
0.0
 40
0.0190136828257748
 41
0.0190136828257748
  0
SEQEND
  5
5E0
  8
PROFILEEDGES
  0
POLYLINE
  5
100
  8
PROFILEEDGES
 66
     1
 10
0.0
 20
0.0
 30
0.0
  0
VERTEX
  5
34B
  8
PROFILEEDGES
 10
-1.108142923862265
 20
1.966511958860204
 30
0.0
 40
0.0190136828257748
 41
0.0190136828257748
  0
VERTEX
  5
34C
  8
PROFILEEDGES
 10
-1.109941041718346
 20
1.943664705241078
 30
0.0
 40
0.0190136828257748
 41
0.0190136828257748
  0
SEQEND
  5
5E1
  8
PROFILEEDGES
  0
POLYLINE
  5
101
  8
PROFILEEDGES
 66
     1
 10
0.0
 20
0.0
 30
0.0
  0
VERTEX
  5
34D
  8
PROFILEEDGES
 10
-1.115291119657358
 20
1.921380026831742
 30
0.0
 40
0.0190136828257748
 41
0.0190136828257748
  0
VERTEX
  5
34E
  8
PROFILEEDGES
 10
-1.109941041718346
 20
1.943664705241078
 30
0.0
 40
0.0190136828257748
 41
0.0190136828257748
  0
SEQEND
  5
5E2
  8
PROFILEEDGES
  0
POLYLINE
  5
102
  8
PROFILEEDGES
 66
     1
 10
0.0
 20
0.0
 30
0.0
  0
VERTEX
  5
34F
  8
PROFILEEDGES
 10
-1.115291119657358
 20
1.921380026831742
 30
0.0
 40
0.0190136828257748
 41
0.0190136828257748
  0
VERTEX
  5
350
  8
PROFILEEDGES
 10
-1.124061421004553
 20
1.900206646373242
 30
0.0
 40
0.0190136828257748
 41
0.0190136828257748
  0
SEQEND
  5
5E3
  8
PROFILEEDGES
  0
POLYLINE
  5
103
  8
PROFILEEDGES
 66
     1
 10
0.0
 20
0.0
 30
0.0
  0
VERTEX
  5
351
  8
PROFILEEDGES
 10
-1.124061421004553
 20
1.900206646373242
 30
0.0
 40
0.0190136828257748
 41
0.0190136828257748
  0
VERTEX
  5
352
  8
PROFILEEDGES
 10
-1.136035991833803
 20
1.880665922762888
 30
0.0
 40
0.0190136828257748
 41
0.0190136828257748
  0
SEQEND
  5
5E4
  8
PROFILEEDGES
  0
POLYLINE
  5
104
  8
PROFILEEDGES
 66
     1
 10
0.0
 20
0.0
 30
0.0
  0
VERTEX
  5
353
  8
PROFILEEDGES
 10
-1.15091997846997
 20
1.863239013467909
 30
0.0
 40
0.0190136828257748
 41
0.0190136828257748
  0
VERTEX
  5
354
  8
PROFILEEDGES
 10
-1.136035991833803
 20
1.880665922762888
 30
0.0
 40
0.0190136828257748
 41
0.0190136828257748
  0
SEQEND
  5
5E5
  8
PROFILEEDGES
  0
POLYLINE
  5
105
  8
PROFILEEDGES
 66
     1
 10
0.0
 20
0.0
 30
0.0
  0
VERTEX
  5
355
  8
PROFILEEDGES
 10
-1.15091997846997
 20
1.863239013467909
 30
0.0
 40
0.0190136828257748
 41
0.0190136828257748
  0
VERTEX
  5
356
  8
PROFILEEDGES
 10
-1.168346887764949
 20
1.848355026831742
 30
0.0
 40
0.0190136828257748
 41
0.0190136828257748
  0
SEQEND
  5
5E6
  8
PROFILEEDGES
  0
POLYLINE
  5
106
  8
PROFILEEDGES
 66
     1
 10
0.0
 20
0.0
 30
0.0
  0
VERTEX
  5
357
  8
PROFILEEDGES
 10
-1.187887611375303
 20
1.836380456002493
 30
0.0
 40
0.0190136828257748
 41
0.0190136828257748
  0
VERTEX
  5
358
  8
PROFILEEDGES
 10
-1.168346887764949
 20
1.848355026831742
 30
0.0
 40
0.0190136828257748
 41
0.0190136828257748
  0
SEQEND
  5
5E7
  8
PROFILEEDGES
  0
POLYLINE
  5
107
  8
PROFILEEDGES
 66
     1
 10
0.0
 20
0.0
 30
0.0
  0
VERTEX
  5
359
  8
PROFILEEDGES
 10
-1.187887611375303
 20
1.836380456002493
 30
0.0
 40
0.0190136828257748
 41
0.0190136828257748
  0
VERTEX
  5
35A
  8
PROFILEEDGES
 10
-1.209060991833803
 20
1.827610154655298
 30
0.0
 40
0.0190136828257748
 41
0.0190136828257748
  0
SEQEND
  5
5E8
  8
PROFILEEDGES
  0
POLYLINE
  5
108
  8
PROFILEEDGES
 66
     1
 10
0.0
 20
0.0
 30
0.0
  0
VERTEX
  5
35B
  8
PROFILEEDGES
 10
-1.209060991833803
 20
1.827610154655298
 30
0.0
 40
0.0190136828257748
 41
0.0190136828257748
  0
VERTEX
  5
35C
  8
PROFILEEDGES
 10
-1.231345670243139
 20
1.822260076716285
 30
0.0
 40
0.0190136828257748
 41
0.0190136828257748
  0
SEQEND
  5
5E9
  8
PROFILEEDGES
  0
POLYLINE
  5
109
  8
PROFILEEDGES
 66
     1
 10
0.0
 20
0.0
 30
0.0
  0
VERTEX
  5
35D
  8
PROFILEEDGES
 10
-1.254192923862265
 20
1.820461958860204
 30
0.0
 40
0.0190136828257748
 41
0.0190136828257748
  0
VERTEX
  5
35E
  8
PROFILEEDGES
 10
-1.231345670243139
 20
1.822260076716285
 30
0.0
 40
0.0190136828257748
 41
0.0190136828257748
  0
SEQEND
  5
5EA
  8
PROFILEEDGES
  0
POLYLINE
  5
10A
  8
PROFILEEDGES
 66
     1
 10
0.0
 20
0.0
 30
0.0
  0
VERTEX
  5
35F
  8
PROFILEEDGES
 10
-1.254192923862265
 20
1.820461958860204
 30
0.0
 40
0.0190136828257748
 41
0.0190136828257748
  0
VERTEX
  5
360
  8
PROFILEEDGES
 10
-1.277040177481391
 20
1.822260076716285
 30
0.0
 40
0.0190136828257748
 41
0.0190136828257748
  0
SEQEND
  5
5EB
  8
PROFILEEDGES
  0
POLYLINE
  5
10B
  8
PROFILEEDGES
 66
     1
 10
0.0
 20
0.0
 30
0.0
  0
VERTEX
  5
361
  8
PROFILEEDGES
 10
-1.299324855890727
 20
1.827610154655298
 30
0.0
 40
0.0190136828257748
 41
0.0190136828257748
  0
VERTEX
  5
362
  8
PROFILEEDGES
 10
-1.277040177481391
 20
1.822260076716285
 30
0.0
 40
0.0190136828257748
 41
0.0190136828257748
  0
SEQEND
  5
5EC
  8
PROFILEEDGES
  0
POLYLINE
  5
10C
  8
PROFILEEDGES
 66
     1
 10
0.0
 20
0.0
 30
0.0
  0
VERTEX
  5
363
  8
PROFILEEDGES
 10
-1.299324855890727
 20
1.827610154655298
 30
0.0
 40
0.0190136828257748
 41
0.0190136828257748
  0
VERTEX
  5
364
  8
PROFILEEDGES
 10
-1.320498236349227
 20
1.836380456002493
 30
0.0
 40
0.0190136828257748
 41
0.0190136828257748
  0
SEQEND
  5
5ED
  8
PROFILEEDGES
  0
POLYLINE
  5
10D
  8
PROFILEEDGES
 66
     1
 10
0.0
 20
0.0
 30
0.0
  0
VERTEX
  5
365
  8
PROFILEEDGES
 10
-1.320498236349227
 20
1.836380456002493
 30
0.0
 40
0.0190136828257748
 41
0.0190136828257748
  0
VERTEX
  5
366
  8
PROFILEEDGES
 10
-1.340038959959581
 20
1.848355026831742
 30
0.0
 40
0.0190136828257748
 41
0.0190136828257748
  0
SEQEND
  5
5EE
  8
PROFILEEDGES
  0
POLYLINE
  5
10E
  8
PROFILEEDGES
 66
     1
 10
0.0
 20
0.0
 30
0.0
  0
VERTEX
  5
367
  8
PROFILEEDGES
 10
-1.35746586925456
 20
1.863239013467909
 30
0.0
 40
0.0190136828257748
 41
0.0190136828257748
  0
VERTEX
  5
368
  8
PROFILEEDGES
 10
-1.340038959959581
 20
1.848355026831742
 30
0.0
 40
0.0190136828257748
 41
0.0190136828257748
  0
SEQEND
  5
5EF
  8
PROFILEEDGES
  0
POLYLINE
  5
10F
  8
PROFILEEDGES
 66
     1
 10
0.0
 20
0.0
 30
0.0
  0
VERTEX
  5
369
  8
PROFILEEDGES
 10
-1.35746586925456
 20
1.863239013467909
 30
0.0
 40
0.0190136828257748
 41
0.0190136828257748
  0
VERTEX
  5
36A
  8
PROFILEEDGES
 10
-1.372349855890727
 20
1.880665922762888
 30
0.0
 40
0.0190136828257748
 41
0.0190136828257748
  0
SEQEND
  5
5F0
  8
PROFILEEDGES
  0
POLYLINE
  5
110
  8
PROFILEEDGES
 66
     1
 10
0.0
 20
0.0
 30
0.0
  0
VERTEX
  5
36B
  8
PROFILEEDGES
 10
-1.384324426719976
 20
1.900206646373242
 30
0.0
 40
0.0190136828257748
 41
0.0190136828257748
  0
VERTEX
  5
36C
  8
PROFILEEDGES
 10
-1.372349855890727
 20
1.880665922762888
 30
0.0
 40
0.0190136828257748
 41
0.0190136828257748
  0
SEQEND
  5
5F1
  8
PROFILEEDGES
  0
POLYLINE
  5
111
  8
PROFILEEDGES
 66
     1
 10
0.0
 20
0.0
 30
0.0
  0
VERTEX
  5
36D
  8
PROFILEEDGES
 10
-1.384324426719976
 20
1.900206646373242
 30
0.0
 40
0.0190136828257748
 41
0.0190136828257748
  0
VERTEX
  5
36E
  8
PROFILEEDGES
 10
-1.393094728067171
 20
1.921380026831742
 30
0.0
 40
0.0190136828257748
 41
0.0190136828257748
  0
SEQEND
  5
5F2
  8
PROFILEEDGES
  0
POLYLINE
  5
112
  8
PROFILEEDGES
 66
     1
 10
0.0
 20
0.0
 30
0.0
  0
VERTEX
  5
36F
  8
PROFILEEDGES
 10
-1.393094728067171
 20
1.921380026831742
 30
0.0
 40
0.0190136828257748
 41
0.0190136828257748
  0
VERTEX
  5
370
  8
PROFILEEDGES
 10
-1.398444806006184
 20
1.943664705241078
 30
0.0
 40
0.0190136828257748
 41
0.0190136828257748
  0
SEQEND
  5
5F3
  8
PROFILEEDGES
  0
POLYLINE
  5
113
  8
PROFILEEDGES
 66
     1
 10
0.0
 20
0.0
 30
0.0
  0
VERTEX
  5
371
  8
PROFILEEDGES
 10
-1.393094728067171
 20
2.011643890888666
 30
0.0
 40
0.0190136828257748
 41
0.0190136828257748
  0
VERTEX
  5
372
  8
PROFILEEDGES
 10
-1.398444806006184
 20
1.98935921247933
 30
0.0
 40
0.0190136828257748
 41
0.0190136828257748
  0
SEQEND
  5
5F4
  8
PROFILEEDGES
  0
POLYLINE
  5
114
  8
PROFILEEDGES
 66
     1
 10
0.0
 20
0.0
 30
0.0
  0
VERTEX
  5
373
  8
PROFILEEDGES
 10
-1.400242923862265
 20
1.966511958860204
 30
0.0
 40
0.0190136828257748
 41
0.0190136828257748
  0
VERTEX
  5
374
  8
PROFILEEDGES
 10
-1.398444806006184
 20
1.98935921247933
 30
0.0
 40
0.0190136828257748
 41
0.0190136828257748
  0
SEQEND
  5
5F5
  8
PROFILEEDGES
  0
POLYLINE
  5
115
  8
PROFILEEDGES
 66
     1
 10
0.0
 20
0.0
 30
0.0
  0
VERTEX
  5
375
  8
PROFILEEDGES
 10
-1.398444806006184
 20
1.943664705241078
 30
0.0
 40
0.0190136828257748
 41
0.0190136828257748
  0
VERTEX
  5
376
  8
PROFILEEDGES
 10
-1.400242923862265
 20
1.966511958860204
 30
0.0
 40
0.0190136828257748
 41
0.0190136828257748
  0
SEQEND
  5
5F6
  8
PROFILEEDGES
  0
POLYLINE
  5
116
  8
PROFILEEDGES
 66
     1
 10
0.0
 20
0.0
 30
0.0
  0
VERTEX
  5
377
  8
PROFILEEDGES
 10
-1.393094728067171
 20
2.011643890888666
 30
0.0
 40
0.0190136828257748
 41
0.0190136828257748
  0
VERTEX
  5
378
  8
PROFILEEDGES
 10
-1.384324426719976
 20
2.032817271347166
 30
0.0
 40
0.0190136828257748
 41
0.0190136828257748
  0
SEQEND
  5
5F7
  8
PROFILEEDGES
  0
POLYLINE
  5
117
  8
PROFILEEDGES
 66
     1
 10
0.0
 20
0.0
 30
0.0
  0
VERTEX
  5
379
  8
PROFILEEDGES
 10
-1.384324426719976
 20
2.032817271347166
 30
0.0
 40
0.0190136828257748
 41
0.0190136828257748
  0
VERTEX
  5
37A
  8
PROFILEEDGES
 10
-1.372349855890727
 20
2.05235799495752
 30
0.0
 40
0.0190136828257748
 41
0.0190136828257748
  0
SEQEND
  5
5F8
  8
PROFILEEDGES
  0
POLYLINE
  5
118
  8
PROFILEEDGES
 66
     1
 10
0.0
 20
0.0
 30
0.0
  0
VERTEX
  5
37B
  8
PROFILEEDGES
 10
-1.35746586925456
 20
2.069784904252499
 30
0.0
 40
0.0190136828257748
 41
0.0190136828257748
  0
VERTEX
  5
37C
  8
PROFILEEDGES
 10
-1.372349855890727
 20
2.05235799495752
 30
0.0
 40
0.0190136828257748
 41
0.0190136828257748
  0
SEQEND
  5
5F9
  8
PROFILEEDGES
  0
POLYLINE
  5
119
  8
PROFILEEDGES
 66
     1
 10
0.0
 20
0.0
 30
0.0
  0
VERTEX
  5
37D
  8
PROFILEEDGES
 10
-1.35746586925456
 20
2.069784904252499
 30
0.0
 40
0.0190136828257748
 41
0.0190136828257748
  0
VERTEX
  5
37E
  8
PROFILEEDGES
 10
-1.340038959959581
 20
2.084668890888666
 30
0.0
 40
0.0190136828257748
 41
0.0190136828257748
  0
SEQEND
  5
5FA
  8
PROFILEEDGES
  0
POLYLINE
  5
11A
  8
PROFILEEDGES
 66
     1
 10
0.0
 20
0.0
 30
0.0
  0
VERTEX
  5
37F
  8
PROFILEEDGES
 10
-1.320498236349227
 20
2.096643461717916
 30
0.0
 40
0.0190136828257748
 41
0.0190136828257748
  0
VERTEX
  5
380
  8
PROFILEEDGES
 10
-1.340038959959581
 20
2.084668890888666
 30
0.0
 40
0.0190136828257748
 41
0.0190136828257748
  0
SEQEND
  5
5FB
  8
PROFILEEDGES
  0
POLYLINE
  5
11B
  8
PROFILEEDGES
 66
     1
 10
0.0
 20
0.0
 30
0.0
  0
VERTEX
  5
381
  8
PROFILEEDGES
 10
-1.320498236349227
 20
2.096643461717916
 30
0.0
 40
0.0190136828257748
 41
0.0190136828257748
  0
VERTEX
  5
382
  8
PROFILEEDGES
 10
-1.299324855890727
 20
2.105413763065111
 30
0.0
 40
0.0190136828257748
 41
0.0190136828257748
  0
SEQEND
  5
5FC
  8
PROFILEEDGES
  0
POLYLINE
  5
11C
  8
PROFILEEDGES
 66
     1
 10
0.0
 20
0.0
 30
0.0
  0
VERTEX
  5
383
  8
PROFILEEDGES
 10
-1.299324855890727
 20
2.105413763065111
 30
0.0
 40
0.0190136828257748
 41
0.0190136828257748
  0
VERTEX
  5
384
  8
PROFILEEDGES
 10
-1.277040177481391
 20
2.110763841004123
 30
0.0
 40
0.0190136828257748
 41
0.0190136828257748
  0
SEQEND
  5
5FD
  8
PROFILEEDGES
  0
POLYLINE
  5
11D
  8
PROFILEEDGES
 66
     1
 10
0.0
 20
0.0
 30
0.0
  0
VERTEX
  5
385
  8
PROFILEEDGES
 10
-1.254192923862265
 20
2.112561958860204
 30
0.0
 40
0.0190136828257748
 41
0.0190136828257748
  0
VERTEX
  5
386
  8
PROFILEEDGES
 10
-1.277040177481391
 20
2.110763841004123
 30
0.0
 40
0.0190136828257748
 41
0.0190136828257748
  0
SEQEND
  5
5FE
  8
PROFILEEDGES
  0
POLYLINE
  5
11E
  8
PROFILEEDGES
 66
     1
 10
0.0
 20
0.0
 30
0.0
  0
VERTEX
  5
387
  8
PROFILEEDGES
 10
-1.254192923862265
 20
2.112561958860204
 30
0.0
 40
0.0190136828257748
 41
0.0190136828257748
  0
VERTEX
  5
388
  8
PROFILEEDGES
 10
-1.231345670243139
 20
2.110763841004123
 30
0.0
 40
0.0190136828257748
 41
0.0190136828257748
  0
SEQEND
  5
5FF
  8
PROFILEEDGES
  0
POLYLINE
  5
11F
  8
PROFILEEDGES
 66
     1
 10
0.0
 20
0.0
 30
0.0
  0
VERTEX
  5
389
  8
PROFILEEDGES
 10
-1.209060991833803
 20
2.105413763065111
 30
0.0
 40
0.0190136828257748
 41
0.0190136828257748
  0
VERTEX
  5
38A
  8
PROFILEEDGES
 10
-1.231345670243139
 20
2.110763841004123
 30
0.0
 40
0.0190136828257748
 41
0.0190136828257748
  0
SEQEND
  5
600
  8
PROFILEEDGES
  0
POLYLINE
  5
120
  8
PROFILEEDGES
 66
     1
 10
0.0
 20
0.0
 30
0.0
  0
VERTEX
  5
38B
  8
PROFILEEDGES
 10
-1.209060991833803
 20
2.105413763065111
 30
0.0
 40
0.0190136828257748
 41
0.0190136828257748
  0
VERTEX
  5
38C
  8
PROFILEEDGES
 10
-1.187887611375303
 20
2.096643461717916
 30
0.0
 40
0.0190136828257748
 41
0.0190136828257748
  0
SEQEND
  5
601
  8
PROFILEEDGES
  0
POLYLINE
  5
121
  8
PROFILEEDGES
 66
     1
 10
0.0
 20
0.0
 30
0.0
  0
VERTEX
  5
38D
  8
PROFILEEDGES
 10
-1.187887611375303
 20
2.096643461717916
 30
0.0
 40
0.0190136828257748
 41
0.0190136828257748
  0
VERTEX
  5
38E
  8
PROFILEEDGES
 10
-1.168346887764949
 20
2.084668890888666
 30
0.0
 40
0.0190136828257748
 41
0.0190136828257748
  0
SEQEND
  5
602
  8
PROFILEEDGES
  0
POLYLINE
  5
122
  8
PROFILEEDGES
 66
     1
 10
0.0
 20
0.0
 30
0.0
  0
VERTEX
  5
38F
  8
PROFILEEDGES
 10
-1.15091997846997
 20
2.069784904252499
 30
0.0
 40
0.0190136828257748
 41
0.0190136828257748
  0
VERTEX
  5
390
  8
PROFILEEDGES
 10
-1.168346887764949
 20
2.084668890888666
 30
0.0
 40
0.0190136828257748
 41
0.0190136828257748
  0
SEQEND
  5
603
  8
PROFILEEDGES
  0
POLYLINE
  5
123
  8
PROFILEEDGES
 66
     1
 10
0.0
 20
0.0
 30
0.0
  0
VERTEX
  5
391
  8
PROFILEEDGES
 10
-1.15091997846997
 20
2.069784904252499
 30
0.0
 40
0.0190136828257748
 41
0.0190136828257748
  0
VERTEX
  5
392
  8
PROFILEEDGES
 10
-1.136035991833803
 20
2.05235799495752
 30
0.0
 40
0.0190136828257748
 41
0.0190136828257748
  0
SEQEND
  5
604
  8
PROFILEEDGES
  0
POLYLINE
  5
124
  8
PROFILEEDGES
 66
     1
 10
0.0
 20
0.0
 30
0.0
  0
VERTEX
  5
393
  8
PROFILEEDGES
 10
-1.124061421004553
 20
2.032817271347166
 30
0.0
 40
0.0190136828257748
 41
0.0190136828257748
  0
VERTEX
  5
394
  8
PROFILEEDGES
 10
-1.136035991833803
 20
2.05235799495752
 30
0.0
 40
0.0190136828257748
 41
0.0190136828257748
  0
SEQEND
  5
605
  8
PROFILEEDGES
  0
POLYLINE
  5
125
  8
PROFILEEDGES
 66
     1
 10
0.0
 20
0.0
 30
0.0
  0
VERTEX
  5
395
  8
PROFILEEDGES
 10
-1.124061421004553
 20
2.032817271347166
 30
0.0
 40
0.0190136828257748
 41
0.0190136828257748
  0
VERTEX
  5
396
  8
PROFILEEDGES
 10
-1.115291119657358
 20
2.011643890888666
 30
0.0
 40
0.0190136828257748
 41
0.0190136828257748
  0
SEQEND
  5
606
  8
PROFILEEDGES
  0
POLYLINE
  5
126
  8
PROFILEEDGES
 66
     1
 10
0.0
 20
0.0
 30
0.0
  0
VERTEX
  5
397
  8
PROFILEEDGES
 10
-1.115291119657358
 20
2.011643890888666
 30
0.0
 40
0.0190136828257748
 41
0.0190136828257748
  0
VERTEX
  5
398
  8
PROFILEEDGES
 10
-1.109941041718346
 20
1.98935921247933
 30
0.0
 40
0.0190136828257748
 41
0.0190136828257748
  0
SEQEND
  5
607
  8
PROFILEEDGES
  0
POLYLINE
  5
127
  8
PROFILEEDGES
 66
     1
 10
0.0
 20
0.0
 30
0.0
  0
VERTEX
  5
399
  8
PROFILEEDGES
 10
-1.108142923862265
 20
1.966511958860204
 30
0.0
 40
0.0190136828257748
 41
0.0190136828257748
  0
VERTEX
  5
39A
  8
PROFILEEDGES
 10
-1.109941041718346
 20
1.98935921247933
 30
0.0
 40
0.0190136828257748
 41
0.0190136828257748
  0
SEQEND
  5
608
  8
PROFILEEDGES
  0
POLYLINE
  5
128
  8
PROFILEEDGES
 66
     1
 10
0.0
 20
0.0
 30
0.0
  0
VERTEX
  5
39B
  8
PROFILEEDGES
 10
-0.746192923862265
 20
2.220511958860204
 30
0.0
 40
0.0190136828257748
 41
0.0190136828257748
  0
VERTEX
  5
39C
  8
PROFILEEDGES
 10
-1.000192923862265
 20
2.474511958860204
 30
0.0
 40
0.0190136828257748
 41
0.0190136828257748
  0
SEQEND
  5
609
  8
PROFILEEDGES
  0
POLYLINE
  5
129
  8
PROFILEEDGES
 66
     1
 10
0.0
 20
0.0
 30
0.0
  0
VERTEX
  5
39D
  8
PROFILEEDGES
 10
-0.746192923862265
 20
-2.351488041139796
 30
0.0
 40
0.0190136828257748
 41
0.0190136828257748
  0
VERTEX
  5
39E
  8
PROFILEEDGES
 10
-0.746192923862265
 20
2.220511958860204
 30
0.0
 40
0.0190136828257748
 41
0.0190136828257748
  0
SEQEND
  5
60A
  8
PROFILEEDGES
  0
POLYLINE
  5
12A
  8
PROFILEEDGES
 66
     1
 10
0.0
 20
0.0
 30
0.0
  0
VERTEX
  5
39F
  8
PROFILEEDGES
 10
-1.000192923862265
 20
-2.605488041139795
 30
0.0
 40
0.0190136828257748
 41
0.0190136828257748
  0
VERTEX
  5
3A0
  8
PROFILEEDGES
 10
-0.746192923862265
 20
-2.351488041139796
 30
0.0
 40
0.0190136828257748
 41
0.0190136828257748
  0
SEQEND
  5
60B
  8
PROFILEEDGES
  0
POLYLINE
  5
12B
  8
PROFILEEDGES
 66
     1
 10
0.0
 20
0.0
 30
0.0
  0
VERTEX
  5
3A1
  8
PROFILEEDGES
 10
-5.572192923862265
 20
-2.605488041139795
 30
0.0
 40
0.0190136828257748
 41
0.0190136828257748
  0
VERTEX
  5
3A2
  8
PROFILEEDGES
 10
-1.000192923862265
 20
-2.605488041139795
 30
0.0
 40
0.0190136828257748
 41
0.0190136828257748
  0
SEQEND
  5
60C
  8
PROFILEEDGES
  0
POLYLINE
  5
12C
  8
PROFILEEDGES
 66
     1
 10
0.0
 20
0.0
 30
0.0
  0
VERTEX
  5
3A3
  8
PROFILEEDGES
 10
-5.826192923862265
 20
-2.351488041139796
 30
0.0
 40
0.0190136828257748
 41
0.0190136828257748
  0
VERTEX
  5
3A4
  8
PROFILEEDGES
 10
-5.572192923862265
 20
-2.605488041139795
 30
0.0
 40
0.0190136828257748
 41
0.0190136828257748
  0
SEQEND
  5
60D
  8
PROFILEEDGES
  0
POLYLINE
  5
12D
  8
PROFILEEDGES
 66
     1
 10
0.0
 20
0.0
 30
0.0
  0
VERTEX
  5
3A5
  8
PROFILEEDGES
 10
-5.826192923862265
 20
2.220511958860204
 30
0.0
 40
0.0190136828257748
 41
0.0190136828257748
  0
VERTEX
  5
3A6
  8
PROFILEEDGES
 10
-5.826192923862265
 20
-2.351488041139796
 30
0.0
 40
0.0190136828257748
 41
0.0190136828257748
  0
SEQEND
  5
60E
  8
PROFILEEDGES
  0
POLYLINE
  5
12E
  8
PROFILEEDGES
 66
     1
 10
0.0
 20
0.0
 30
0.0
  0
VERTEX
  5
3A7
  8
PROFILEEDGES
 10
-5.572192923862265
 20
2.474511958860204
 30
0.0
 40
0.0190136828257748
 41
0.0190136828257748
  0
VERTEX
  5
3A8
  8
PROFILEEDGES
 10
-5.826192923862265
 20
2.220511958860204
 30
0.0
 40
0.0190136828257748
 41
0.0190136828257748
  0
SEQEND
  5
60F
  8
PROFILEEDGES
  0
POLYLINE
  5
12F
  8
PROFILEEDGES
 66
     1
 10
0.0
 20
0.0
 30
0.0
  0
VERTEX
  5
3A9
  8
PROFILEEDGES
 10
-1.000192923862265
 20
2.474511958860204
 30
0.0
 40
0.0190136828257748
 41
0.0190136828257748
  0
VERTEX
  5
3AA
  8
PROFILEEDGES
 10
-5.572192923862265
 20
2.474511958860204
 30
0.0
 40
0.0190136828257748
 41
0.0190136828257748
  0
SEQEND
  5
610
  8
PROFILEEDGES
  0
POLYLINE
  5
130
  8
PROFILEEDGES
 66
     1
 10
0.0
 20
0.0
 30
0.0
  0
VERTEX
  5
3AB
  8
PROFILEEDGES
 10
-3.121593147862273
 20
2.142134345810303
 30
0.0
 40
0.0190136828257748
 41
0.0190136828257748
  0
VERTEX
  5
3AC
  8
PROFILEEDGES
 10
-3.124555471755512
 20
2.142370610411375
 30
0.0
 40
0.0190136828257748
 41
0.0190136828257748
  0
SEQEND
  5
611
  8
PROFILEEDGES
  0
POLYLINE
  5
131
  8
PROFILEEDGES
 66
     1
 10
0.0
 20
0.0
 30
0.0
  0
VERTEX
  5
3AD
  8
PROFILEEDGES
 10
-3.124555471755512
 20
2.142370610411375
 30
0.0
 40
0.0190136828257748
 41
0.0190136828257748
  0
VERTEX
  5
3AE
  8
PROFILEEDGES
 10
-3.133674404639989
 20
2.143069804410509
 30
0.0
 40
0.0190136828257748
 41
0.0190136828257748
  0
SEQEND
  5
612
  8
PROFILEEDGES
  0
POLYLINE
  5
132
  8
PROFILEEDGES
 66
     1
 10
0.0
 20
0.0
 30
0.0
  0
VERTEX
  5
3AF
  8
PROFILEEDGES
 10
-3.133674404639989
 20
2.143069804410509
 30
0.0
 40
0.0190136828257748
 41
0.0190136828257748
  0
VERTEX
  5
3B0
  8
PROFILEEDGES
 10
-3.14858836047776
 20
2.144121993295784
 30
0.0
 40
0.0190136828257748
 41
0.0190136828257748
  0
SEQEND
  5
613
  8
PROFILEEDGES
  0
POLYLINE
  5
133
  8
PROFILEEDGES
 66
     1
 10
0.0
 20
0.0
 30
0.0
  0
VERTEX
  5
3B1
  8
PROFILEEDGES
 10
-3.14858836047776
 20
2.144121993295784
 30
0.0
 40
0.0190136828257748
 41
0.0190136828257748
  0
VERTEX
  5
3B2
  8
PROFILEEDGES
 10
-3.16806197387493
 20
2.145325452927882
 30
0.0
 40
0.0190136828257748
 41
0.0190136828257748
  0
SEQEND
  5
614
  8
PROFILEEDGES
  0
POLYLINE
  5
134
  8
PROFILEEDGES
 66
     1
 10
0.0
 20
0.0
 30
0.0
  0
VERTEX
  5
3B3
  8
PROFILEEDGES
 10
-3.16806197387493
 20
2.145325452927882
 30
0.0
 40
0.0190136828257748
 41
0.0190136828257748
  0
VERTEX
  5
3B4
  8
PROFILEEDGES
 10
-3.191720337159955
 20
2.146528257098204
 30
0.0
 40
0.0190136828257748
 41
0.0190136828257748
  0
SEQEND
  5
615
  8
PROFILEEDGES
  0
POLYLINE
  5
135
  8
PROFILEEDGES
 66
     1
 10
0.0
 20
0.0
 30
0.0
  0
VERTEX
  5
3B5
  8
PROFILEEDGES
 10
-3.191720337159955
 20
2.146528257098204
 30
0.0
 40
0.0190136828257748
 41
0.0190136828257748
  0
VERTEX
  5
3B6
  8
PROFILEEDGES
 10
-3.219522572349513
 20
2.147578801607537
 30
0.0
 40
0.0190136828257748
 41
0.0190136828257748
  0
SEQEND
  5
616
  8
PROFILEEDGES
  0
POLYLINE
  5
136
  8
PROFILEEDGES
 66
     1
 10
0.0
 20
0.0
 30
0.0
  0
VERTEX
  5
3B7
  8
PROFILEEDGES
 10
-3.219522572349513
 20
2.147578801607537
 30
0.0
 40
0.0190136828257748
 41
0.0190136828257748
  0
VERTEX
  5
3B8
  8
PROFILEEDGES
 10
-3.249732143717769
 20
2.148276350172314
 30
0.0
 40
0.0190136828257748
 41
0.0190136828257748
  0
SEQEND
  5
617
  8
PROFILEEDGES
  0
POLYLINE
  5
137
  8
PROFILEEDGES
 66
     1
 10
0.0
 20
0.0
 30
0.0
  0
VERTEX
  5
3B9
  8
PROFILEEDGES
 10
-3.249732143717769
 20
2.148276350172314
 30
0.0
 40
0.0190136828257748
 41
0.0190136828257748
  0
VERTEX
  5
3BA
  8
PROFILEEDGES
 10
-3.280247643862272
 20
2.148511958860223
 30
0.0
 40
0.0190136828257748
 41
0.0190136828257748
  0
SEQEND
  5
618
  8
PROFILEEDGES
  0
POLYLINE
  5
138
  8
PROFILEEDGES
 66
     1
 10
0.0
 20
0.0
 30
0.0
  0
VERTEX
  5
3BB
  8
PROFILEEDGES
 10
-3.280247643862272
 20
2.148511958860223
 30
0.0
 40
0.0190136828257748
 41
0.0190136828257748
  0
VERTEX
  5
3BC
  8
PROFILEEDGES
 10
-3.310763144006769
 20
2.148276350172314
 30
0.0
 40
0.0190136828257748
 41
0.0190136828257748
  0
SEQEND
  5
619
  8
PROFILEEDGES
  0
POLYLINE
  5
139
  8
PROFILEEDGES
 66
     1
 10
0.0
 20
0.0
 30
0.0
  0
VERTEX
  5
3BD
  8
PROFILEEDGES
 10
-3.310763144006769
 20
2.148276350172314
 30
0.0
 40
0.0190136828257748
 41
0.0190136828257748
  0
VERTEX
  5
3BE
  8
PROFILEEDGES
 10
-3.340972715375031
 20
2.147578801607537
 30
0.0
 40
0.0190136828257748
 41
0.0190136828257748
  0
SEQEND
  5
61A
  8
PROFILEEDGES
  0
POLYLINE
  5
13A
  8
PROFILEEDGES
 66
     1
 10
0.0
 20
0.0
 30
0.0
  0
VERTEX
  5
3BF
  8
PROFILEEDGES
 10
-3.340972715375031
 20
2.147578801607537
 30
0.0
 40
0.0190136828257748
 41
0.0190136828257748
  0
VERTEX
  5
3C0
  8
PROFILEEDGES
 10
-3.368774950564589
 20
2.146528257098204
 30
0.0
 40
0.0190136828257748
 41
0.0190136828257748
  0
SEQEND
  5
61B
  8
PROFILEEDGES
  0
POLYLINE
  5
13B
  8
PROFILEEDGES
 66
     1
 10
0.0
 20
0.0
 30
0.0
  0
VERTEX
  5
3C1
  8
PROFILEEDGES
 10
-3.368774950564589
 20
2.146528257098204
 30
0.0
 40
0.0190136828257748
 41
0.0190136828257748
  0
VERTEX
  5
3C2
  8
PROFILEEDGES
 10
-3.392433313849602
 20
2.145325452927882
 30
0.0
 40
0.0190136828257748
 41
0.0190136828257748
  0
SEQEND
  5
61C
  8
PROFILEEDGES
  0
POLYLINE
  5
13C
  8
PROFILEEDGES
 66
     1
 10
0.0
 20
0.0
 30
0.0
  0
VERTEX
  5
3C3
  8
PROFILEEDGES
 10
-3.392433313849602
 20
2.145325452927882
 30
0.0
 40
0.0190136828257748
 41
0.0190136828257748
  0
VERTEX
  5
3C4
  8
PROFILEEDGES
 10
-3.411906927246784
 20
2.144121993295784
 30
0.0
 40
0.0190136828257748
 41
0.0190136828257748
  0
SEQEND
  5
61D
  8
PROFILEEDGES
  0
POLYLINE
  5
13D
  8
PROFILEEDGES
 66
     1
 10
0.0
 20
0.0
 30
0.0
  0
VERTEX
  5
3C5
  8
PROFILEEDGES
 10
-3.411906927246784
 20
2.144121993295784
 30
0.0
 40
0.0190136828257748
 41
0.0190136828257748
  0
VERTEX
  5
3C6
  8
PROFILEEDGES
 10
-3.42682088308455
 20
2.143069804410509
 30
0.0
 40
0.0190136828257748
 41
0.0190136828257748
  0
SEQEND
  5
61E
  8
PROFILEEDGES
  0
POLYLINE
  5
13E
  8
PROFILEEDGES
 66
     1
 10
0.0
 20
0.0
 30
0.0
  0
VERTEX
  5
3C7
  8
PROFILEEDGES
 10
-3.42682088308455
 20
2.143069804410509
 30
0.0
 40
0.0190136828257748
 41
0.0190136828257748
  0
VERTEX
  5
3C8
  8
PROFILEEDGES
 10
-3.435939815969032
 20
2.142370610411375
 30
0.0
 40
0.0190136828257748
 41
0.0190136828257748
  0
SEQEND
  5
61F
  8
PROFILEEDGES
  0
POLYLINE
  5
13F
  8
PROFILEEDGES
 66
     1
 10
0.0
 20
0.0
 30
0.0
  0
VERTEX
  5
3C9
  8
PROFILEEDGES
 10
-3.435939815969032
 20
2.142370610411375
 30
0.0
 40
0.0190136828257748
 41
0.0190136828257748
  0
VERTEX
  5
3CA
  8
PROFILEEDGES
 10
-3.438902139862271
 20
2.142134345810303
 30
0.0
 40
0.0190136828257748
 41
0.0190136828257748
  0
SEQEND
  5
620
  8
PROFILEEDGES
  0
POLYLINE
  5
140
  8
PROFILEEDGES
 66
     1
 10
0.0
 20
0.0
 30
0.0
  0
VERTEX
  5
3CB
  8
PROFILEEDGES
 10
-3.124555471755512
 20
-2.271664484690929
 30
0.0
 40
0.0190136828257748
 41
0.0190136828257748
  0
VERTEX
  5
3CC
  8
PROFILEEDGES
 10
-3.121593147862273
 20
-2.271428220089857
 30
0.0
 40
0.0190136828257748
 41
0.0190136828257748
  0
SEQEND
  5
621
  8
PROFILEEDGES
  0
POLYLINE
  5
141
  8
PROFILEEDGES
 66
     1
 10
0.0
 20
0.0
 30
0.0
  0
VERTEX
  5
3CD
  8
PROFILEEDGES
 10
-3.133674404639989
 20
-2.272363678690069
 30
0.0
 40
0.0190136828257748
 41
0.0190136828257748
  0
VERTEX
  5
3CE
  8
PROFILEEDGES
 10
-3.124555471755512
 20
-2.271664484690929
 30
0.0
 40
0.0190136828257748
 41
0.0190136828257748
  0
SEQEND
  5
622
  8
PROFILEEDGES
  0
POLYLINE
  5
142
  8
PROFILEEDGES
 66
     1
 10
0.0
 20
0.0
 30
0.0
  0
VERTEX
  5
3CF
  8
PROFILEEDGES
 10
-3.148588360477754
 20
-2.273415867575338
 30
0.0
 40
0.0190136828257748
 41
0.0190136828257748
  0
VERTEX
  5
3D0
  8
PROFILEEDGES
 10
-3.133674404639989
 20
-2.272363678690069
 30
0.0
 40
0.0190136828257748
 41
0.0190136828257748
  0
SEQEND
  5
623
  8
PROFILEEDGES
  0
POLYLINE
  5
143
  8
PROFILEEDGES
 66
     1
 10
0.0
 20
0.0
 30
0.0
  0
VERTEX
  5
3D1
  8
PROFILEEDGES
 10
-3.168061973874936
 20
-2.274619327207439
 30
0.0
 40
0.0190136828257748
 41
0.0190136828257748
  0
VERTEX
  5
3D2
  8
PROFILEEDGES
 10
-3.148588360477754
 20
-2.273415867575338
 30
0.0
 40
0.0190136828257748
 41
0.0190136828257748
  0
SEQEND
  5
624
  8
PROFILEEDGES
  0
POLYLINE
  5
144
  8
PROFILEEDGES
 66
     1
 10
0.0
 20
0.0
 30
0.0
  0
VERTEX
  5
3D3
  8
PROFILEEDGES
 10
-3.191720337159955
 20
-2.27582213137776
 30
0.0
 40
0.0190136828257748
 41
0.0190136828257748
  0
VERTEX
  5
3D4
  8
PROFILEEDGES
 10
-3.168061973874936
 20
-2.274619327207439
 30
0.0
 40
0.0190136828257748
 41
0.0190136828257748
  0
SEQEND
  5
625
  8
PROFILEEDGES
  0
POLYLINE
  5
145
  8
PROFILEEDGES
 66
     1
 10
0.0
 20
0.0
 30
0.0
  0
VERTEX
  5
3D5
  8
PROFILEEDGES
 10
-3.219522572349513
 20
-2.276872675887097
 30
0.0
 40
0.0190136828257748
 41
0.0190136828257748
  0
VERTEX
  5
3D6
  8
PROFILEEDGES
 10
-3.191720337159955
 20
-2.27582213137776
 30
0.0
 40
0.0190136828257748
 41
0.0190136828257748
  0
SEQEND
  5
626
  8
PROFILEEDGES
  0
POLYLINE
  5
146
  8
PROFILEEDGES
 66
     1
 10
0.0
 20
0.0
 30
0.0
  0
VERTEX
  5
3D7
  8
PROFILEEDGES
 10
-3.249732143717758
 20
-2.277570224451869
 30
0.0
 40
0.0190136828257748
 41
0.0190136828257748
  0
VERTEX
  5
3D8
  8
PROFILEEDGES
 10
-3.219522572349513
 20
-2.276872675887097
 30
0.0
 40
0.0190136828257748
 41
0.0190136828257748
  0
SEQEND
  5
627
  8
PROFILEEDGES
  0
POLYLINE
  5
147
  8
PROFILEEDGES
 66
     1
 10
0.0
 20
0.0
 30
0.0
  0
VERTEX
  5
3D9
  8
PROFILEEDGES
 10
-3.280247643862272
 20
-2.277805833139781
 30
0.0
 40
0.0190136828257748
 41
0.0190136828257748
  0
VERTEX
  5
3DA
  8
PROFILEEDGES
 10
-3.249732143717758
 20
-2.277570224451869
 30
0.0
 40
0.0190136828257748
 41
0.0190136828257748
  0
SEQEND
  5
628
  8
PROFILEEDGES
  0
POLYLINE
  5
148
  8
PROFILEEDGES
 66
     1
 10
0.0
 20
0.0
 30
0.0
  0
VERTEX
  5
3DB
  8
PROFILEEDGES
 10
-3.310763144006764
 20
-2.277570224451869
 30
0.0
 40
0.0190136828257748
 41
0.0190136828257748
  0
VERTEX
  5
3DC
  8
PROFILEEDGES
 10
-3.280247643862272
 20
-2.277805833139781
 30
0.0
 40
0.0190136828257748
 41
0.0190136828257748
  0
SEQEND
  5
629
  8
PROFILEEDGES
  0
POLYLINE
  5
149
  8
PROFILEEDGES
 66
     1
 10
0.0
 20
0.0
 30
0.0
  0
VERTEX
  5
3DD
  8
PROFILEEDGES
 10
-3.340972715375031
 20
-2.276872675887093
 30
0.0
 40
0.0190136828257748
 41
0.0190136828257748
  0
VERTEX
  5
3DE
  8
PROFILEEDGES
 10
-3.310763144006764
 20
-2.277570224451869
 30
0.0
 40
0.0190136828257748
 41
0.0190136828257748
  0
SEQEND
  5
62A
  8
PROFILEEDGES
  0
POLYLINE
  5
14A
  8
PROFILEEDGES
 66
     1
 10
0.0
 20
0.0
 30
0.0
  0
VERTEX
  5
3DF
  8
PROFILEEDGES
 10
-3.368774950564589
 20
-2.27582213137776
 30
0.0
 40
0.0190136828257748
 41
0.0190136828257748
  0
VERTEX
  5
3E0
  8
PROFILEEDGES
 10
-3.340972715375031
 20
-2.276872675887093
 30
0.0
 40
0.0190136828257748
 41
0.0190136828257748
  0
SEQEND
  5
62B
  8
PROFILEEDGES
  0
POLYLINE
  5
14B
  8
PROFILEEDGES
 66
     1
 10
0.0
 20
0.0
 30
0.0
  0
VERTEX
  5
3E1
  8
PROFILEEDGES
 10
-3.392433313849596
 20
-2.274619327207439
 30
0.0
 40
0.0190136828257748
 41
0.0190136828257748
  0
VERTEX
  5
3E2
  8
PROFILEEDGES
 10
-3.368774950564589
 20
-2.27582213137776
 30
0.0
 40
0.0190136828257748
 41
0.0190136828257748
  0
SEQEND
  5
62C
  8
PROFILEEDGES
  0
POLYLINE
  5
14C
  8
PROFILEEDGES
 66
     1
 10
0.0
 20
0.0
 30
0.0
  0
VERTEX
  5
3E3
  8
PROFILEEDGES
 10
-3.411906927246784
 20
-2.273415867575338
 30
0.0
 40
0.0190136828257748
 41
0.0190136828257748
  0
VERTEX
  5
3E4
  8
PROFILEEDGES
 10
-3.392433313849596
 20
-2.274619327207439
 30
0.0
 40
0.0190136828257748
 41
0.0190136828257748
  0
SEQEND
  5
62D
  8
PROFILEEDGES
  0
POLYLINE
  5
14D
  8
PROFILEEDGES
 66
     1
 10
0.0
 20
0.0
 30
0.0
  0
VERTEX
  5
3E5
  8
PROFILEEDGES
 10
-3.42682088308455
 20
-2.272363678690069
 30
0.0
 40
0.0190136828257748
 41
0.0190136828257748
  0
VERTEX
  5
3E6
  8
PROFILEEDGES
 10
-3.411906927246784
 20
-2.273415867575338
 30
0.0
 40
0.0190136828257748
 41
0.0190136828257748
  0
SEQEND
  5
62E
  8
PROFILEEDGES
  0
POLYLINE
  5
14E
  8
PROFILEEDGES
 66
     1
 10
0.0
 20
0.0
 30
0.0
  0
VERTEX
  5
3E7
  8
PROFILEEDGES
 10
-3.435939815969032
 20
-2.271664484690929
 30
0.0
 40
0.0190136828257748
 41
0.0190136828257748
  0
VERTEX
  5
3E8
  8
PROFILEEDGES
 10
-3.42682088308455
 20
-2.272363678690069
 30
0.0
 40
0.0190136828257748
 41
0.0190136828257748
  0
SEQEND
  5
62F
  8
PROFILEEDGES
  0
POLYLINE
  5
14F
  8
PROFILEEDGES
 66
     1
 10
0.0
 20
0.0
 30
0.0
  0
VERTEX
  5
3E9
  8
PROFILEEDGES
 10
-3.438902139862271
 20
-2.271428220089857
 30
0.0
 40
0.0190136828257748
 41
0.0190136828257748
  0
VERTEX
  5
3EA
  8
PROFILEEDGES
 10
-3.435939815969032
 20
-2.271664484690929
 30
0.0
 40
0.0190136828257748
 41
0.0190136828257748
  0
SEQEND
  5
630
  8
PROFILEEDGES
  0
POLYLINE
  5
150
  8
PROFILEEDGES
 66
     1
 10
0.0
 20
0.0
 30
0.0
  0
VERTEX
  5
3EB
  8
PROFILEEDGES
 10
-3.445461821966622
 20
-2.202993239643595
 30
0.0
 40
0.0190136828257748
 41
0.0190136828257748
  0
VERTEX
  5
3EC
  8
PROFILEEDGES
 10
-3.908683817063804
 20
-2.111421597407859
 30
0.0
 40
0.0190136828257748
 41
0.0190136828257748
  0
SEQEND
  5
631
  8
PROFILEEDGES
  0
LINE
  5
151
  8
0
 10
-3.908683817063804
 20
-2.111421597407859
 30
0.0
 11
-3.598382498437383
 21
-2.190257174949217
 31
0.0
  0
POLYLINE
  5
152
  8
PROFILEEDGES
 66
     1
 10
0.0
 20
0.0
 30
0.0
  0
VERTEX
  5
3ED
  8
PROFILEEDGES
 10
-3.335627644900228
 20
-2.212140826595572
 30
0.0
 40
0.0190136828257748
 41
0.0190136828257748
  0
VERTEX
  5
3EE
  8
PROFILEEDGES
 10
-3.908683817063804
 20
-2.111421597407859
 30
0.0
 40
0.0190136828257748
 41
0.0190136828257748
  0
SEQEND
  5
632
  8
PROFILEEDGES
  0
POLYLINE
  5
153
  8
PROFILEEDGES
 66
     1
 10
0.0
 20
0.0
 30
0.0
  0
VERTEX
  5
3EF
  8
PROFILEEDGES
 10
-3.280247643862272
 20
-2.216753173939778
 30
0.0
 40
0.0190136828257748
 41
0.0190136828257748
  0
VERTEX
  5
3F0
  8
PROFILEEDGES
 10
-2.962112789287155
 20
-2.190257174949217
 30
0.0
 40
0.0190136828257748
 41
0.0190136828257748
  0
SEQEND
  5
633
  8
PROFILEEDGES
  0
POLYLINE
  5
154
  8
PROFILEEDGES
 66
     1
 10
0.0
 20
0.0
 30
0.0
  0
VERTEX
  5
3F1
  8
PROFILEEDGES
 10
-2.962112789287155
 20
-2.190257174949217
 30
0.0
 40
0.0190136828257748
 41
0.0190136828257748
  0
VERTEX
  5
3F2
  8
PROFILEEDGES
 10
-2.651811470660734
 20
-2.111421597407859
 30
0.0
 40
0.0190136828257748
 41
0.0190136828257748
  0
SEQEND
  5
634
  8
PROFILEEDGES
  0
POLYLINE
  5
155
  8
PROFILEEDGES
 66
     1
 10
0.0
 20
0.0
 30
0.0
  0
VERTEX
  5
3F3
  8
PROFILEEDGES
 10
-3.381723496244611
 20
2.079007839395426
 30
0.0
 40
0.0190136828257748
 41
0.0190136828257748
  0
VERTEX
  5
3F4
  8
PROFILEEDGES
 10
-3.908683817063803
 20
1.982127723128299
 30
0.0
 40
0.0190136828257748
 41
0.0190136828257748
  0
SEQEND
  5
635
  8
PROFILEEDGES
  0
POLYLINE
  5
156
  8
PROFILEEDGES
 66
     1
 10
0.0
 20
0.0
 30
0.0
  0
VERTEX
  5
3F5
  8
PROFILEEDGES
 10
-3.480263790975877
 20
2.07080086831954
 30
0.0
 40
0.0190136828257748
 41
0.0190136828257748
  0
VERTEX
  5
3F6
  8
PROFILEEDGES
 10
-3.908683817063803
 20
1.982127723128299
 30
0.0
 40
0.0190136828257748
 41
0.0190136828257748
  0
SEQEND
  5
636
  8
PROFILEEDGES
  0
LINE
  5
157
  8
0
 10
-3.598382498437383
 20
2.060963300669663
 30
0.0
 11
-3.908683817063803
 21
1.982127723128299
 31
0.0
  0
POLYLINE
  5
158
  8
PROFILEEDGES
 66
     1
 10
0.0
 20
0.0
 30
0.0
  0
VERTEX
  5
3F7
  8
PROFILEEDGES
 10
-3.115033465757911
 20
2.07369936536404
 30
0.0
 40
0.0190136828257748
 41
0.0190136828257748
  0
VERTEX
  5
3F8
  8
PROFILEEDGES
 10
-2.651811470660734
 20
1.982127723128299
 30
0.0
 40
0.0190136828257748
 41
0.0190136828257748
  0
SEQEND
  5
637
  8
PROFILEEDGES
  0
LINE
  5
159
  8
0
 10
-2.651811470660734
 20
1.982127723128299
 30
0.0
 11
-2.962112789287155
 21
2.060963300669663
 31
0.0
  0
POLYLINE
  5
15A
  8
PROFILEEDGES
 66
     1
 10
0.0
 20
0.0
 30
0.0
  0
VERTEX
  5
3F9
  8
PROFILEEDGES
 10
-3.224867642824299
 20
2.082846952316016
 30
0.0
 40
0.0190136828257748
 41
0.0190136828257748
  0
VERTEX
  5
3FA
  8
PROFILEEDGES
 10
-2.651811470660734
 20
1.982127723128299
 30
0.0
 40
0.0190136828257748
 41
0.0190136828257748
  0
SEQEND
  5
638
  8
PROFILEEDGES
  0
POLYLINE
  5
15B
  8
PROFILEEDGES
 66
     1
 10
0.0
 20
0.0
 30
0.0
  0
VERTEX
  5
3FB
  8
PROFILEEDGES
 10
-1.24658546786227
 20
-0.0646469371397742
 30
0.0
 40
0.0190136828257748
 41
0.0190136828257748
  0
VERTEX
  5
3FC
  8
PROFILEEDGES
 10
-1.271623223917735
 20
0.2720166507237758
 30
0.0
 40
0.0190136828257748
 41
0.0190136828257748
  0
SEQEND
  5
639
  8
PROFILEEDGES
  0
POLYLINE
  5
15C
  8
PROFILEEDGES
 66
     1
 10
0.0
 20
0.0
 30
0.0
  0
VERTEX
  5
3FD
  8
PROFILEEDGES
 10
-1.271623223917735
 20
0.2720166507237758
 30
0.0
 40
0.0190136828257748
 41
0.0190136828257748
  0
VERTEX
  5
3FE
  8
PROFILEEDGES
 10
-1.346119979434491
 20
0.6003904637317368
 30
0.0
 40
0.0190136828257748
 41
0.0190136828257748
  0
SEQEND
  5
63A
  8
PROFILEEDGES
  0
POLYLINE
  5
15D
  8
PROFILEEDGES
 66
     1
 10
0.0
 20
0.0
 30
0.0
  0
VERTEX
  5
3FF
  8
PROFILEEDGES
 10
-1.346119979434491
 20
0.6003904637317368
 30
0.0
 40
0.0190136828257748
 41
0.0190136828257748
  0
VERTEX
  5
400
  8
PROFILEEDGES
 10
-1.468241377051158
 20
0.9123888487976513
 30
0.0
 40
0.0190136828257748
 41
0.0190136828257748
  0
SEQEND
  5
63B
  8
PROFILEEDGES
  0
POLYLINE
  5
15E
  8
PROFILEEDGES
 66
     1
 10
0.0
 20
0.0
 30
0.0
  0
VERTEX
  5
401
  8
PROFILEEDGES
 10
-1.468241377051158
 20
0.9123888487976513
 30
0.0
 40
0.0190136828257748
 41
0.0190136828257748
  0
VERTEX
  5
402
  8
PROFILEEDGES
 10
-1.634980382660736
 20
1.200329370217916
 30
0.0
 40
0.0190136828257748
 41
0.0190136828257748
  0
SEQEND
  5
63C
  8
PROFILEEDGES
  0
POLYLINE
  5
15F
  8
PROFILEEDGES
 66
     1
 10
0.0
 20
0.0
 30
0.0
  0
VERTEX
  5
403
  8
PROFILEEDGES
 10
-1.634980382660736
 20
1.200329370217916
 30
0.0
 40
0.0190136828257748
 41
0.0190136828257748
  0
VERTEX
  5
404
  8
PROFILEEDGES
 10
-1.84223132857008
 20
1.457121976735361
 30
0.0
 40
0.0190136828257748
 41
0.0190136828257748
  0
SEQEND
  5
63D
  8
PROFILEEDGES
  0
POLYLINE
  5
160
  8
PROFILEEDGES
 66
     1
 10
0.0
 20
0.0
 30
0.0
  0
VERTEX
  5
405
  8
PROFILEEDGES
 10
-1.84223132857008
 20
1.457121976735361
 30
0.0
 40
0.0190136828257748
 41
0.0190136828257748
  0
VERTEX
  5
406
  8
PROFILEEDGES
 10
-2.084891008664453
 20
1.676443582131742
 30
0.0
 40
0.0190136828257748
 41
0.0190136828257748
  0
SEQEND
  5
63E
  8
PROFILEEDGES
  0
POLYLINE
  5
161
  8
PROFILEEDGES
 66
     1
 10
0.0
 20
0.0
 30
0.0
  0
VERTEX
  5
407
  8
PROFILEEDGES
 10
-2.084891008664453
 20
1.676443582131742
 30
0.0
 40
0.0190136828257748
 41
0.0190136828257748
  0
VERTEX
  5
408
  8
PROFILEEDGES
 10
-2.356984336278619
 20
1.852893760595497
 30
0.0
 40
0.0190136828257748
 41
0.0190136828257748
  0
SEQEND
  5
63F
  8
PROFILEEDGES
  0
POLYLINE
  5
162
  8
PROFILEEDGES
 66
     1
 10
0.0
 20
0.0
 30
0.0
  0
VERTEX
  5
409
  8
PROFILEEDGES
 10
-2.356984336278619
 20
1.852893760595497
 30
0.0
 40
0.0190136828257748
 41
0.0190136828257748
  0
VERTEX
  5
40A
  8
PROFILEEDGES
 10
-2.651811470660734
 20
1.982127723128299
 30
0.0
 40
0.0190136828257748
 41
0.0190136828257748
  0
SEQEND
  5
640
  8
PROFILEEDGES
  0
POLYLINE
  5
163
  8
PROFILEEDGES
 66
     1
 10
0.0
 20
0.0
 30
0.0
  0
VERTEX
  5
40B
  8
PROFILEEDGES
 10
-3.908683817063803
 20
1.982127723128299
 30
0.0
 40
0.0190136828257748
 41
0.0190136828257748
  0
VERTEX
  5
40C
  8
PROFILEEDGES
 10
-4.203510951445924
 20
1.852893760595503
 30
0.0
 40
0.0190136828257748
 41
0.0190136828257748
  0
SEQEND
  5
641
  8
PROFILEEDGES
  0
POLYLINE
  5
164
  8
PROFILEEDGES
 66
     1
 10
0.0
 20
0.0
 30
0.0
  0
VERTEX
  5
40D
  8
PROFILEEDGES
 10
-4.203510951445924
 20
1.852893760595503
 30
0.0
 40
0.0190136828257748
 41
0.0190136828257748
  0
VERTEX
  5
40E
  8
PROFILEEDGES
 10
-4.475604279060086
 20
1.676443582131742
 30
0.0
 40
0.0190136828257748
 41
0.0190136828257748
  0
SEQEND
  5
642
  8
PROFILEEDGES
  0
POLYLINE
  5
165
  8
PROFILEEDGES
 66
     1
 10
0.0
 20
0.0
 30
0.0
  0
VERTEX
  5
40F
  8
PROFILEEDGES
 10
-4.475604279060086
 20
1.676443582131742
 30
0.0
 40
0.0190136828257748
 41
0.0190136828257748
  0
VERTEX
  5
410
  8
PROFILEEDGES
 10
-4.718263959154458
 20
1.457121976735361
 30
0.0
 40
0.0190136828257748
 41
0.0190136828257748
  0
SEQEND
  5
643
  8
PROFILEEDGES
  0
POLYLINE
  5
166
  8
PROFILEEDGES
 66
     1
 10
0.0
 20
0.0
 30
0.0
  0
VERTEX
  5
411
  8
PROFILEEDGES
 10
-4.718263959154458
 20
1.457121976735361
 30
0.0
 40
0.0190136828257748
 41
0.0190136828257748
  0
VERTEX
  5
412
  8
PROFILEEDGES
 10
-4.925514905063808
 20
1.200329370217916
 30
0.0
 40
0.0190136828257748
 41
0.0190136828257748
  0
SEQEND
  5
644
  8
PROFILEEDGES
  0
POLYLINE
  5
167
  8
PROFILEEDGES
 66
     1
 10
0.0
 20
0.0
 30
0.0
  0
VERTEX
  5
413
  8
PROFILEEDGES
 10
-4.925514905063808
 20
1.200329370217916
 30
0.0
 40
0.0190136828257748
 41
0.0190136828257748
  0
VERTEX
  5
414
  8
PROFILEEDGES
 10
-5.092253910673381
 20
0.9123888487976513
 30
0.0
 40
0.0190136828257748
 41
0.0190136828257748
  0
SEQEND
  5
645
  8
PROFILEEDGES
  0
POLYLINE
  5
168
  8
PROFILEEDGES
 66
     1
 10
0.0
 20
0.0
 30
0.0
  0
VERTEX
  5
415
  8
PROFILEEDGES
 10
-5.092253910673381
 20
0.9123888487976513
 30
0.0
 40
0.0190136828257748
 41
0.0190136828257748
  0
VERTEX
  5
416
  8
PROFILEEDGES
 10
-5.214375308290053
 20
0.6003904637317368
 30
0.0
 40
0.0190136828257748
 41
0.0190136828257748
  0
SEQEND
  5
646
  8
PROFILEEDGES
  0
POLYLINE
  5
169
  8
PROFILEEDGES
 66
     1
 10
0.0
 20
0.0
 30
0.0
  0
VERTEX
  5
417
  8
PROFILEEDGES
 10
-5.214375308290053
 20
0.6003904637317368
 30
0.0
 40
0.0190136828257748
 41
0.0190136828257748
  0
VERTEX
  5
418
  8
PROFILEEDGES
 10
-5.288872063806803
 20
0.2720166507237758
 30
0.0
 40
0.0190136828257748
 41
0.0190136828257748
  0
SEQEND
  5
647
  8
PROFILEEDGES
  0
POLYLINE
  5
16A
  8
PROFILEEDGES
 66
     1
 10
0.0
 20
0.0
 30
0.0
  0
VERTEX
  5
419
  8
PROFILEEDGES
 10
-5.288872063806803
 20
0.2720166507237758
 30
0.0
 40
0.0190136828257748
 41
0.0190136828257748
  0
VERTEX
  5
41A
  8
PROFILEEDGES
 10
-5.313909819862269
 20
-0.0646469371397799
 30
0.0
 40
0.0190136828257748
 41
0.0190136828257748
  0
SEQEND
  5
648
  8
PROFILEEDGES
  0
POLYLINE
  5
16B
  8
PROFILEEDGES
 66
     1
 10
0.0
 20
0.0
 30
0.0
  0
VERTEX
  5
41B
  8
PROFILEEDGES
 10
-5.313909819862269
 20
-0.0646469371397799
 30
0.0
 40
0.0190136828257748
 41
0.0190136828257748
  0
VERTEX
  5
41C
  8
PROFILEEDGES
 10
-5.288872063806803
 20
-0.40131052500333
 30
0.0
 40
0.0190136828257748
 41
0.0190136828257748
  0
SEQEND
  5
649
  8
PROFILEEDGES
  0
POLYLINE
  5
16C
  8
PROFILEEDGES
 66
     1
 10
0.0
 20
0.0
 30
0.0
  0
VERTEX
  5
41D
  8
PROFILEEDGES
 10
-5.288872063806803
 20
-0.40131052500333
 30
0.0
 40
0.0190136828257748
 41
0.0190136828257748
  0
VERTEX
  5
41E
  8
PROFILEEDGES
 10
-5.214375308290053
 20
-0.7296843380112966
 30
0.0
 40
0.0190136828257748
 41
0.0190136828257748
  0
SEQEND
  5
64A
  8
PROFILEEDGES
  0
POLYLINE
  5
16D
  8
PROFILEEDGES
 66
     1
 10
0.0
 20
0.0
 30
0.0
  0
VERTEX
  5
41F
  8
PROFILEEDGES
 10
-5.214375308290053
 20
-0.7296843380112966
 30
0.0
 40
0.0190136828257748
 41
0.0190136828257748
  0
VERTEX
  5
420
  8
PROFILEEDGES
 10
-5.092253910673381
 20
-1.041682723077205
 30
0.0
 40
0.0190136828257748
 41
0.0190136828257748
  0
SEQEND
  5
64B
  8
PROFILEEDGES
  0
POLYLINE
  5
16E
  8
PROFILEEDGES
 66
     1
 10
0.0
 20
0.0
 30
0.0
  0
VERTEX
  5
421
  8
PROFILEEDGES
 10
-5.092253910673381
 20
-1.041682723077205
 30
0.0
 40
0.0190136828257748
 41
0.0190136828257748
  0
VERTEX
  5
422
  8
PROFILEEDGES
 10
-4.925514905063808
 20
-1.32962324449747
 30
0.0
 40
0.0190136828257748
 41
0.0190136828257748
  0
SEQEND
  5
64C
  8
PROFILEEDGES
  0
POLYLINE
  5
16F
  8
PROFILEEDGES
 66
     1
 10
0.0
 20
0.0
 30
0.0
  0
VERTEX
  5
423
  8
PROFILEEDGES
 10
-4.925514905063808
 20
-1.32962324449747
 30
0.0
 40
0.0190136828257748
 41
0.0190136828257748
  0
VERTEX
  5
424
  8
PROFILEEDGES
 10
-4.718263959154458
 20
-1.586415851014921
 30
0.0
 40
0.0190136828257748
 41
0.0190136828257748
  0
SEQEND
  5
64D
  8
PROFILEEDGES
  0
POLYLINE
  5
170
  8
PROFILEEDGES
 66
     1
 10
0.0
 20
0.0
 30
0.0
  0
VERTEX
  5
425
  8
PROFILEEDGES
 10
-4.718263959154458
 20
-1.586415851014921
 30
0.0
 40
0.0190136828257748
 41
0.0190136828257748
  0
VERTEX
  5
426
  8
PROFILEEDGES
 10
-4.475604279060086
 20
-1.805737456411296
 30
0.0
 40
0.0190136828257748
 41
0.0190136828257748
  0
SEQEND
  5
64E
  8
PROFILEEDGES
  0
POLYLINE
  5
171
  8
PROFILEEDGES
 66
     1
 10
0.0
 20
0.0
 30
0.0
  0
VERTEX
  5
427
  8
PROFILEEDGES
 10
-4.475604279060086
 20
-1.805737456411296
 30
0.0
 40
0.0190136828257748
 41
0.0190136828257748
  0
VERTEX
  5
428
  8
PROFILEEDGES
 10
-4.203510951445924
 20
-1.982187634875051
 30
0.0
 40
0.0190136828257748
 41
0.0190136828257748
  0
SEQEND
  5
64F
  8
PROFILEEDGES
  0
POLYLINE
  5
172
  8
PROFILEEDGES
 66
     1
 10
0.0
 20
0.0
 30
0.0
  0
VERTEX
  5
429
  8
PROFILEEDGES
 10
-4.203510951445924
 20
-1.982187634875051
 30
0.0
 40
0.0190136828257748
 41
0.0190136828257748
  0
VERTEX
  5
42A
  8
PROFILEEDGES
 10
-3.908683817063804
 20
-2.111421597407859
 30
0.0
 40
0.0190136828257748
 41
0.0190136828257748
  0
SEQEND
  5
650
  8
PROFILEEDGES
  0
POLYLINE
  5
173
  8
PROFILEEDGES
 66
     1
 10
0.0
 20
0.0
 30
0.0
  0
VERTEX
  5
42B
  8
PROFILEEDGES
 10
-2.651811470660734
 20
-2.111421597407859
 30
0.0
 40
0.0190136828257748
 41
0.0190136828257748
  0
VERTEX
  5
42C
  8
PROFILEEDGES
 10
-2.356984336278619
 20
-1.982187634875051
 30
0.0
 40
0.0190136828257748
 41
0.0190136828257748
  0
SEQEND
  5
651
  8
PROFILEEDGES
  0
POLYLINE
  5
174
  8
PROFILEEDGES
 66
     1
 10
0.0
 20
0.0
 30
0.0
  0
VERTEX
  5
42D
  8
PROFILEEDGES
 10
-2.356984336278619
 20
-1.982187634875051
 30
0.0
 40
0.0190136828257748
 41
0.0190136828257748
  0
VERTEX
  5
42E
  8
PROFILEEDGES
 10
-2.084891008664453
 20
-1.805737456411296
 30
0.0
 40
0.0190136828257748
 41
0.0190136828257748
  0
SEQEND
  5
652
  8
PROFILEEDGES
  0
POLYLINE
  5
175
  8
PROFILEEDGES
 66
     1
 10
0.0
 20
0.0
 30
0.0
  0
VERTEX
  5
42F
  8
PROFILEEDGES
 10
-2.084891008664453
 20
-1.805737456411296
 30
0.0
 40
0.0190136828257748
 41
0.0190136828257748
  0
VERTEX
  5
430
  8
PROFILEEDGES
 10
-1.84223132857008
 20
-1.586415851014921
 30
0.0
 40
0.0190136828257748
 41
0.0190136828257748
  0
SEQEND
  5
653
  8
PROFILEEDGES
  0
POLYLINE
  5
176
  8
PROFILEEDGES
 66
     1
 10
0.0
 20
0.0
 30
0.0
  0
VERTEX
  5
431
  8
PROFILEEDGES
 10
-1.84223132857008
 20
-1.586415851014921
 30
0.0
 40
0.0190136828257748
 41
0.0190136828257748
  0
VERTEX
  5
432
  8
PROFILEEDGES
 10
-1.634980382660736
 20
-1.32962324449747
 30
0.0
 40
0.0190136828257748
 41
0.0190136828257748
  0
SEQEND
  5
654
  8
PROFILEEDGES
  0
POLYLINE
  5
177
  8
PROFILEEDGES
 66
     1
 10
0.0
 20
0.0
 30
0.0
  0
VERTEX
  5
433
  8
PROFILEEDGES
 10
-1.634980382660736
 20
-1.32962324449747
 30
0.0
 40
0.0190136828257748
 41
0.0190136828257748
  0
VERTEX
  5
434
  8
PROFILEEDGES
 10
-1.468241377051158
 20
-1.041682723077205
 30
0.0
 40
0.0190136828257748
 41
0.0190136828257748
  0
SEQEND
  5
655
  8
PROFILEEDGES
  0
POLYLINE
  5
178
  8
PROFILEEDGES
 66
     1
 10
0.0
 20
0.0
 30
0.0
  0
VERTEX
  5
435
  8
PROFILEEDGES
 10
-1.468241377051158
 20
-1.041682723077205
 30
0.0
 40
0.0190136828257748
 41
0.0190136828257748
  0
VERTEX
  5
436
  8
PROFILEEDGES
 10
-1.346119979434491
 20
-0.7296843380112966
 30
0.0
 40
0.0190136828257748
 41
0.0190136828257748
  0
SEQEND
  5
656
  8
PROFILEEDGES
  0
POLYLINE
  5
179
  8
PROFILEEDGES
 66
     1
 10
0.0
 20
0.0
 30
0.0
  0
VERTEX
  5
437
  8
PROFILEEDGES
 10
-1.346119979434491
 20
-0.7296843380112966
 30
0.0
 40
0.0190136828257748
 41
0.0190136828257748
  0
VERTEX
  5
438
  8
PROFILEEDGES
 10
-1.271623223917735
 20
-0.40131052500333
 30
0.0
 40
0.0190136828257748
 41
0.0190136828257748
  0
SEQEND
  5
657
  8
PROFILEEDGES
  0
POLYLINE
  5
17A
  8
PROFILEEDGES
 66
     1
 10
0.0
 20
0.0
 30
0.0
  0
VERTEX
  5
439
  8
PROFILEEDGES
 10
-1.271623223917735
 20
-0.40131052500333
 30
0.0
 40
0.0190136828257748
 41
0.0190136828257748
  0
VERTEX
  5
43A
  8
PROFILEEDGES
 10
-1.24658546786227
 20
-0.0646469371397742
 30
0.0
 40
0.0190136828257748
 41
0.0190136828257748
  0
SEQEND
  5
658
  8
PROFILEEDGES
  0
POLYLINE
  5
17B
  8
PROFILEEDGES
 66
     1
 10
0.0
 20
0.0
 30
0.0
  0
VERTEX
  5
43B
  8
PROFILEEDGES
 10
-5.345854316854883
 20
0.281567390805012
 30
0.0
 40
0.0190136828257748
 41
0.0190136828257748
  0
VERTEX
  5
43C
  8
PROFILEEDGES
 10
-5.371602363862273
 20
-0.0646469371397799
 30
0.0
 40
0.0190136828257748
 41
0.0190136828257748
  0
SEQEND
  5
659
  8
PROFILEEDGES
  0
POLYLINE
  5
17C
  8
PROFILEEDGES
 66
     1
 10
0.0
 20
0.0
 30
0.0
  0
VERTEX
  5
43D
  8
PROFILEEDGES
 10
-5.371602363862273
 20
-0.0646469371397799
 30
0.0
 40
0.0190136828257748
 41
0.0190136828257748
  0
VERTEX
  5
43E
  8
PROFILEEDGES
 10
-5.345854316854883
 20
-0.4108612650845662
 30
0.0
 40
0.0190136828257748
 41
0.0190136828257748
  0
SEQEND
  5
65A
  8
PROFILEEDGES
  0
POLYLINE
  5
17D
  8
PROFILEEDGES
 66
     1
 10
0.0
 20
0.0
 30
0.0
  0
VERTEX
  5
43F
  8
PROFILEEDGES
 10
-5.345854316854883
 20
-0.4108612650845662
 30
0.0
 40
0.0190136828257748
 41
0.0190136828257748
  0
VERTEX
  5
440
  8
PROFILEEDGES
 10
-5.269244178202892
 20
-0.7485506472558728
 30
0.0
 40
0.0190136828257748
 41
0.0190136828257748
  0
SEQEND
  5
65B
  8
PROFILEEDGES
  0
POLYLINE
  5
17E
  8
PROFILEEDGES
 66
     1
 10
0.0
 20
0.0
 30
0.0
  0
VERTEX
  5
441
  8
PROFILEEDGES
 10
-5.269244178202892
 20
-0.7485506472558728
 30
0.0
 40
0.0190136828257748
 41
0.0190136828257748
  0
VERTEX
  5
442
  8
PROFILEEDGES
 10
-5.143658343774412
 20
-1.069400050337843
 30
0.0
 40
0.0190136828257748
 41
0.0190136828257748
  0
SEQEND
  5
65C
  8
PROFILEEDGES
  0
POLYLINE
  5
17F
  8
PROFILEEDGES
 66
     1
 10
0.0
 20
0.0
 30
0.0
  0
VERTEX
  5
443
  8
PROFILEEDGES
 10
-5.143658343774412
 20
-1.069400050337843
 30
0.0
 40
0.0190136828257748
 41
0.0190136828257748
  0
VERTEX
  5
444
  8
PROFILEEDGES
 10
-4.972189153608526
 20
-1.365509097188472
 30
0.0
 40
0.0190136828257748
 41
0.0190136828257748
  0
SEQEND
  5
65D
  8
PROFILEEDGES
  0
POLYLINE
  5
180
  8
PROFILEEDGES
 66
     1
 10
0.0
 20
0.0
 30
0.0
  0
VERTEX
  5
445
  8
PROFILEEDGES
 10
-4.972189153608526
 20
-1.365509097188472
 30
0.0
 40
0.0190136828257748
 41
0.0190136828257748
  0
VERTEX
  5
446
  8
PROFILEEDGES
 10
-4.759058748240764
 20
-1.629586600344713
 30
0.0
 40
0.0190136828257748
 41
0.0190136828257748
  0
SEQEND
  5
65E
  8
PROFILEEDGES
  0
POLYLINE
  5
181
  8
PROFILEEDGES
 66
     1
 10
0.0
 20
0.0
 30
0.0
  0
VERTEX
  5
447
  8
PROFILEEDGES
 10
-4.759058748240764
 20
-1.629586600344713
 30
0.0
 40
0.0190136828257748
 41
0.0190136828257748
  0
VERTEX
  5
448
  8
PROFILEEDGES
 10
-4.509515105590525
 20
-1.855130095255877
 30
0.0
 40
0.0190136828257748
 41
0.0190136828257748
  0
SEQEND
  5
65F
  8
PROFILEEDGES
  0
POLYLINE
  5
182
  8
PROFILEEDGES
 66
     1
 10
0.0
 20
0.0
 30
0.0
  0
VERTEX
  5
449
  8
PROFILEEDGES
 10
-4.509515105590525
 20
-1.855130095255877
 30
0.0
 40
0.0190136828257748
 41
0.0190136828257748
  0
VERTEX
  5
44A
  8
PROFILEEDGES
 10
-4.229702818327731
 20
-2.036585952541307
 30
0.0
 40
0.0190136828257748
 41
0.0190136828257748
  0
SEQEND
  5
660
  8
PROFILEEDGES
  0
POLYLINE
  5
183
  8
PROFILEEDGES
 66
     1
 10
0.0
 20
0.0
 30
0.0
  0
VERTEX
  5
44B
  8
PROFILEEDGES
 10
-4.229702818327731
 20
-2.036585952541307
 30
0.0
 40
0.0190136828257748
 41
0.0190136828257748
  0
VERTEX
  5
44C
  8
PROFILEEDGES
 10
-3.926511793608531
 20
-2.169486126777165
 30
0.0
 40
0.0190136828257748
 41
0.0190136828257748
  0
SEQEND
  5
661
  8
PROFILEEDGES
  0
POLYLINE
  5
184
  8
PROFILEEDGES
 66
     1
 10
0.0
 20
0.0
 30
0.0
  0
VERTEX
  5
44D
  8
PROFILEEDGES
 10
-3.926511793608531
 20
-2.169486126777165
 30
0.0
 40
0.0190136828257748
 41
0.0190136828257748
  0
VERTEX
  5
44E
  8
PROFILEEDGES
 10
-3.607407600694833
 20
-2.250558174603385
 30
0.0
 40
0.0190136828257748
 41
0.0190136828257748
  0
SEQEND
  5
662
  8
PROFILEEDGES
  0
LINE
  5
185
  8
0
 10
-3.607407600694833
 20
-2.250558174603385
 30
0.0
 11
-3.280247643862272
 21
-2.277805833139781
 31
0.0
  0
LINE
  5
186
  8
0
 10
-3.280247643862272
 20
-2.277805833139781
 30
0.0
 11
-2.953087687029711
 21
-2.250558174603385
 31
0.0
  0
POLYLINE
  5
187
  8
PROFILEEDGES
 66
     1
 10
0.0
 20
0.0
 30
0.0
  0
VERTEX
  5
44F
  8
PROFILEEDGES
 10
-2.953087687029711
 20
-2.250558174603385
 30
0.0
 40
0.0190136828257748
 41
0.0190136828257748
  0
VERTEX
  5
450
  8
PROFILEEDGES
 10
-2.633983494116013
 20
-2.169486126777165
 30
0.0
 40
0.0190136828257748
 41
0.0190136828257748
  0
SEQEND
  5
663
  8
PROFILEEDGES
  0
POLYLINE
  5
188
  8
PROFILEEDGES
 66
     1
 10
0.0
 20
0.0
 30
0.0
  0
VERTEX
  5
451
  8
PROFILEEDGES
 10
-2.633983494116013
 20
-2.169486126777165
 30
0.0
 40
0.0190136828257748
 41
0.0190136828257748
  0
VERTEX
  5
452
  8
PROFILEEDGES
 10
-2.330792469396812
 20
-2.036585952541307
 30
0.0
 40
0.0190136828257748
 41
0.0190136828257748
  0
SEQEND
  5
664
  8
PROFILEEDGES
  0
POLYLINE
  5
189
  8
PROFILEEDGES
 66
     1
 10
0.0
 20
0.0
 30
0.0
  0
VERTEX
  5
453
  8
PROFILEEDGES
 10
-2.330792469396812
 20
-2.036585952541307
 30
0.0
 40
0.0190136828257748
 41
0.0190136828257748
  0
VERTEX
  5
454
  8
PROFILEEDGES
 10
-2.050980182134019
 20
-1.855130095255877
 30
0.0
 40
0.0190136828257748
 41
0.0190136828257748
  0
SEQEND
  5
665
  8
PROFILEEDGES
  0
POLYLINE
  5
18A
  8
PROFILEEDGES
 66
     1
 10
0.0
 20
0.0
 30
0.0
  0
VERTEX
  5
455
  8
PROFILEEDGES
 10
-2.050980182134019
 20
-1.855130095255877
 30
0.0
 40
0.0190136828257748
 41
0.0190136828257748
  0
VERTEX
  5
456
  8
PROFILEEDGES
 10
-1.801436539483775
 20
-1.629586600344713
 30
0.0
 40
0.0190136828257748
 41
0.0190136828257748
  0
SEQEND
  5
666
  8
PROFILEEDGES
  0
POLYLINE
  5
18B
  8
PROFILEEDGES
 66
     1
 10
0.0
 20
0.0
 30
0.0
  0
VERTEX
  5
457
  8
PROFILEEDGES
 10
-1.801436539483775
 20
-1.629586600344713
 30
0.0
 40
0.0190136828257748
 41
0.0190136828257748
  0
VERTEX
  5
458
  8
PROFILEEDGES
 10
-1.588306134116012
 20
-1.365509097188467
 30
0.0
 40
0.0190136828257748
 41
0.0190136828257748
  0
SEQEND
  5
667
  8
PROFILEEDGES
  0
POLYLINE
  5
18C
  8
PROFILEEDGES
 66
     1
 10
0.0
 20
0.0
 30
0.0
  0
VERTEX
  5
459
  8
PROFILEEDGES
 10
-1.588306134116012
 20
-1.365509097188467
 30
0.0
 40
0.0190136828257748
 41
0.0190136828257748
  0
VERTEX
  5
45A
  8
PROFILEEDGES
 10
-1.416836943950132
 20
-1.069400050337843
 30
0.0
 40
0.0190136828257748
 41
0.0190136828257748
  0
SEQEND
  5
668
  8
PROFILEEDGES
  0
POLYLINE
  5
18D
  8
PROFILEEDGES
 66
     1
 10
0.0
 20
0.0
 30
0.0
  0
VERTEX
  5
45B
  8
PROFILEEDGES
 10
-1.416836943950132
 20
-1.069400050337843
 30
0.0
 40
0.0190136828257748
 41
0.0190136828257748
  0
VERTEX
  5
45C
  8
PROFILEEDGES
 10
-1.291251109521646
 20
-0.7485506472558728
 30
0.0
 40
0.0190136828257748
 41
0.0190136828257748
  0
SEQEND
  5
669
  8
PROFILEEDGES
  0
POLYLINE
  5
18E
  8
PROFILEEDGES
 66
     1
 10
0.0
 20
0.0
 30
0.0
  0
VERTEX
  5
45D
  8
PROFILEEDGES
 10
-1.291251109521646
 20
-0.7485506472558728
 30
0.0
 40
0.0190136828257748
 41
0.0190136828257748
  0
VERTEX
  5
45E
  8
PROFILEEDGES
 10
-1.214640970869661
 20
-0.4108612650845662
 30
0.0
 40
0.0190136828257748
 41
0.0190136828257748
  0
SEQEND
  5
66A
  8
PROFILEEDGES
  0
POLYLINE
  5
18F
  8
PROFILEEDGES
 66
     1
 10
0.0
 20
0.0
 30
0.0
  0
VERTEX
  5
45F
  8
PROFILEEDGES
 10
-1.214640970869661
 20
-0.4108612650845662
 30
0.0
 40
0.0190136828257748
 41
0.0190136828257748
  0
VERTEX
  5
460
  8
PROFILEEDGES
 10
-1.188892923862271
 20
-0.0646469371397742
 30
0.0
 40
0.0190136828257748
 41
0.0190136828257748
  0
SEQEND
  5
66B
  8
PROFILEEDGES
  0
POLYLINE
  5
190
  8
PROFILEEDGES
 66
     1
 10
0.0
 20
0.0
 30
0.0
  0
VERTEX
  5
461
  8
PROFILEEDGES
 10
-1.188892923862271
 20
-0.0646469371397742
 30
0.0
 40
0.0190136828257748
 41
0.0190136828257748
  0
VERTEX
  5
462
  8
PROFILEEDGES
 10
-1.214640970869661
 20
0.281567390805012
 30
0.0
 40
0.0190136828257748
 41
0.0190136828257748
  0
SEQEND
  5
66C
  8
PROFILEEDGES
  0
POLYLINE
  5
191
  8
PROFILEEDGES
 66
     1
 10
0.0
 20
0.0
 30
0.0
  0
VERTEX
  5
463
  8
PROFILEEDGES
 10
-1.214640970869661
 20
0.281567390805012
 30
0.0
 40
0.0190136828257748
 41
0.0190136828257748
  0
VERTEX
  5
464
  8
PROFILEEDGES
 10
-1.291251109521646
 20
0.6192567729763188
 30
0.0
 40
0.0190136828257748
 41
0.0190136828257748
  0
SEQEND
  5
66D
  8
PROFILEEDGES
  0
POLYLINE
  5
192
  8
PROFILEEDGES
 66
     1
 10
0.0
 20
0.0
 30
0.0
  0
VERTEX
  5
465
  8
PROFILEEDGES
 10
-1.291251109521646
 20
0.6192567729763188
 30
0.0
 40
0.0190136828257748
 41
0.0190136828257748
  0
VERTEX
  5
466
  8
PROFILEEDGES
 10
-1.416836943950132
 20
0.9401061760582832
 30
0.0
 40
0.0190136828257748
 41
0.0190136828257748
  0
SEQEND
  5
66E
  8
PROFILEEDGES
  0
POLYLINE
  5
193
  8
PROFILEEDGES
 66
     1
 10
0.0
 20
0.0
 30
0.0
  0
VERTEX
  5
467
  8
PROFILEEDGES
 10
-1.416836943950132
 20
0.9401061760582832
 30
0.0
 40
0.0190136828257748
 41
0.0190136828257748
  0
VERTEX
  5
468
  8
PROFILEEDGES
 10
-1.588306134116012
 20
1.236215222908913
 30
0.0
 40
0.0190136828257748
 41
0.0190136828257748
  0
SEQEND
  5
66F
  8
PROFILEEDGES
  0
POLYLINE
  5
194
  8
PROFILEEDGES
 66
     1
 10
0.0
 20
0.0
 30
0.0
  0
VERTEX
  5
469
  8
PROFILEEDGES
 10
-1.588306134116012
 20
1.236215222908913
 30
0.0
 40
0.0190136828257748
 41
0.0190136828257748
  0
VERTEX
  5
46A
  8
PROFILEEDGES
 10
-1.801436539483775
 20
1.500292726065153
 30
0.0
 40
0.0190136828257748
 41
0.0190136828257748
  0
SEQEND
  5
670
  8
PROFILEEDGES
  0
POLYLINE
  5
195
  8
PROFILEEDGES
 66
     1
 10
0.0
 20
0.0
 30
0.0
  0
VERTEX
  5
46B
  8
PROFILEEDGES
 10
-1.801436539483775
 20
1.500292726065153
 30
0.0
 40
0.0190136828257748
 41
0.0190136828257748
  0
VERTEX
  5
46C
  8
PROFILEEDGES
 10
-2.050980182134019
 20
1.725836220976318
 30
0.0
 40
0.0190136828257748
 41
0.0190136828257748
  0
SEQEND
  5
671
  8
PROFILEEDGES
  0
POLYLINE
  5
196
  8
PROFILEEDGES
 66
     1
 10
0.0
 20
0.0
 30
0.0
  0
VERTEX
  5
46D
  8
PROFILEEDGES
 10
-2.050980182134019
 20
1.725836220976318
 30
0.0
 40
0.0190136828257748
 41
0.0190136828257748
  0
VERTEX
  5
46E
  8
PROFILEEDGES
 10
-2.330792469396812
 20
1.907292078261747
 30
0.0
 40
0.0190136828257748
 41
0.0190136828257748
  0
SEQEND
  5
672
  8
PROFILEEDGES
  0
POLYLINE
  5
197
  8
PROFILEEDGES
 66
     1
 10
0.0
 20
0.0
 30
0.0
  0
VERTEX
  5
46F
  8
PROFILEEDGES
 10
-2.330792469396812
 20
1.907292078261747
 30
0.0
 40
0.0190136828257748
 41
0.0190136828257748
  0
VERTEX
  5
470
  8
PROFILEEDGES
 10
-2.633983494116013
 20
2.040192252497611
 30
0.0
 40
0.0190136828257748
 41
0.0190136828257748
  0
SEQEND
  5
673
  8
PROFILEEDGES
  0
POLYLINE
  5
198
  8
PROFILEEDGES
 66
     1
 10
0.0
 20
0.0
 30
0.0
  0
VERTEX
  5
471
  8
PROFILEEDGES
 10
-2.633983494116013
 20
2.040192252497611
 30
0.0
 40
0.0190136828257748
 41
0.0190136828257748
  0
VERTEX
  5
472
  8
PROFILEEDGES
 10
-2.953087687029711
 20
2.121264300323831
 30
0.0
 40
0.0190136828257748
 41
0.0190136828257748
  0
SEQEND
  5
674
  8
PROFILEEDGES
  0
LINE
  5
199
  8
0
 10
-2.953087687029711
 20
2.121264300323831
 30
0.0
 11
-3.280247643862272
 21
2.148511958860223
 31
0.0
  0
LINE
  5
19A
  8
0
 10
-3.280247643862272
 20
2.148511958860223
 30
0.0
 11
-3.607407600694833
 21
2.121264300323831
 31
0.0
  0
POLYLINE
  5
19B
  8
PROFILEEDGES
 66
     1
 10
0.0
 20
0.0
 30
0.0
  0
VERTEX
  5
473
  8
PROFILEEDGES
 10
-3.607407600694833
 20
2.121264300323831
 30
0.0
 40
0.0190136828257748
 41
0.0190136828257748
  0
VERTEX
  5
474
  8
PROFILEEDGES
 10
-3.926511793608531
 20
2.040192252497611
 30
0.0
 40
0.0190136828257748
 41
0.0190136828257748
  0
SEQEND
  5
675
  8
PROFILEEDGES
  0
POLYLINE
  5
19C
  8
PROFILEEDGES
 66
     1
 10
0.0
 20
0.0
 30
0.0
  0
VERTEX
  5
475
  8
PROFILEEDGES
 10
-3.926511793608531
 20
2.040192252497611
 30
0.0
 40
0.0190136828257748
 41
0.0190136828257748
  0
VERTEX
  5
476
  8
PROFILEEDGES
 10
-4.229702818327731
 20
1.907292078261747
 30
0.0
 40
0.0190136828257748
 41
0.0190136828257748
  0
SEQEND
  5
676
  8
PROFILEEDGES
  0
POLYLINE
  5
19D
  8
PROFILEEDGES
 66
     1
 10
0.0
 20
0.0
 30
0.0
  0
VERTEX
  5
477
  8
PROFILEEDGES
 10
-4.229702818327731
 20
1.907292078261747
 30
0.0
 40
0.0190136828257748
 41
0.0190136828257748
  0
VERTEX
  5
478
  8
PROFILEEDGES
 10
-4.509515105590525
 20
1.725836220976318
 30
0.0
 40
0.0190136828257748
 41
0.0190136828257748
  0
SEQEND
  5
677
  8
PROFILEEDGES
  0
POLYLINE
  5
19E
  8
PROFILEEDGES
 66
     1
 10
0.0
 20
0.0
 30
0.0
  0
VERTEX
  5
479
  8
PROFILEEDGES
 10
-4.509515105590525
 20
1.725836220976318
 30
0.0
 40
0.0190136828257748
 41
0.0190136828257748
  0
VERTEX
  5
47A
  8
PROFILEEDGES
 10
-4.759058748240764
 20
1.500292726065153
 30
0.0
 40
0.0190136828257748
 41
0.0190136828257748
  0
SEQEND
  5
678
  8
PROFILEEDGES
  0
POLYLINE
  5
19F
  8
PROFILEEDGES
 66
     1
 10
0.0
 20
0.0
 30
0.0
  0
VERTEX
  5
47B
  8
PROFILEEDGES
 10
-4.759058748240764
 20
1.500292726065153
 30
0.0
 40
0.0190136828257748
 41
0.0190136828257748
  0
VERTEX
  5
47C
  8
PROFILEEDGES
 10
-4.972189153608526
 20
1.236215222908913
 30
0.0
 40
0.0190136828257748
 41
0.0190136828257748
  0
SEQEND
  5
679
  8
PROFILEEDGES
  0
POLYLINE
  5
1A0
  8
PROFILEEDGES
 66
     1
 10
0.0
 20
0.0
 30
0.0
  0
VERTEX
  5
47D
  8
PROFILEEDGES
 10
-4.972189153608526
 20
1.236215222908913
 30
0.0
 40
0.0190136828257748
 41
0.0190136828257748
  0
VERTEX
  5
47E
  8
PROFILEEDGES
 10
-5.143658343774412
 20
0.9401061760582832
 30
0.0
 40
0.0190136828257748
 41
0.0190136828257748
  0
SEQEND
  5
67A
  8
PROFILEEDGES
  0
POLYLINE
  5
1A1
  8
PROFILEEDGES
 66
     1
 10
0.0
 20
0.0
 30
0.0
  0
VERTEX
  5
47F
  8
PROFILEEDGES
 10
-5.143658343774412
 20
0.9401061760582832
 30
0.0
 40
0.0190136828257748
 41
0.0190136828257748
  0
VERTEX
  5
480
  8
PROFILEEDGES
 10
-5.269244178202892
 20
0.6192567729763188
 30
0.0
 40
0.0190136828257748
 41
0.0190136828257748
  0
SEQEND
  5
67B
  8
PROFILEEDGES
  0
POLYLINE
  5
1A2
  8
PROFILEEDGES
 66
     1
 10
0.0
 20
0.0
 30
0.0
  0
VERTEX
  5
481
  8
PROFILEEDGES
 10
-5.269244178202892
 20
0.6192567729763188
 30
0.0
 40
0.0190136828257748
 41
0.0190136828257748
  0
VERTEX
  5
482
  8
PROFILEEDGES
 10
-5.345854316854883
 20
0.281567390805012
 30
0.0
 40
0.0190136828257748
 41
0.0190136828257748
  0
SEQEND
  5
67C
  8
PROFILEEDGES
  0
POLYLINE
  5
1A3
  8
PROFILEEDGES
 66
     1
 10
0.0
 20
0.0
 30
0.0
  0
VERTEX
  5
483
  8
PROFILEEDGES
 10
-3.459593571127012
 20
-2.267102366816531
 30
0.0
 40
0.0190136828257748
 41
0.0190136828257748
  0
VERTEX
  5
484
  8
PROFILEEDGES
 10
-3.438902139862271
 20
-2.271428220089857
 30
0.0
 40
0.0190136828257748
 41
0.0190136828257748
  0
SEQEND
  5
67D
  8
PROFILEEDGES
  0
POLYLINE
  5
1A4
  8
PROFILEEDGES
 66
     1
 10
0.0
 20
0.0
 30
0.0
  0
VERTEX
  5
485
  8
PROFILEEDGES
 10
-3.438902139862271
 20
-2.271428220089857
 30
0.0
 40
0.0190136828257748
 41
0.0190136828257748
  0
VERTEX
  5
486
  8
PROFILEEDGES
 10
-3.607407600694833
 20
-2.250558174603385
 30
0.0
 40
0.0190136828257748
 41
0.0190136828257748
  0
SEQEND
  5
67E
  8
PROFILEEDGES
  0
POLYLINE
  5
1A5
  8
PROFILEEDGES
 66
     1
 10
0.0
 20
0.0
 30
0.0
  0
VERTEX
  5
487
  8
PROFILEEDGES
 10
-2.953087687029711
 20
-2.250558174603385
 30
0.0
 40
0.0190136828257748
 41
0.0190136828257748
  0
VERTEX
  5
488
  8
PROFILEEDGES
 10
-3.121593147862273
 20
-2.271428220089857
 30
0.0
 40
0.0190136828257748
 41
0.0190136828257748
  0
SEQEND
  5
67F
  8
PROFILEEDGES
  0
POLYLINE
  5
1A6
  8
PROFILEEDGES
 66
     1
 10
0.0
 20
0.0
 30
0.0
  0
VERTEX
  5
489
  8
PROFILEEDGES
 10
-3.438902139862271
 20
2.142134345810303
 30
0.0
 40
0.0190136828257748
 41
0.0190136828257748
  0
VERTEX
  5
48A
  8
PROFILEEDGES
 10
-3.607407600694833
 20
2.121264300323831
 30
0.0
 40
0.0190136828257748
 41
0.0190136828257748
  0
SEQEND
  5
680
  8
PROFILEEDGES
  0
POLYLINE
  5
1A7
  8
PROFILEEDGES
 66
     1
 10
0.0
 20
0.0
 30
0.0
  0
VERTEX
  5
48B
  8
PROFILEEDGES
 10
-3.100901716597516
 20
2.137808492536974
 30
0.0
 40
0.0190136828257748
 41
0.0190136828257748
  0
VERTEX
  5
48C
  8
PROFILEEDGES
 10
-3.121593147862273
 20
2.142134345810303
 30
0.0
 40
0.0190136828257748
 41
0.0190136828257748
  0
SEQEND
  5
681
  8
PROFILEEDGES
  0
POLYLINE
  5
1A8
  8
PROFILEEDGES
 66
     1
 10
0.0
 20
0.0
 30
0.0
  0
VERTEX
  5
48D
  8
PROFILEEDGES
 10
5.863807076137739
 20
-1.945088041139837
 30
0.0
 40
0.0190136828257748
 41
0.0190136828257748
  0
VERTEX
  5
48E
  8
PROFILEEDGES
 10
5.863807076137739
 20
-1.995888041139837
 30
0.0
 40
0.0190136828257748
 41
0.0190136828257748
  0
SEQEND
  5
682
  8
PROFILEEDGES
  0
LINE
  5
1A9
  8
0
 10
5.609807076137739
 20
-1.945088041139842
 30
0.0
 11
5.609807076137739
 21
-1.995888041139842
 31
0.0
  0
POLYLINE
  5
1AA
  8
PROFILEEDGES
 66
     1
 10
0.0
 20
0.0
 30
0.0
  0
VERTEX
  5
48F
  8
PROFILEEDGES
 10
5.609807076137739
 20
-1.995888041139842
 30
0.0
 40
0.0190136828257748
 41
0.0190136828257748
  0
VERTEX
  5
490
  8
PROFILEEDGES
 10
5.863807076137739
 20
-1.995888041139837
 30
0.0
 40
0.0190136828257748
 41
0.0190136828257748
  0
SEQEND
  5
683
  8
PROFILEEDGES
  0
POLYLINE
  5
1AB
  8
PROFILEEDGES
 66
     1
 10
0.0
 20
0.0
 30
0.0
  0
VERTEX
  5
491
  8
PROFILEEDGES
 10
5.863807076137739
 20
-1.945088041139837
 30
0.0
 40
0.0190136828257748
 41
0.0190136828257748
  0
VERTEX
  5
492
  8
PROFILEEDGES
 10
5.609807076137739
 20
-1.945088041139842
 30
0.0
 40
0.0190136828257748
 41
0.0190136828257748
  0
SEQEND
  5
684
  8
PROFILEEDGES
  0
LINE
  5
1AC
  8
0
 10
1.037807076137739
 20
-1.945088041139842
 30
0.0
 11
1.037807076137739
 21
-1.995888041139842
 31
0.0
  0
POLYLINE
  5
1AD
  8
PROFILEEDGES
 66
     1
 10
0.0
 20
0.0
 30
0.0
  0
VERTEX
  5
493
  8
PROFILEEDGES
 10
0.7838070761377394
 20
-1.945088041139837
 30
0.0
 40
0.0190136828257748
 41
0.0190136828257748
  0
VERTEX
  5
494
  8
PROFILEEDGES
 10
0.7838070761377394
 20
-1.995888041139837
 30
0.0
 40
0.0190136828257748
 41
0.0190136828257748
  0
SEQEND
  5
685
  8
PROFILEEDGES
  0
POLYLINE
  5
1AE
  8
PROFILEEDGES
 66
     1
 10
0.0
 20
0.0
 30
0.0
  0
VERTEX
  5
495
  8
PROFILEEDGES
 10
0.7838070761377394
 20
-1.995888041139837
 30
0.0
 40
0.0190136828257748
 41
0.0190136828257748
  0
VERTEX
  5
496
  8
PROFILEEDGES
 10
1.037807076137739
 20
-1.995888041139842
 30
0.0
 40
0.0190136828257748
 41
0.0190136828257748
  0
SEQEND
  5
686
  8
PROFILEEDGES
  0
POLYLINE
  5
1AF
  8
PROFILEEDGES
 66
     1
 10
0.0
 20
0.0
 30
0.0
  0
VERTEX
  5
497
  8
PROFILEEDGES
 10
1.037807076137739
 20
-1.945088041139842
 30
0.0
 40
0.0190136828257748
 41
0.0190136828257748
  0
VERTEX
  5
498
  8
PROFILEEDGES
 10
0.7838070761377394
 20
-1.945088041139837
 30
0.0
 40
0.0190136828257748
 41
0.0190136828257748
  0
SEQEND
  5
687
  8
PROFILEEDGES
  0
POLYLINE
  5
1B0
  8
PROFILEEDGES
 66
     1
 10
0.0
 20
0.0
 30
0.0
  0
VERTEX
  5
499
  8
PROFILEEDGES
 10
3.461411493368279
 20
-0.2450391135503187
 30
0.0
 40
0.0190136828257748
 41
0.0190136828257748
  0
VERTEX
  5
49A
  8
PROFILEEDGES
 10
3.441938026125074
 20
-0.2658708584715084
 30
0.0
 40
0.0190136828257748
 41
0.0190136828257748
  0
SEQEND
  5
688
  8
PROFILEEDGES
  0
POLYLINE
  5
1B1
  8
PROFILEEDGES
 66
     1
 10
0.0
 20
0.0
 30
0.0
  0
VERTEX
  5
49B
  8
PROFILEEDGES
 10
3.441938026125074
 20
-0.2658708584715084
 30
0.0
 40
0.0190136828257748
 41
0.0190136828257748
  0
VERTEX
  5
49C
  8
PROFILEEDGES
 10
3.418279840984293
 20
-0.2830178187113527
 30
0.0
 40
0.0190136828257748
 41
0.0190136828257748
  0
SEQEND
  5
689
  8
PROFILEEDGES
  0
POLYLINE
  5
1B2
  8
PROFILEEDGES
 66
     1
 10
0.0
 20
0.0
 30
0.0
  0
VERTEX
  5
49D
  8
PROFILEEDGES
 10
3.24122487129116
 20
-0.2830178187113448
 30
0.0
 40
0.0190136828257748
 41
0.0190136828257748
  0
VERTEX
  5
49E
  8
PROFILEEDGES
 10
3.217566686150445
 20
-0.2658708584715422
 30
0.0
 40
0.0190136828257748
 41
0.0190136828257748
  0
SEQEND
  5
68A
  8
PROFILEEDGES
  0
POLYLINE
  5
1B3
  8
PROFILEEDGES
 66
     1
 10
0.0
 20
0.0
 30
0.0
  0
VERTEX
  5
49F
  8
PROFILEEDGES
 10
3.217566686150445
 20
-0.2658708584715422
 30
0.0
 40
0.0190136828257748
 41
0.0190136828257748
  0
VERTEX
  5
4A0
  8
PROFILEEDGES
 10
3.198093218907202
 20
-0.2450391135503365
 30
0.0
 40
0.0190136828257748
 41
0.0190136828257748
  0
SEQEND
  5
68B
  8
PROFILEEDGES
  0
POLYLINE
  5
1B4
  8
PROFILEEDGES
 66
     1
 10
0.0
 20
0.0
 30
0.0
  0
VERTEX
  5
4A1
  8
PROFILEEDGES
 10
3.198093218907328
 20
-0.0891369687290436
 30
0.0
 40
0.0190136828257748
 41
0.0190136828257748
  0
VERTEX
  5
4A2
  8
PROFILEEDGES
 10
3.217566686150363
 20
-0.0683052238080392
 30
0.0
 40
0.0190136828257748
 41
0.0190136828257748
  0
SEQEND
  5
68C
  8
PROFILEEDGES
  0
POLYLINE
  5
1B5
  8
PROFILEEDGES
 66
     1
 10
0.0
 20
0.0
 30
0.0
  0
VERTEX
  5
4A3
  8
PROFILEEDGES
 10
3.217566686150363
 20
-0.0683052238080392
 30
0.0
 40
0.0190136828257748
 41
0.0190136828257748
  0
VERTEX
  5
4A4
  8
PROFILEEDGES
 10
3.241224871290826
 20
-0.0511582635684003
 30
0.0
 40
0.0190136828257748
 41
0.0190136828257748
  0
SEQEND
  5
68D
  8
PROFILEEDGES
  0
POLYLINE
  5
1B6
  8
PROFILEEDGES
 66
     1
 10
0.0
 20
0.0
 30
0.0
  0
VERTEX
  5
4A5
  8
PROFILEEDGES
 10
3.418279840984627
 20
-0.0511582635683924
 30
0.0
 40
0.0190136828257748
 41
0.0190136828257748
  0
VERTEX
  5
4A6
  8
PROFILEEDGES
 10
3.441938026125066
 20
-0.0683052238079925
 30
0.0
 40
0.0190136828257748
 41
0.0190136828257748
  0
SEQEND
  5
68E
  8
PROFILEEDGES
  0
POLYLINE
  5
1B7
  8
PROFILEEDGES
 66
     1
 10
0.0
 20
0.0
 30
0.0
  0
VERTEX
  5
4A7
  8
PROFILEEDGES
 10
3.441938026125066
 20
-0.0683052238079925
 30
0.0
 40
0.0190136828257748
 41
0.0190136828257748
  0
VERTEX
  5
4A8
  8
PROFILEEDGES
 10
3.461411493368135
 20
-0.089136968729033
 30
0.0
 40
0.0190136828257748
 41
0.0190136828257748
  0
SEQEND
  5
68F
  8
PROFILEEDGES
  0
POLYLINE
  5
1B8
  8
PROFILEEDGES
 66
     1
 10
0.0
 20
0.0
 30
0.0
  0
VERTEX
  5
4A9
  8
PROFILEEDGES
 10
3.48840685213773
 20
-0.1670880411398347
 30
0.0
 40
0.0190136828257748
 41
0.0190136828257748
  0
VERTEX
  5
4AA
  8
PROFILEEDGES
 10
3.485444453251707
 20
-0.1939580778356902
 30
0.0
 40
0.0190136828257748
 41
0.0190136828257748
  0
SEQEND
  5
690
  8
PROFILEEDGES
  0
POLYLINE
  5
1B9
  8
PROFILEEDGES
 66
     1
 10
0.0
 20
0.0
 30
0.0
  0
VERTEX
  5
4AB
  8
PROFILEEDGES
 10
3.360268103875502
 20
-0.304179563618092
 30
0.0
 40
0.0190136828257748
 41
0.0190136828257748
  0
VERTEX
  5
4AC
  8
PROFILEEDGES
 10
3.329752356137732
 20
-0.3067880411398347
 30
0.0
 40
0.0190136828257748
 41
0.0190136828257748
  0
SEQEND
  5
691
  8
PROFILEEDGES
  0
POLYLINE
  5
1BA
  8
PROFILEEDGES
 66
     1
 10
0.0
 20
0.0
 30
0.0
  0
VERTEX
  5
4AD
  8
PROFILEEDGES
 10
3.329752356137732
 20
-0.3067880411398347
 30
0.0
 40
0.0190136828257748
 41
0.0190136828257748
  0
VERTEX
  5
4AE
  8
PROFILEEDGES
 10
3.299236608397233
 20
-0.3041795636178647
 30
0.0
 40
0.0190136828257748
 41
0.0190136828257748
  0
SEQEND
  5
692
  8
PROFILEEDGES
  0
POLYLINE
  5
1BB
  8
PROFILEEDGES
 66
     1
 10
0.0
 20
0.0
 30
0.0
  0
VERTEX
  5
4AF
  8
PROFILEEDGES
 10
3.174060259023488
 20
-0.1939580778332533
 30
0.0
 40
0.0190136828257748
 41
0.0190136828257748
  0
VERTEX
  5
4B0
  8
PROFILEEDGES
 10
3.171097860137734
 20
-0.1670880411398357
 30
0.0
 40
0.0190136828257748
 41
0.0190136828257748
  0
SEQEND
  5
693
  8
PROFILEEDGES
  0
POLYLINE
  5
1BC
  8
PROFILEEDGES
 66
     1
 10
0.0
 20
0.0
 30
0.0
  0
VERTEX
  5
4B1
  8
PROFILEEDGES
 10
3.174060259023772
 20
-0.1402180044437594
 30
0.0
 40
0.0190136828257748
 41
0.0190136828257748
  0
VERTEX
  5
4B2
  8
PROFILEEDGES
 10
3.171097860137734
 20
-0.1670880411398357
 30
0.0
 40
0.0190136828257748
 41
0.0190136828257748
  0
SEQEND
  5
694
  8
PROFILEEDGES
  0
POLYLINE
  5
1BD
  8
PROFILEEDGES
 66
     1
 10
0.0
 20
0.0
 30
0.0
  0
VERTEX
  5
4B3
  8
PROFILEEDGES
 10
3.299236608399513
 20
-0.0299965186615302
 30
0.0
 40
0.0190136828257748
 41
0.0190136828257748
  0
VERTEX
  5
4B4
  8
PROFILEEDGES
 10
3.329752356137732
 20
-0.0273880411398347
 30
0.0
 40
0.0190136828257748
 41
0.0190136828257748
  0
SEQEND
  5
695
  8
PROFILEEDGES
  0
POLYLINE
  5
1BE
  8
PROFILEEDGES
 66
     1
 10
0.0
 20
0.0
 30
0.0
  0
VERTEX
  5
4B5
  8
PROFILEEDGES
 10
3.329752356137732
 20
-0.0273880411398347
 30
0.0
 40
0.0190136828257748
 41
0.0190136828257748
  0
VERTEX
  5
4B6
  8
PROFILEEDGES
 10
3.360268103878775
 20
-0.029996518661775
 30
0.0
 40
0.0190136828257748
 41
0.0190136828257748
  0
SEQEND
  5
696
  8
PROFILEEDGES
  0
POLYLINE
  5
1BF
  8
PROFILEEDGES
 66
     1
 10
0.0
 20
0.0
 30
0.0
  0
VERTEX
  5
4B7
  8
PROFILEEDGES
 10
3.485444453251962
 20
-0.1402180044462006
 30
0.0
 40
0.0190136828257748
 41
0.0190136828257748
  0
VERTEX
  5
4B8
  8
PROFILEEDGES
 10
3.48840685213773
 20
-0.1670880411398347
 30
0.0
 40
0.0190136828257748
 41
0.0190136828257748
  0
SEQEND
  5
697
  8
PROFILEEDGES
  0
POLYLINE
  5
1C0
  8
PROFILEEDGES
 66
     1
 10
0.0
 20
0.0
 30
0.0
  0
VERTEX
  5
4B9
  8
PROFILEEDGES
 10
3.461411493368278
 20
1.27896088644968
 30
0.0
 40
0.0190136828257748
 41
0.0190136828257748
  0
VERTEX
  5
4BA
  8
PROFILEEDGES
 10
3.441938026125074
 20
1.258129141528491
 30
0.0
 40
0.0190136828257748
 41
0.0190136828257748
  0
SEQEND
  5
698
  8
PROFILEEDGES
  0
POLYLINE
  5
1C1
  8
PROFILEEDGES
 66
     1
 10
0.0
 20
0.0
 30
0.0
  0
VERTEX
  5
4BB
  8
PROFILEEDGES
 10
3.441938026125074
 20
1.258129141528491
 30
0.0
 40
0.0190136828257748
 41
0.0190136828257748
  0
VERTEX
  5
4BC
  8
PROFILEEDGES
 10
3.418279840984293
 20
1.240982181288647
 30
0.0
 40
0.0190136828257748
 41
0.0190136828257748
  0
SEQEND
  5
699
  8
PROFILEEDGES
  0
POLYLINE
  5
1C2
  8
PROFILEEDGES
 66
     1
 10
0.0
 20
0.0
 30
0.0
  0
VERTEX
  5
4BD
  8
PROFILEEDGES
 10
3.24122487129116
 20
1.240982181288655
 30
0.0
 40
0.0190136828257748
 41
0.0190136828257748
  0
VERTEX
  5
4BE
  8
PROFILEEDGES
 10
3.217566686150447
 20
1.258129141528458
 30
0.0
 40
0.0190136828257748
 41
0.0190136828257748
  0
SEQEND
  5
69A
  8
PROFILEEDGES
  0
POLYLINE
  5
1C3
  8
PROFILEEDGES
 66
     1
 10
0.0
 20
0.0
 30
0.0
  0
VERTEX
  5
4BF
  8
PROFILEEDGES
 10
3.217566686150447
 20
1.258129141528458
 30
0.0
 40
0.0190136828257748
 41
0.0190136828257748
  0
VERTEX
  5
4C0
  8
PROFILEEDGES
 10
3.198093218907202
 20
1.278960886449662
 30
0.0
 40
0.0190136828257748
 41
0.0190136828257748
  0
SEQEND
  5
69B
  8
PROFILEEDGES
  0
POLYLINE
  5
1C4
  8
PROFILEEDGES
 66
     1
 10
0.0
 20
0.0
 30
0.0
  0
VERTEX
  5
4C1
  8
PROFILEEDGES
 10
3.198093218907359
 20
1.434863031271007
 30
0.0
 40
0.0190136828257748
 41
0.0190136828257748
  0
VERTEX
  5
4C2
  8
PROFILEEDGES
 10
3.217566686150363
 20
1.45569477619196
 30
0.0
 40
0.0190136828257748
 41
0.0190136828257748
  0
SEQEND
  5
69C
  8
PROFILEEDGES
  0
POLYLINE
  5
1C5
  8
PROFILEEDGES
 66
     1
 10
0.0
 20
0.0
 30
0.0
  0
VERTEX
  5
4C3
  8
PROFILEEDGES
 10
3.217566686150363
 20
1.45569477619196
 30
0.0
 40
0.0190136828257748
 41
0.0190136828257748
  0
VERTEX
  5
4C4
  8
PROFILEEDGES
 10
3.241224871290827
 20
1.4728417364316
 30
0.0
 40
0.0190136828257748
 41
0.0190136828257748
  0
SEQEND
  5
69D
  8
PROFILEEDGES
  0
POLYLINE
  5
1C6
  8
PROFILEEDGES
 66
     1
 10
0.0
 20
0.0
 30
0.0
  0
VERTEX
  5
4C5
  8
PROFILEEDGES
 10
3.418279840984626
 20
1.472841736431608
 30
0.0
 40
0.0190136828257748
 41
0.0190136828257748
  0
VERTEX
  5
4C6
  8
PROFILEEDGES
 10
3.441938026125067
 20
1.455694776192009
 30
0.0
 40
0.0190136828257748
 41
0.0190136828257748
  0
SEQEND
  5
69E
  8
PROFILEEDGES
  0
POLYLINE
  5
1C7
  8
PROFILEEDGES
 66
     1
 10
0.0
 20
0.0
 30
0.0
  0
VERTEX
  5
4C7
  8
PROFILEEDGES
 10
3.441938026125067
 20
1.455694776192009
 30
0.0
 40
0.0190136828257748
 41
0.0190136828257748
  0
VERTEX
  5
4C8
  8
PROFILEEDGES
 10
3.461411493368142
 20
1.434863031270955
 30
0.0
 40
0.0190136828257748
 41
0.0190136828257748
  0
SEQEND
  5
69F
  8
PROFILEEDGES
  0
POLYLINE
  5
1C8
  8
PROFILEEDGES
 66
     1
 10
0.0
 20
0.0
 30
0.0
  0
VERTEX
  5
4C9
  8
PROFILEEDGES
 10
3.48840685213773
 20
1.356911958860165
 30
0.0
 40
0.0190136828257748
 41
0.0190136828257748
  0
VERTEX
  5
4CA
  8
PROFILEEDGES
 10
3.485444453251707
 20
1.330041922164309
 30
0.0
 40
0.0190136828257748
 41
0.0190136828257748
  0
SEQEND
  5
6A0
  8
PROFILEEDGES
  0
POLYLINE
  5
1C9
  8
PROFILEEDGES
 66
     1
 10
0.0
 20
0.0
 30
0.0
  0
VERTEX
  5
4CB
  8
PROFILEEDGES
 10
3.360268103875502
 20
1.219820436381908
 30
0.0
 40
0.0190136828257748
 41
0.0190136828257748
  0
VERTEX
  5
4CC
  8
PROFILEEDGES
 10
3.329752356137732
 20
1.217211958860165
 30
0.0
 40
0.0190136828257748
 41
0.0190136828257748
  0
SEQEND
  5
6A1
  8
PROFILEEDGES
  0
POLYLINE
  5
1CA
  8
PROFILEEDGES
 66
     1
 10
0.0
 20
0.0
 30
0.0
  0
VERTEX
  5
4CD
  8
PROFILEEDGES
 10
3.329752356137732
 20
1.217211958860165
 30
0.0
 40
0.0190136828257748
 41
0.0190136828257748
  0
VERTEX
  5
4CE
  8
PROFILEEDGES
 10
3.299236608397233
 20
1.219820436382135
 30
0.0
 40
0.0190136828257748
 41
0.0190136828257748
  0
SEQEND
  5
6A2
  8
PROFILEEDGES
  0
POLYLINE
  5
1CB
  8
PROFILEEDGES
 66
     1
 10
0.0
 20
0.0
 30
0.0
  0
VERTEX
  5
4CF
  8
PROFILEEDGES
 10
3.174060259023488
 20
1.330041922166746
 30
0.0
 40
0.0190136828257748
 41
0.0190136828257748
  0
VERTEX
  5
4D0
  8
PROFILEEDGES
 10
3.171097860137734
 20
1.356911958860163
 30
0.0
 40
0.0190136828257748
 41
0.0190136828257748
  0
SEQEND
  5
6A3
  8
PROFILEEDGES
  0
POLYLINE
  5
1CC
  8
PROFILEEDGES
 66
     1
 10
0.0
 20
0.0
 30
0.0
  0
VERTEX
  5
4D1
  8
PROFILEEDGES
 10
3.174060259023772
 20
1.38378199555624
 30
0.0
 40
0.0190136828257748
 41
0.0190136828257748
  0
VERTEX
  5
4D2
  8
PROFILEEDGES
 10
3.171097860137734
 20
1.356911958860163
 30
0.0
 40
0.0190136828257748
 41
0.0190136828257748
  0
SEQEND
  5
6A4
  8
PROFILEEDGES
  0
POLYLINE
  5
1CD
  8
PROFILEEDGES
 66
     1
 10
0.0
 20
0.0
 30
0.0
  0
VERTEX
  5
4D3
  8
PROFILEEDGES
 10
3.299236608399532
 20
1.494003481338474
 30
0.0
 40
0.0190136828257748
 41
0.0190136828257748
  0
VERTEX
  5
4D4
  8
PROFILEEDGES
 10
3.329752356137731
 20
1.496611958860168
 30
0.0
 40
0.0190136828257748
 41
0.0190136828257748
  0
SEQEND
  5
6A5
  8
PROFILEEDGES
  0
POLYLINE
  5
1CE
  8
PROFILEEDGES
 66
     1
 10
0.0
 20
0.0
 30
0.0
  0
VERTEX
  5
4D5
  8
PROFILEEDGES
 10
3.329752356137731
 20
1.496611958860168
 30
0.0
 40
0.0190136828257748
 41
0.0190136828257748
  0
VERTEX
  5
4D6
  8
PROFILEEDGES
 10
3.360268103878773
 20
1.494003481338225
 30
0.0
 40
0.0190136828257748
 41
0.0190136828257748
  0
SEQEND
  5
6A6
  8
PROFILEEDGES
  0
POLYLINE
  5
1CF
  8
PROFILEEDGES
 66
     1
 10
0.0
 20
0.0
 30
0.0
  0
VERTEX
  5
4D7
  8
PROFILEEDGES
 10
3.485444453251962
 20
1.383781995553798
 30
0.0
 40
0.0190136828257748
 41
0.0190136828257748
  0
VERTEX
  5
4D8
  8
PROFILEEDGES
 10
3.48840685213773
 20
1.356911958860165
 30
0.0
 40
0.0190136828257748
 41
0.0190136828257748
  0
SEQEND
  5
6A7
  8
PROFILEEDGES
  0
POLYLINE
  5
1D0
  8
PROFILEEDGES
 66
     1
 10
0.0
 20
0.0
 30
0.0
  0
VERTEX
  5
4D9
  8
PROFILEEDGES
 10
5.421107076137733
 20
1.864911958860206
 30
0.0
 40
0.0190136828257748
 41
0.0190136828257748
  0
VERTEX
  5
4DA
  8
PROFILEEDGES
 10
5.421107076137733
 20
-1.945088041139752
 30
0.0
 40
0.0190136828257748
 41
0.0190136828257748
  0
SEQEND
  5
6A8
  8
PROFILEEDGES
  0
POLYLINE
  5
1D1
  8
PROFILEEDGES
 66
     1
 10
0.0
 20
0.0
 30
0.0
  0
VERTEX
  5
4DB
  8
PROFILEEDGES
 10
1.238397636137731
 20
-1.945088041139752
 30
0.0
 40
0.0190136828257748
 41
0.0190136828257748
  0
VERTEX
  5
4DC
  8
PROFILEEDGES
 10
1.238397636137731
 20
1.864911958860206
 30
0.0
 40
0.0190136828257748
 41
0.0190136828257748
  0
SEQEND
  5
6A9
  8
PROFILEEDGES
  0
POLYLINE
  5
1D2
  8
PROFILEEDGES
 66
     1
 10
0.0
 20
0.0
 30
0.0
  0
VERTEX
  5
4DD
  8
PROFILEEDGES
 10
-3.598382498437383
 20
-2.190257174949217
 30
0.0
 40
0.0190136828257748
 41
0.0190136828257748
  0
VERTEX
  5
4DE
  8
PROFILEEDGES
 10
-3.445461821966622
 20
-2.202993239643595
 30
0.0
 40
0.0190136828257748
 41
0.0190136828257748
  0
SEQEND
  5
6AA
  8
PROFILEEDGES
  0
POLYLINE
  5
1D3
  8
PROFILEEDGES
 66
     1
 10
0.0
 20
0.0
 30
0.0
  0
VERTEX
  5
4DF
  8
PROFILEEDGES
 10
-3.480263790975877
 20
2.07080086831954
 30
0.0
 40
0.0190136828257748
 41
0.0190136828257748
  0
VERTEX
  5
4E0
  8
PROFILEEDGES
 10
-3.598382498437383
 20
2.060963300669663
 30
0.0
 40
0.0190136828257748
 41
0.0190136828257748
  0
SEQEND
  5
6AB
  8
PROFILEEDGES
  0
POLYLINE
  5
1D4
  8
PROFILEEDGES
 66
     1
 10
0.0
 20
0.0
 30
0.0
  0
VERTEX
  5
4E1
  8
PROFILEEDGES
 10
-3.224867642824299
 20
2.082846952316016
 30
0.0
 40
0.0190136828257748
 41
0.0190136828257748
  0
VERTEX
  5
4E2
  8
PROFILEEDGES
 10
-3.280247643862272
 20
2.087459299660224
 30
0.0
 40
0.0190136828257748
 41
0.0190136828257748
  0
SEQEND
  5
6AC
  8
PROFILEEDGES
  0
POLYLINE
  5
1D5
  8
PROFILEEDGES
 66
     1
 10
0.0
 20
0.0
 30
0.0
  0
VERTEX
  5
4E3
  8
PROFILEEDGES
 10
-3.392433313849596
 20
-2.274619327207439
 30
0.0
 40
0.0190136828257748
 41
0.0190136828257748
  0
VERTEX
  5
4E4
  8
PROFILEEDGES
 10
-3.459593571127012
 20
-2.267102366816531
 30
0.0
 40
0.0190136828257748
 41
0.0190136828257748
  0
SEQEND
  5
6AD
  8
PROFILEEDGES
  0
POLYLINE
  5
1D6
  8
PROFILEEDGES
 66
     1
 10
0.0
 20
0.0
 30
0.0
  0
VERTEX
  5
4E5
  8
PROFILEEDGES
 10
-3.459593571127012
 20
-2.267102366816531
 30
0.0
 40
0.0190136828257748
 41
0.0190136828257748
  0
VERTEX
  5
4E6
  8
PROFILEEDGES
 10
-3.607407600694833
 20
-2.250558174603385
 30
0.0
 40
0.0190136828257748
 41
0.0190136828257748
  0
SEQEND
  5
6AE
  8
PROFILEEDGES
  0
POLYLINE
  5
1D7
  8
PROFILEEDGES
 66
     1
 10
0.0
 20
0.0
 30
0.0
  0
VERTEX
  5
4E7
  8
PROFILEEDGES
 10
-3.16806197387493
 20
2.145325452927882
 30
0.0
 40
0.0190136828257748
 41
0.0190136828257748
  0
VERTEX
  5
4E8
  8
PROFILEEDGES
 10
-3.100901716597516
 20
2.137808492536974
 30
0.0
 40
0.0190136828257748
 41
0.0190136828257748
  0
SEQEND
  5
6AF
  8
PROFILEEDGES
  0
POLYLINE
  5
1D8
  8
PROFILEEDGES
 66
     1
 10
0.0
 20
0.0
 30
0.0
  0
VERTEX
  5
4E9
  8
PROFILEEDGES
 10
-3.100901716597516
 20
2.137808492536974
 30
0.0
 40
0.0190136828257748
 41
0.0190136828257748
  0
VERTEX
  5
4EA
  8
PROFILEEDGES
 10
-2.953087687029711
 20
2.121264300323831
 30
0.0
 40
0.0190136828257748
 41
0.0190136828257748
  0
SEQEND
  5
6B0
  8
PROFILEEDGES
  0
POLYLINE
  5
1D9
  8
PROFILEEDGES
 66
     1
 10
0.0
 20
0.0
 30
0.0
  0
VERTEX
  5
4EB
  8
PROFILEEDGES
 10
-3.445461821966622
 20
-2.202993239643595
 30
0.0
 40
0.0190136828257748
 41
0.0190136828257748
  0
VERTEX
  5
4EC
  8
PROFILEEDGES
 10
-3.335627644900228
 20
-2.212140826595572
 30
0.0
 40
0.0190136828257748
 41
0.0190136828257748
  0
SEQEND
  5
6B1
  8
PROFILEEDGES
  0
POLYLINE
  5
1DA
  8
PROFILEEDGES
 66
     1
 10
0.0
 20
0.0
 30
0.0
  0
VERTEX
  5
4ED
  8
PROFILEEDGES
 10
-3.335627644900228
 20
-2.212140826595572
 30
0.0
 40
0.0190136828257748
 41
0.0190136828257748
  0
VERTEX
  5
4EE
  8
PROFILEEDGES
 10
-3.280247643862272
 20
-2.216753173939778
 30
0.0
 40
0.0190136828257748
 41
0.0190136828257748
  0
SEQEND
  5
6B2
  8
PROFILEEDGES
  0
POLYLINE
  5
1DB
  8
PROFILEEDGES
 66
     1
 10
0.0
 20
0.0
 30
0.0
  0
VERTEX
  5
4EF
  8
PROFILEEDGES
 10
-3.280247643862272
 20
2.087459299660224
 30
0.0
 40
0.0190136828257748
 41
0.0190136828257748
  0
VERTEX
  5
4F0
  8
PROFILEEDGES
 10
-3.381723496244611
 20
2.079007839395426
 30
0.0
 40
0.0190136828257748
 41
0.0190136828257748
  0
SEQEND
  5
6B3
  8
PROFILEEDGES
  0
POLYLINE
  5
1DC
  8
PROFILEEDGES
 66
     1
 10
0.0
 20
0.0
 30
0.0
  0
VERTEX
  5
4F1
  8
PROFILEEDGES
 10
-3.381723496244611
 20
2.079007839395426
 30
0.0
 40
0.0190136828257748
 41
0.0190136828257748
  0
VERTEX
  5
4F2
  8
PROFILEEDGES
 10
-3.480263790975877
 20
2.07080086831954
 30
0.0
 40
0.0190136828257748
 41
0.0190136828257748
  0
SEQEND
  5
6B4
  8
PROFILEEDGES
  0
POLYLINE
  5
1DD
  8
PROFILEEDGES
 66
     1
 10
0.0
 20
0.0
 30
0.0
  0
VERTEX
  5
4F3
  8
PROFILEEDGES
 10
-2.962112789287155
 20
2.060963300669663
 30
0.0
 40
0.0190136828257748
 41
0.0190136828257748
  0
VERTEX
  5
4F4
  8
PROFILEEDGES
 10
-3.115033465757911
 20
2.07369936536404
 30
0.0
 40
0.0190136828257748
 41
0.0190136828257748
  0
SEQEND
  5
6B5
  8
PROFILEEDGES
  0
POLYLINE
  5
1DE
  8
PROFILEEDGES
 66
     1
 10
0.0
 20
0.0
 30
0.0
  0
VERTEX
  5
4F5
  8
PROFILEEDGES
 10
-3.115033465757911
 20
2.07369936536404
 30
0.0
 40
0.0190136828257748
 41
0.0190136828257748
  0
VERTEX
  5
4F6
  8
PROFILEEDGES
 10
-3.224867642824299
 20
2.082846952316016
 30
0.0
 40
0.0190136828257748
 41
0.0190136828257748
  0
SEQEND
  5
6B6
  8
PROFILEEDGES
  0
POLYLINE
  5
1DF
  8
PROFILEEDGES
 66
     1
 10
0.0
 20
0.0
 30
0.0
  0
VERTEX
  5
4F7
  8
PROFILEEDGES
 10
5.609807076137739
 20
-1.945088041139842
 30
0.0
 40
0.0190136828257748
 41
0.0190136828257748
  0
VERTEX
  5
4F8
  8
PROFILEEDGES
 10
5.421107076137733
 20
-1.945088041139752
 30
0.0
 40
0.0190136828257748
 41
0.0190136828257748
  0
SEQEND
  5
6B7
  8
PROFILEEDGES
  0
POLYLINE
  5
1E0
  8
PROFILEEDGES
 66
     1
 10
0.0
 20
0.0
 30
0.0
  0
VERTEX
  5
4F9
  8
PROFILEEDGES
 10
1.238397636137731
 20
-1.945088041139752
 30
0.0
 40
0.0190136828257748
 41
0.0190136828257748
  0
VERTEX
  5
4FA
  8
PROFILEEDGES
 10
1.037807076137739
 20
-1.945088041139842
 30
0.0
 40
0.0190136828257748
 41
0.0190136828257748
  0
SEQEND
  5
6B8
  8
PROFILEEDGES
  0
POLYLINE
  5
1E1
  8
PROFILEEDGES
 66
     1
 10
0.0
 20
0.0
 30
0.0
  0
VERTEX
  5
4FB
  8
PROFILEEDGES
 10
5.609807076137739
 20
-1.995888041139842
 30
0.0
 40
0.0190136828257748
 41
0.0190136828257748
  0
VERTEX
  5
4FC
  8
PROFILEEDGES
 10
1.037807076137739
 20
-1.995888041139842
 30
0.0
 40
0.0190136828257748
 41
0.0190136828257748
  0
SEQEND
  5
6B9
  8
PROFILEEDGES
  0
POLYLINE
  5
1E2
  8
PROFILEEDGES
 66
     1
 10
0.0
 20
0.0
 30
0.0
  0
VERTEX
  5
4FD
  8
PROFILEEDGES
 10
3.485444453251707
 20
-0.1939580778356902
 30
0.0
 40
0.0190136828257748
 41
0.0190136828257748
  0
VERTEX
  5
4FE
  8
PROFILEEDGES
 10
3.476325437765303
 20
-0.2205585328737807
 30
0.0
 40
0.0190136828257748
 41
0.0190136828257748
  0
SEQEND
  5
6BA
  8
PROFILEEDGES
  0
POLYLINE
  5
1E3
  8
PROFILEEDGES
 66
     1
 10
0.0
 20
0.0
 30
0.0
  0
VERTEX
  5
4FF
  8
PROFILEEDGES
 10
3.476325437765303
 20
-0.2205585328737807
 30
0.0
 40
0.0190136828257748
 41
0.0190136828257748
  0
VERTEX
  5
500
  8
PROFILEEDGES
 10
3.461411493368279
 20
-0.2450391135503187
 30
0.0
 40
0.0190136828257748
 41
0.0190136828257748
  0
SEQEND
  5
6BB
  8
PROFILEEDGES
  0
POLYLINE
  5
1E4
  8
PROFILEEDGES
 66
     1
 10
0.0
 20
0.0
 30
0.0
  0
VERTEX
  5
501
  8
PROFILEEDGES
 10
3.390477721278907
 20
-0.2961499977232371
 30
0.0
 40
0.0190136828257748
 41
0.0190136828257748
  0
VERTEX
  5
502
  8
PROFILEEDGES
 10
3.418279840984293
 20
-0.2830178187113527
 30
0.0
 40
0.0190136828257748
 41
0.0190136828257748
  0
SEQEND
  5
6BC
  8
PROFILEEDGES
  0
POLYLINE
  5
1E5
  8
PROFILEEDGES
 66
     1
 10
0.0
 20
0.0
 30
0.0
  0
VERTEX
  5
503
  8
PROFILEEDGES
 10
3.360268103875502
 20
-0.304179563618092
 30
0.0
 40
0.0190136828257748
 41
0.0190136828257748
  0
VERTEX
  5
504
  8
PROFILEEDGES
 10
3.390477721278907
 20
-0.2961499977232371
 30
0.0
 40
0.0190136828257748
 41
0.0190136828257748
  0
SEQEND
  5
6BD
  8
PROFILEEDGES
  0
POLYLINE
  5
1E6
  8
PROFILEEDGES
 66
     1
 10
0.0
 20
0.0
 30
0.0
  0
VERTEX
  5
505
  8
PROFILEEDGES
 10
3.299236608397233
 20
-0.3041795636178647
 30
0.0
 40
0.0190136828257748
 41
0.0190136828257748
  0
VERTEX
  5
506
  8
PROFILEEDGES
 10
3.269026990996557
 20
-0.2961499977232371
 30
0.0
 40
0.0190136828257748
 41
0.0190136828257748
  0
SEQEND
  5
6BE
  8
PROFILEEDGES
  0
POLYLINE
  5
1E7
  8
PROFILEEDGES
 66
     1
 10
0.0
 20
0.0
 30
0.0
  0
VERTEX
  5
507
  8
PROFILEEDGES
 10
3.269026990996557
 20
-0.2961499977232371
 30
0.0
 40
0.0190136828257748
 41
0.0190136828257748
  0
VERTEX
  5
508
  8
PROFILEEDGES
 10
3.24122487129116
 20
-0.2830178187113448
 30
0.0
 40
0.0190136828257748
 41
0.0190136828257748
  0
SEQEND
  5
6BF
  8
PROFILEEDGES
  0
POLYLINE
  5
1E8
  8
PROFILEEDGES
 66
     1
 10
0.0
 20
0.0
 30
0.0
  0
VERTEX
  5
509
  8
PROFILEEDGES
 10
3.183179274510154
 20
-0.220558532873759
 30
0.0
 40
0.0190136828257748
 41
0.0190136828257748
  0
VERTEX
  5
50A
  8
PROFILEEDGES
 10
3.198093218907202
 20
-0.2450391135503365
 30
0.0
 40
0.0190136828257748
 41
0.0190136828257748
  0
SEQEND
  5
6C0
  8
PROFILEEDGES
  0
POLYLINE
  5
1E9
  8
PROFILEEDGES
 66
     1
 10
0.0
 20
0.0
 30
0.0
  0
VERTEX
  5
50B
  8
PROFILEEDGES
 10
3.174060259023488
 20
-0.1939580778332533
 30
0.0
 40
0.0190136828257748
 41
0.0190136828257748
  0
VERTEX
  5
50C
  8
PROFILEEDGES
 10
3.183179274510154
 20
-0.220558532873759
 30
0.0
 40
0.0190136828257748
 41
0.0190136828257748
  0
SEQEND
  5
6C1
  8
PROFILEEDGES
  0
POLYLINE
  5
1EA
  8
PROFILEEDGES
 66
     1
 10
0.0
 20
0.0
 30
0.0
  0
VERTEX
  5
50D
  8
PROFILEEDGES
 10
3.174060259023772
 20
-0.1402180044437594
 30
0.0
 40
0.0190136828257748
 41
0.0190136828257748
  0
VERTEX
  5
50E
  8
PROFILEEDGES
 10
3.18317927451022
 20
-0.1136175494056344
 30
0.0
 40
0.0190136828257748
 41
0.0190136828257748
  0
SEQEND
  5
6C2
  8
PROFILEEDGES
  0
POLYLINE
  5
1EB
  8
PROFILEEDGES
 66
     1
 10
0.0
 20
0.0
 30
0.0
  0
VERTEX
  5
50F
  8
PROFILEEDGES
 10
3.18317927451022
 20
-0.1136175494056344
 30
0.0
 40
0.0190136828257748
 41
0.0190136828257748
  0
VERTEX
  5
510
  8
PROFILEEDGES
 10
3.198093218907328
 20
-0.0891369687290436
 30
0.0
 40
0.0190136828257748
 41
0.0190136828257748
  0
SEQEND
  5
6C3
  8
PROFILEEDGES
  0
POLYLINE
  5
1EC
  8
PROFILEEDGES
 66
     1
 10
0.0
 20
0.0
 30
0.0
  0
VERTEX
  5
511
  8
PROFILEEDGES
 10
3.269026990996148
 20
-0.0380260845564587
 30
0.0
 40
0.0190136828257748
 41
0.0190136828257748
  0
VERTEX
  5
512
  8
PROFILEEDGES
 10
3.241224871290826
 20
-0.0511582635684003
 30
0.0
 40
0.0190136828257748
 41
0.0190136828257748
  0
SEQEND
  5
6C4
  8
PROFILEEDGES
  0
POLYLINE
  5
1ED
  8
PROFILEEDGES
 66
     1
 10
0.0
 20
0.0
 30
0.0
  0
VERTEX
  5
513
  8
PROFILEEDGES
 10
3.299236608399513
 20
-0.0299965186615302
 30
0.0
 40
0.0190136828257748
 41
0.0190136828257748
  0
VERTEX
  5
514
  8
PROFILEEDGES
 10
3.269026990996148
 20
-0.0380260845564587
 30
0.0
 40
0.0190136828257748
 41
0.0190136828257748
  0
SEQEND
  5
6C5
  8
PROFILEEDGES
  0
POLYLINE
  5
1EE
  8
PROFILEEDGES
 66
     1
 10
0.0
 20
0.0
 30
0.0
  0
VERTEX
  5
515
  8
PROFILEEDGES
 10
3.360268103878775
 20
-0.029996518661775
 30
0.0
 40
0.0190136828257748
 41
0.0190136828257748
  0
VERTEX
  5
516
  8
PROFILEEDGES
 10
3.390477721279316
 20
-0.0380260845564587
 30
0.0
 40
0.0190136828257748
 41
0.0190136828257748
  0
SEQEND
  5
6C6
  8
PROFILEEDGES
  0
POLYLINE
  5
1EF
  8
PROFILEEDGES
 66
     1
 10
0.0
 20
0.0
 30
0.0
  0
VERTEX
  5
517
  8
PROFILEEDGES
 10
3.390477721279316
 20
-0.0380260845564587
 30
0.0
 40
0.0190136828257748
 41
0.0190136828257748
  0
VERTEX
  5
518
  8
PROFILEEDGES
 10
3.418279840984627
 20
-0.0511582635683924
 30
0.0
 40
0.0190136828257748
 41
0.0190136828257748
  0
SEQEND
  5
6C7
  8
PROFILEEDGES
  0
POLYLINE
  5
1F0
  8
PROFILEEDGES
 66
     1
 10
0.0
 20
0.0
 30
0.0
  0
VERTEX
  5
519
  8
PROFILEEDGES
 10
3.476325437765234
 20
-0.1136175494056061
 30
0.0
 40
0.0190136828257748
 41
0.0190136828257748
  0
VERTEX
  5
51A
  8
PROFILEEDGES
 10
3.461411493368135
 20
-0.089136968729033
 30
0.0
 40
0.0190136828257748
 41
0.0190136828257748
  0
SEQEND
  5
6C8
  8
PROFILEEDGES
  0
POLYLINE
  5
1F1
  8
PROFILEEDGES
 66
     1
 10
0.0
 20
0.0
 30
0.0
  0
VERTEX
  5
51B
  8
PROFILEEDGES
 10
3.485444453251962
 20
-0.1402180044462006
 30
0.0
 40
0.0190136828257748
 41
0.0190136828257748
  0
VERTEX
  5
51C
  8
PROFILEEDGES
 10
3.476325437765234
 20
-0.1136175494056061
 30
0.0
 40
0.0190136828257748
 41
0.0190136828257748
  0
SEQEND
  5
6C9
  8
PROFILEEDGES
  0
POLYLINE
  5
1F2
  8
PROFILEEDGES
 66
     1
 10
0.0
 20
0.0
 30
0.0
  0
VERTEX
  5
51D
  8
PROFILEEDGES
 10
3.485444453251707
 20
1.330041922164309
 30
0.0
 40
0.0190136828257748
 41
0.0190136828257748
  0
VERTEX
  5
51E
  8
PROFILEEDGES
 10
3.476325437765302
 20
1.303441467126218
 30
0.0
 40
0.0190136828257748
 41
0.0190136828257748
  0
SEQEND
  5
6CA
  8
PROFILEEDGES
  0
POLYLINE
  5
1F3
  8
PROFILEEDGES
 66
     1
 10
0.0
 20
0.0
 30
0.0
  0
VERTEX
  5
51F
  8
PROFILEEDGES
 10
3.476325437765302
 20
1.303441467126218
 30
0.0
 40
0.0190136828257748
 41
0.0190136828257748
  0
VERTEX
  5
520
  8
PROFILEEDGES
 10
3.461411493368278
 20
1.27896088644968
 30
0.0
 40
0.0190136828257748
 41
0.0190136828257748
  0
SEQEND
  5
6CB
  8
PROFILEEDGES
  0
POLYLINE
  5
1F4
  8
PROFILEEDGES
 66
     1
 10
0.0
 20
0.0
 30
0.0
  0
VERTEX
  5
521
  8
PROFILEEDGES
 10
3.390477721278907
 20
1.227850002276763
 30
0.0
 40
0.0190136828257748
 41
0.0190136828257748
  0
VERTEX
  5
522
  8
PROFILEEDGES
 10
3.418279840984293
 20
1.240982181288647
 30
0.0
 40
0.0190136828257748
 41
0.0190136828257748
  0
SEQEND
  5
6CC
  8
PROFILEEDGES
  0
POLYLINE
  5
1F5
  8
PROFILEEDGES
 66
     1
 10
0.0
 20
0.0
 30
0.0
  0
VERTEX
  5
523
  8
PROFILEEDGES
 10
3.360268103875502
 20
1.219820436381908
 30
0.0
 40
0.0190136828257748
 41
0.0190136828257748
  0
VERTEX
  5
524
  8
PROFILEEDGES
 10
3.390477721278907
 20
1.227850002276763
 30
0.0
 40
0.0190136828257748
 41
0.0190136828257748
  0
SEQEND
  5
6CD
  8
PROFILEEDGES
  0
POLYLINE
  5
1F6
  8
PROFILEEDGES
 66
     1
 10
0.0
 20
0.0
 30
0.0
  0
VERTEX
  5
525
  8
PROFILEEDGES
 10
3.299236608397233
 20
1.219820436382135
 30
0.0
 40
0.0190136828257748
 41
0.0190136828257748
  0
VERTEX
  5
526
  8
PROFILEEDGES
 10
3.269026990996557
 20
1.227850002276763
 30
0.0
 40
0.0190136828257748
 41
0.0190136828257748
  0
SEQEND
  5
6CE
  8
PROFILEEDGES
  0
POLYLINE
  5
1F7
  8
PROFILEEDGES
 66
     1
 10
0.0
 20
0.0
 30
0.0
  0
VERTEX
  5
527
  8
PROFILEEDGES
 10
3.269026990996557
 20
1.227850002276763
 30
0.0
 40
0.0190136828257748
 41
0.0190136828257748
  0
VERTEX
  5
528
  8
PROFILEEDGES
 10
3.24122487129116
 20
1.240982181288655
 30
0.0
 40
0.0190136828257748
 41
0.0190136828257748
  0
SEQEND
  5
6CF
  8
PROFILEEDGES
  0
POLYLINE
  5
1F8
  8
PROFILEEDGES
 66
     1
 10
0.0
 20
0.0
 30
0.0
  0
VERTEX
  5
529
  8
PROFILEEDGES
 10
3.183179274510154
 20
1.303441467126239
 30
0.0
 40
0.0190136828257748
 41
0.0190136828257748
  0
VERTEX
  5
52A
  8
PROFILEEDGES
 10
3.198093218907202
 20
1.278960886449662
 30
0.0
 40
0.0190136828257748
 41
0.0190136828257748
  0
SEQEND
  5
6D0
  8
PROFILEEDGES
  0
POLYLINE
  5
1F9
  8
PROFILEEDGES
 66
     1
 10
0.0
 20
0.0
 30
0.0
  0
VERTEX
  5
52B
  8
PROFILEEDGES
 10
3.174060259023488
 20
1.330041922166746
 30
0.0
 40
0.0190136828257748
 41
0.0190136828257748
  0
VERTEX
  5
52C
  8
PROFILEEDGES
 10
3.183179274510154
 20
1.303441467126239
 30
0.0
 40
0.0190136828257748
 41
0.0190136828257748
  0
SEQEND
  5
6D1
  8
PROFILEEDGES
  0
POLYLINE
  5
1FA
  8
PROFILEEDGES
 66
     1
 10
0.0
 20
0.0
 30
0.0
  0
VERTEX
  5
52D
  8
PROFILEEDGES
 10
3.174060259023772
 20
1.38378199555624
 30
0.0
 40
0.0190136828257748
 41
0.0190136828257748
  0
VERTEX
  5
52E
  8
PROFILEEDGES
 10
3.18317927451022
 20
1.410382450594364
 30
0.0
 40
0.0190136828257748
 41
0.0190136828257748
  0
SEQEND
  5
6D2
  8
PROFILEEDGES
  0
POLYLINE
  5
1FB
  8
PROFILEEDGES
 66
     1
 10
0.0
 20
0.0
 30
0.0
  0
VERTEX
  5
52F
  8
PROFILEEDGES
 10
3.18317927451022
 20
1.410382450594364
 30
0.0
 40
0.0190136828257748
 41
0.0190136828257748
  0
VERTEX
  5
530
  8
PROFILEEDGES
 10
3.198093218907359
 20
1.434863031271007
 30
0.0
 40
0.0190136828257748
 41
0.0190136828257748
  0
SEQEND
  5
6D3
  8
PROFILEEDGES
  0
POLYLINE
  5
1FC
  8
PROFILEEDGES
 66
     1
 10
0.0
 20
0.0
 30
0.0
  0
VERTEX
  5
531
  8
PROFILEEDGES
 10
3.269026990996151
 20
1.485973915443541
 30
0.0
 40
0.0190136828257748
 41
0.0190136828257748
  0
VERTEX
  5
532
  8
PROFILEEDGES
 10
3.241224871290827
 20
1.4728417364316
 30
0.0
 40
0.0190136828257748
 41
0.0190136828257748
  0
SEQEND
  5
6D4
  8
PROFILEEDGES
  0
POLYLINE
  5
1FD
  8
PROFILEEDGES
 66
     1
 10
0.0
 20
0.0
 30
0.0
  0
VERTEX
  5
533
  8
PROFILEEDGES
 10
3.299236608399532
 20
1.494003481338474
 30
0.0
 40
0.0190136828257748
 41
0.0190136828257748
  0
VERTEX
  5
534
  8
PROFILEEDGES
 10
3.269026990996151
 20
1.485973915443541
 30
0.0
 40
0.0190136828257748
 41
0.0190136828257748
  0
SEQEND
  5
6D5
  8
PROFILEEDGES
  0
POLYLINE
  5
1FE
  8
PROFILEEDGES
 66
     1
 10
0.0
 20
0.0
 30
0.0
  0
VERTEX
  5
535
  8
PROFILEEDGES
 10
3.360268103878773
 20
1.494003481338225
 30
0.0
 40
0.0190136828257748
 41
0.0190136828257748
  0
VERTEX
  5
536
  8
PROFILEEDGES
 10
3.390477721279314
 20
1.485973915443541
 30
0.0
 40
0.0190136828257748
 41
0.0190136828257748
  0
SEQEND
  5
6D6
  8
PROFILEEDGES
  0
POLYLINE
  5
1FF
  8
PROFILEEDGES
 66
     1
 10
0.0
 20
0.0
 30
0.0
  0
VERTEX
  5
537
  8
PROFILEEDGES
 10
3.390477721279314
 20
1.485973915443541
 30
0.0
 40
0.0190136828257748
 41
0.0190136828257748
  0
VERTEX
  5
538
  8
PROFILEEDGES
 10
3.418279840984626
 20
1.472841736431608
 30
0.0
 40
0.0190136828257748
 41
0.0190136828257748
  0
SEQEND
  5
6D7
  8
PROFILEEDGES
  0
POLYLINE
  5
200
  8
PROFILEEDGES
 66
     1
 10
0.0
 20
0.0
 30
0.0
  0
VERTEX
  5
539
  8
PROFILEEDGES
 10
3.476325437765234
 20
1.410382450594393
 30
0.0
 40
0.0190136828257748
 41
0.0190136828257748
  0
VERTEX
  5
53A
  8
PROFILEEDGES
 10
3.461411493368142
 20
1.434863031270955
 30
0.0
 40
0.0190136828257748
 41
0.0190136828257748
  0
SEQEND
  5
6D8
  8
PROFILEEDGES
  0
POLYLINE
  5
201
  8
PROFILEEDGES
 66
     1
 10
0.0
 20
0.0
 30
0.0
  0
VERTEX
  5
53B
  8
PROFILEEDGES
 10
3.485444453251962
 20
1.383781995553798
 30
0.0
 40
0.0190136828257748
 41
0.0190136828257748
  0
VERTEX
  5
53C
  8
PROFILEEDGES
 10
3.476325437765234
 20
1.410382450594393
 30
0.0
 40
0.0190136828257748
 41
0.0190136828257748
  0
SEQEND
  5
6D9
  8
PROFILEEDGES
  0
POLYLINE
  5
202
  8
PROFILEEDGES
 66
     1
 10
0.0
 20
0.0
 30
0.0
  0
VERTEX
  5
53D
  8
PROFILEEDGES
 10
1.238397636137731
 20
-1.945088041139752
 30
0.0
 40
0.0190136828257748
 41
0.0190136828257748
  0
VERTEX
  5
53E
  8
PROFILEEDGES
 10
5.421107076137733
 20
-1.945088041139752
 30
0.0
 40
0.0190136828257748
 41
0.0190136828257748
  0
SEQEND
  5
6DA
  8
PROFILEEDGES
  0
POLYLINE
  5
203
  8
PROFILEEDGES
 66
     1
 10
0.0
 20
0.0
 30
0.0
  0
VERTEX
  5
53F
  8
PROFILEEDGES
 10
5.421107076137733
 20
1.864911958860206
 30
0.0
 40
0.0190136828257748
 41
0.0190136828257748
  0
VERTEX
  5
540
  8
PROFILEEDGES
 10
1.238397636137731
 20
1.864911958860206
 30
0.0
 40
0.0190136828257748
 41
0.0190136828257748
  0
SEQEND
  5
6DB
  8
PROFILEEDGES
  0
ENDSEC
  0
EOF
