  0
SECTION
  2
HEADER
  9
$ACADVER
  1
AC1015
  9
$ACADMAINTVER
 70
    20
  9
$DWGCODEPAGE
  3
ANSI_1252
  9
$INSBASE
 10
0.0
 20
0.0
 30
0.0
  9
$EXTMIN
 10
-17373.58810640799
 20
646.4985202040817
 30
0.0
  9
$EXTMAX
 10
3023.383111464405
 20
15280.25010332007
 30
0.0
  9
$LIMMIN
 10
0.0
 20
0.0
  9
$LIMMAX
 10
12.0
 20
9.0
  9
$ORTHOMODE
 70
     1
  9
$REGENMODE
 70
     1
  9
$FILLMODE
 70
     1
  9
$QTEXTMODE
 70
     0
  9
$MIRRTEXT
 70
     0
  9
$LTSCALE
 40
1.0
  9
$ATTMODE
 70
     1
  9
$TEXTSIZE
 40
0.2
  9
$TRACEWID
 40
0.05
  9
$TEXTSTYLE
  7
Standard
  9
$CLAYER
  8
0
  9
$CELTYPE
  6
ByLayer
  9
$CECOLOR
 62
   256
  9
$CELTSCALE
 40
1.0
  9
$DISPSILH
 70
     0
  9
$DIMSCALE
 40
1.0
  9
$DIMASZ
 40
5.0
  9
$DIMEXO
 40
0.0
  9
$DIMDLI
 40
0.38
  9
$DIMRND
 40
0.0
  9
$DIMDLE
 40
0.0
  9
$DIMEXE
 40
2.0
  9
$DIMTP
 40
0.0
  9
$DIMTM
 40
0.0
  9
$DIMTXT
 40
10.0
  9
$DIMCEN
 40
0.09
  9
$DIMTSZ
 40
0.0
  9
$DIMTOL
 70
     0
  9
$DIMLIM
 70
     0
  9
$DIMTIH
 70
     0
  9
$DIMTOH
 70
     0
  9
$DIMSE1
 70
     0
  9
$DIMSE2
 70
     0
  9
$DIMTAD
 70
     0
  9
$DIMZIN
 70
     0
  9
$DIMBLK
  1

  9
$DIMASO
 70
     1
  9
$DIMSHO
 70
     1
  9
$DIMPOST
  1

  9
$DIMAPOST
  1

  9
$DIMALT
 70
     0
  9
$DIMALTD
 70
     2
  9
$DIMALTF
 40
25.4
  9
$DIMLFAC
 40
1.0
  9
$DIMTOFL
 70
     0
  9
$DIMTVP
 40
0.0
  9
$DIMTIX
 70
     0
  9
$DIMSOXD
 70
     0
  9
$DIMSAH
 70
     0
  9
$DIMBLK1
  1

  9
$DIMBLK2
  1

  9
$DIMSTYLE
  2
PERSONALIZZAZIONE DIEGO
  9
$DIMCLRD
 70
   256
  9
$DIMCLRE
 70
   256
  9
$DIMCLRT
 70
     0
  9
$DIMTFAC
 40
0.5
  9
$DIMGAP
 40
0.0
  9
$DIMJUST
 70
     0
  9
$DIMSD1
 70
     0
  9
$DIMSD2
 70
     0
  9
$DIMTOLJ
 70
     2
  9
$DIMTZIN
 70
     0
  9
$DIMALTZ
 70
     0
  9
$DIMALTTZ
 70
     0
  9
$DIMUPT
 70
     0
  9
$DIMDEC
 70
     1
  9
$DIMTDEC
 70
     1
  9
$DIMALTU
 70
     2
  9
$DIMALTTD
 70
     2
  9
$DIMTXSTY
  7
ARIAL
  9
$DIMAUNIT
 70
     0
  9
$DIMADEC
 70
     0
  9
$DIMALTRND
 40
0.0
  9
$DIMAZIN
 70
     0
  9
$DIMDSEP
 70
    46
  9
$DIMATFIT
 70
     3
  9
$DIMFRAC
 70
     0
  9
$DIMLDRBLK
  1
ArchTick
  9
$DIMLUNIT
 70
     2
  9
$DIMLWD
 70
    -2
  9
$DIMLWE
 70
    15
  9
$DIMTMOVE
 70
     0
  9
$LUNITS
 70
     2
  9
$LUPREC
 70
     4
  9
$SKETCHINC
 40
0.1
  9
$FILLETRAD
 40
0.0
  9
$AUNITS
 70
     0
  9
$AUPREC
 70
     0
  9
$MENU
  1
.
  9
$ELEVATION
 40
0.0
  9
$PELEVATION
 40
0.0
  9
$THICKNESS
 40
0.0
  9
$LIMCHECK
 70
     0
  9
$CHAMFERA
 40
0.0
  9
$CHAMFERB
 40
0.0
  9
$CHAMFERC
 40
0.0
  9
$CHAMFERD
 40
0.0
  9
$SKPOLY
 70
     0
  9
$TDCREATE
 40
2459210.598877315
  9
$TDUCREATE
 40
2459210.557210648
  9
$TDUPDATE
 40
2459223.357604167
  9
$TDUUPDATE
 40
2459223.315937500
  9
$TDINDWG
 40
0.0235648148
  9
$TDUSRTIMER
 40
0.0235648148
  9
$USRTIMER
 70
     1
  9
$ANGBASE
 50
0.0
  9
$ANGDIR
 70
     0
  9
$PDMODE
 70
     0
  9
$PDSIZE
 40
0.0
  9
$PLINEWID
 40
0.0
  9
$SPLFRAME
 70
     0
  9
$SPLINETYPE
 70
     6
  9
$SPLINESEGS
 70
     8
  9
$HANDSEED
  5
40F8
  9
$SURFTAB1
 70
     6
  9
$SURFTAB2
 70
     6
  9
$SURFTYPE
 70
     6
  9
$SURFU
 70
     6
  9
$SURFV
 70
     6
  9
$UCSBASE
  2

  9
$UCSNAME
  2

  9
$UCSORG
 10
0.0
 20
0.0
 30
0.0
  9
$UCSXDIR
 10
1.0
 20
0.0
 30
0.0
  9
$UCSYDIR
 10
0.0
 20
1.0
 30
0.0
  9
$UCSORTHOREF
  2

  9
$UCSORTHOVIEW
 70
     0
  9
$UCSORGTOP
 10
0.0
 20
0.0
 30
0.0
  9
$UCSORGBOTTOM
 10
0.0
 20
0.0
 30
0.0
  9
$UCSORGLEFT
 10
0.0
 20
0.0
 30
0.0
  9
$UCSORGRIGHT
 10
0.0
 20
0.0
 30
0.0
  9
$UCSORGFRONT
 10
0.0
 20
0.0
 30
0.0
  9
$UCSORGBACK
 10
0.0
 20
0.0
 30
0.0
  9
$PUCSBASE
  2

  9
$PUCSNAME
  2

  9
$PUCSORG
 10
0.0
 20
0.0
 30
0.0
  9
$PUCSXDIR
 10
1.0
 20
0.0
 30
0.0
  9
$PUCSYDIR
 10
0.0
 20
1.0
 30
0.0
  9
$PUCSORTHOREF
  2

  9
$PUCSORTHOVIEW
 70
     0
  9
$PUCSORGTOP
 10
0.0
 20
0.0
 30
0.0
  9
$PUCSORGBOTTOM
 10
0.0
 20
0.0
 30
0.0
  9
$PUCSORGLEFT
 10
0.0
 20
0.0
 30
0.0
  9
$PUCSORGRIGHT
 10
0.0
 20
0.0
 30
0.0
  9
$PUCSORGFRONT
 10
0.0
 20
0.0
 30
0.0
  9
$PUCSORGBACK
 10
0.0
 20
0.0
 30
0.0
  9
$USERI1
 70
     0
  9
$USERI2
 70
     0
  9
$USERI3
 70
     0
  9
$USERI4
 70
     0
  9
$USERI5
 70
     0
  9
$USERR1
 40
0.0
  9
$USERR2
 40
0.0
  9
$USERR3
 40
0.0
  9
$USERR4
 40
0.0
  9
$USERR5
 40
0.0
  9
$WORLDVIEW
 70
     1
  9
$SHADEDGE
 70
     3
  9
$SHADEDIF
 70
    70
  9
$TILEMODE
 70
     1
  9
$MAXACTVP
 70
    64
  9
$PINSBASE
 10
0.0
 20
0.0
 30
0.0
  9
$PLIMCHECK
 70
     0
  9
$PEXTMIN
 10
0.0
 20
0.0
 30
0.0
  9
$PEXTMAX
 10
0.0
 20
0.0
 30
0.0
  9
$PLIMMIN
 10
0.0
 20
0.0
  9
$PLIMMAX
 10
12.0
 20
9.0
  9
$UNITMODE
 70
     0
  9
$VISRETAIN
 70
     1
  9
$PLINEGEN
 70
     0
  9
$PSLTSCALE
 70
     1
  9
$TREEDEPTH
 70
  3020
  9
$CMLSTYLE
  2
Standard
  9
$CMLJUST
 70
     0
  9
$CMLSCALE
 40
1.0
  9
$PROXYGRAPHICS
 70
     1
  9
$MEASUREMENT
 70
     1
  9
$CELWEIGHT
370
    -1
  9
$ENDCAPS
280
     0
  9
$JOINSTYLE
280
     0
  9
$LWDISPLAY
290
     0
  9
$INSUNITS
 70
     1
  9
$HYPERLINKBASE
  1

  9
$STYLESHEET
  1

  9
$XEDIT
290
     1
  9
$CEPSNTYPE
380
     0
  9
$PSTYLEMODE
290
     1
  9
$FINGERPRINTGUID
  2
{4B379763-F279-6E40-818E-E3FC2111506E}
  9
$VERSIONGUID
  2
{C8730A01-A949-0546-8E54-A821D72B49A0}
  9
$EXTNAMES
290
     1
  9
$PSVPSCALE
 40
0.0
  9
$OLESTARTUP
290
     0
  0
ENDSEC
  0
SECTION
  2
CLASSES
  0
CLASS
  1
ACDBDICTIONARYWDFLT
  2
AcDbDictionaryWithDefault
  3
ObjectDBX Classes
 90
        0
280
     0
281
     0
  0
CLASS
  1
ACDBPLACEHOLDER
  2
AcDbPlaceHolder
  3
ObjectDBX Classes
 90
        0
280
     0
281
     0
  0
CLASS
  1
LAYOUT
  2
AcDbLayout
  3
ObjectDBX Classes
 90
        0
280
     0
281
     0
  0
CLASS
  1
DICTIONARYVAR
  2
AcDbDictionaryVar
  3
ObjectDBX Classes
 90
        0
280
     0
281
     0
  0
CLASS
  1
TABLESTYLE
  2
AcDbTableStyle
  3
ObjectDBX Classes
 90
     4095
280
     0
281
     0
  0
CLASS
  1
MATERIAL
  2
AcDbMaterial
  3
ObjectDBX Classes
 90
     1153
280
     0
281
     0
  0
CLASS
  1
VISUALSTYLE
  2
AcDbVisualStyle
  3
ObjectDBX Classes
 90
     4095
280
     0
281
     0
  0
CLASS
  1
SCALE
  2
AcDbScale
  3
ObjectDBX Classes
 90
     1153
280
     0
281
     0
  0
CLASS
  1
MLEADERSTYLE
  2
AcDbMLeaderStyle
  3
ACDB_MLEADERSTYLE_CLASS
 90
     4095
280
     0
281
     0
  0
CLASS
  1
CELLSTYLEMAP
  2
AcDbCellStyleMap
  3
ObjectDBX Classes
 90
     1152
280
     0
281
     0
  0
CLASS
  1
EXACXREFPANELOBJECT
  2
ExAcXREFPanelObject
  3
EXAC_ESW
 90
    33793
280
     0
281
     0
  0
CLASS
  1
NPOCOLLECTION
  2
AcDbImpNonPersistentObjectsCollection
  3
ObjectDBX Classes
 90
    33921
280
     0
281
     0
  0
CLASS
  1
LAYER_INDEX
  2
AcDbLayerIndex
  3
ObjectDBX Classes
 90
    32768
280
     0
281
     0
  0
CLASS
  1
SPATIAL_INDEX
  2
AcDbSpatialIndex
  3
ObjectDBX Classes
 90
    32768
280
     0
281
     0
  0
CLASS
  1
IDBUFFER
  2
AcDbIdBuffer
  3
ObjectDBX Classes
 90
    32768
280
     0
281
     0
  0
CLASS
  1
ACDBSECTIONVIEWSTYLE
  2
AcDbSectionViewStyle
  3
ObjectDBX Classes
 90
     1025
280
     0
281
     0
  0
CLASS
  1
ACDBDETAILVIEWSTYLE
  2
AcDbDetailViewStyle
  3
ObjectDBX Classes
 90
     1025
280
     0
281
     0
  0
CLASS
  1
DIMASSOC
  2
AcDbDimAssoc
  3
"AcDbDimAssoc|Product Desc:     AcDim ARX App For Dimension|Company:          Autodesk, Inc.|WEB Address:      www.autodesk.com"
 90
        0
280
     0
281
     0
  0
CLASS
  1
SORTENTSTABLE
  2
AcDbSortentsTable
  3
ObjectDBX Classes
 90
        0
280
     0
281
     0
  0
CLASS
  1
IMAGE
  2
AcDbRasterImage
  3
ISM
 90
    34943
280
     0
281
     1
  0
CLASS
  1
IMAGEDEF_REACTOR
  2
AcDbRasterImageDefReactor
  3
ISM
 90
    32769
280
     0
281
     0
  0
CLASS
  1
IMAGEDEF
  2
AcDbRasterImageDef
  3
ISM
 90
        0
280
     0
281
     0
  0
CLASS
  1
RASTERVARIABLES
  2
AcDbRasterVariables
  3
ISM
 90
        0
280
     0
281
     0
  0
CLASS
  1
SOLID_BACKGROUND
  2
AcDbSolidBackground
  3
SCENEOE
 90
    36863
280
     0
281
     0
  0
ENDSEC
  0
SECTION
  2
TABLES
  0
TABLE
  2
VPORT
  5
8
330
0
100
AcDbSymbolTable
 70
     1
  0
VPORT
  5
94
330
8
100
AcDbSymbolTableRecord
100
AcDbViewportTableRecord
  2
*Active
 70
     0
 10
0.0
 20
0.0
 11
1.0
 21
1.0
 12
-13396.55910513308
 22
13138.78371155219
 13
0.0
 23
0.0
 14
0.5
 24
0.5
 15
0.5
 25
0.5
 16
0.0
 26
0.0
 36
3812.753364686762
 17
-3840.755809949735
 27
2048.257406111252
 37
0.0
 40
166.8486473783517
 41
2.584761904761904
 42
50.0
 43
0.0
 44
0.0
 50
0.0
 51
0.0
 71
     0
 72
  1000
 73
     1
 74
     3
 75
     0
 76
     0
 77
     0
 78
     0
281
     0
 65
     1
110
0.0
120
0.0
130
0.0
111
1.0
121
0.0
131
0.0
112
0.0
122
1.0
132
0.0
 79
     0
146
0.0
1001
ACAD_NAV_VCDISPLAY
1070
     3
  0
ENDTAB
  0
TABLE
  2
LTYPE
  5
5
330
0
100
AcDbSymbolTable
 70
     3
  0
LTYPE
  5
14
330
5
100
AcDbSymbolTableRecord
100
AcDbLinetypeTableRecord
  2
ByBlock
 70
     0
  3

 72
    65
 73
     0
 40
0.0
  0
LTYPE
  5
15
330
5
100
AcDbSymbolTableRecord
100
AcDbLinetypeTableRecord
  2
ByLayer
 70
     0
  3

 72
    65
 73
     0
 40
0.0
  0
LTYPE
  5
16
330
5
100
AcDbSymbolTableRecord
100
AcDbLinetypeTableRecord
  2
Continuous
 70
     0
  3
Solid line
 72
    65
 73
     0
 40
0.0
  0
LTYPE
  5
2C1C
330
5
100
AcDbSymbolTableRecord
100
AcDbLinetypeTableRecord
  2
DASHED
 70
     0
  3
__ __ __ __ __ __ __ __ __ __ __ __ __ __ __ __
 72
    65
 73
     2
 40
7.5
 49
5.0
 74
     0
 49
-2.5
 74
     0
  0
LTYPE
  5
2C1D
330
5
100
AcDbSymbolTableRecord
100
AcDbLinetypeTableRecord
  2
GESTRICHELT
 70
     0
  3
-- -- -- -- --
 72
    65
 73
     2
 40
7.0
 49
4.0
 74
     0
 49
-3.0
 74
     0
  0
ENDTAB
  0
TABLE
  2
LAYER
  5
2
102
{ACAD_XDICTIONARY
360
18E
102
}
330
0
100
AcDbSymbolTable
 70
     4
  0
LAYER
  5
10
102
{ACAD_XDICTIONARY
360
E6
102
}
330
2
100
AcDbSymbolTableRecord
100
AcDbLayerTableRecord
  2
0
 70
     0
 62
     7
  6
Continuous
370
    -3
390
F
  0
LAYER
  5
21A
330
2
100
AcDbSymbolTableRecord
100
AcDbLayerTableRecord
  2
Defpoints
 70
     0
 62
     7
  6
Continuous
290
     0
370
    -3
390
F
  0
LAYER
  5
5C1
102
{ACAD_XDICTIONARY
360
5C2
102
}
330
2
100
AcDbSymbolTableRecord
100
AcDbLayerTableRecord
  2
Quotature
 70
     0
 62
     7
  6
Continuous
370
    20
390
F
  0
LAYER
  5
1029
102
{ACAD_XDICTIONARY
360
102A
102
}
330
2
100
AcDbSymbolTableRecord
100
AcDbLayerTableRecord
  2
Disegno di base
 70
     0
 62
     7
  6
Continuous
370
    20
390
F
  0
ENDTAB
  0
TABLE
  2
STYLE
  5
3
330
0
100
AcDbSymbolTable
 70
     3
  0
STYLE
  5
11
330
3
100
AcDbSymbolTableRecord
100
AcDbTextStyleTableRecord
  2
Standard
 70
     0
 40
0.0
 41
1.0
 50
0.0
 71
     0
 42
0.2
  3
arial.ttf
  4

1001
ACAD
1000
Arial
1071
       34
  0
STYLE
  5
DC
330
3
100
AcDbSymbolTableRecord
100
AcDbTextStyleTableRecord
  2
Annotativa
 70
     0
 40
0.0
 41
1.0
 50
0.0
 71
     0
 42
0.2
  3
arial.ttf
  4

1001
AcadAnnotative
1000
AnnotativeData
1002
{
1070
     1
1070
     1
1002
}
1001
ACAD
1000
Arial
1071
       34
  0
STYLE
  5
102B
330
3
100
AcDbSymbolTableRecord
100
AcDbTextStyleTableRecord
  2
ARIAL
 70
     0
 40
0.0
 41
1.0
 50
0.0
 71
     0
 42
3.5
  3
arial.ttf
  4

1001
ACAD
1000
Arial
1071
        0
  0
ENDTAB
  0
TABLE
  2
VIEW
  5
6
330
0
100
AcDbSymbolTable
 70
     0
  0
ENDTAB
  0
TABLE
  2
UCS
  5
7
330
0
100
AcDbSymbolTable
 70
     0
  0
ENDTAB
  0
TABLE
  2
APPID
  5
9
330
0
100
AcDbSymbolTable
 70
    13
  0
APPID
  5
12
330
9
100
AcDbSymbolTableRecord
100
AcDbRegAppTableRecord
  2
ACAD
 70
     0
  0
APPID
  5
DD
330
9
100
AcDbSymbolTableRecord
100
AcDbRegAppTableRecord
  2
AcadAnnoPO
 70
     0
  0
APPID
  5
DE
330
9
100
AcDbSymbolTableRecord
100
AcDbRegAppTableRecord
  2
AcadAnnotative
 70
     0
  0
APPID
  5
DF
330
9
100
AcDbSymbolTableRecord
100
AcDbRegAppTableRecord
  2
ACAD_DSTYLE_DIMJAG
 70
     0
  0
APPID
  5
E0
330
9
100
AcDbSymbolTableRecord
100
AcDbRegAppTableRecord
  2
ACAD_DSTYLE_DIMTALN
 70
     0
  0
APPID
  5
107
330
9
100
AcDbSymbolTableRecord
100
AcDbRegAppTableRecord
  2
ACAD_MLEADERVER
 70
     0
  0
APPID
  5
1A6
330
9
100
AcDbSymbolTableRecord
100
AcDbRegAppTableRecord
  2
ACAD_NAV_VCDISPLAY
 70
     0
  0
APPID
  5
206
330
9
100
AcDbSymbolTableRecord
100
AcDbRegAppTableRecord
  2
ACAD_DSTYLE_DIMBREAK
 70
     0
  0
APPID
  5
5C4
330
9
100
AcDbSymbolTableRecord
100
AcDbRegAppTableRecord
  2
ACAD_PSEXT
 70
     0
  0
APPID
  5
5C5
330
9
100
AcDbSymbolTableRecord
100
AcDbRegAppTableRecord
  2
ACAD_DSTYLE_DIMRADIAL_EXTENSION
 70
     0
  0
APPID
  5
301E
330
9
100
AcDbSymbolTableRecord
100
AcDbRegAppTableRecord
  2
ACAD_EXEMPT_FROM_CAD_STANDARDS
 70
     0
  0
APPID
  5
3C75
330
9
100
AcDbSymbolTableRecord
100
AcDbRegAppTableRecord
  2
ACAD_DSTYLE_DIMEXT_ENABLED
 70
     0
  0
APPID
  5
3C76
330
9
100
AcDbSymbolTableRecord
100
AcDbRegAppTableRecord
  2
ACAD_DSTYLE_DIMEXT_LENGTH
 70
     0
  0
ENDTAB
  0
TABLE
  2
DIMSTYLE
  5
A
330
0
100
AcDbSymbolTable
 70
     4
100
AcDbDimStyleTable
 71
     3
340
20B
340
27
340
E1
  0
DIMSTYLE
105
27
330
A
100
AcDbSymbolTableRecord
100
AcDbDimStyleTableRecord
  2
Standard
 70
     0
340
11
  0
DIMSTYLE
105
E1
330
A
100
AcDbSymbolTableRecord
100
AcDbDimStyleTableRecord
  2
Annotativa
 70
     0
 40
0.0
340
11
1001
AcadAnnotative
1000
AnnotativeData
1002
{
1070
     1
1070
     1
1002
}
1001
ACAD_DSTYLE_DIMJAG
1070
   388
1040
1.5
1001
ACAD_DSTYLE_DIMTALN
1070
   392
1070
     0
  0
DIMSTYLE
105
20B
330
A
100
AcDbSymbolTableRecord
100
AcDbDimStyleTableRecord
  2
PERSONALIZZAZIONE DIEGO
 70
     0
 41
5.0
 42
0.0
 44
2.0
 73
     0
 74
     0
140
10.0
146
0.5
147
0.0
176
   256
177
   256
271
     1
272
     1
283
     2
340
102B
341
207
372
    15
1001
ACAD_DSTYLE_DIMBREAK
1070
   391
1040
3.75
1001
ACAD_DSTYLE_DIMJAG
1070
   388
1040
1.5
1001
ACAD_DSTYLE_DIMTALN
1070
   392
1070
     0
1001
ACAD_DSTYLE_DIMEXT_ENABLED
1070
   383
1070
     1
1001
ACAD_DSTYLE_DIMEXT_LENGTH
1070
   378
1040
2.0
  0
DIMSTYLE
105
5C3
330
A
100
AcDbSymbolTableRecord
100
AcDbDimStyleTableRecord
  2
ISO-25
 70
     0
 41
2.5
 42
0.625
 43
3.75
 44
1.25
 73
     0
 74
     0
 77
     1
 78
     8
140
2.5
141
2.5
143
0.03937007874016
147
0.625
171
     3
172
     1
271
     2
272
     2
274
     3
278
    44
283
     0
284
     8
340
11
  0
ENDTAB
  0
TABLE
  2
BLOCK_RECORD
  5
1
330
0
100
AcDbSymbolTable
 70
    51
  0
BLOCK_RECORD
  5
1F
102
{ACAD_XDICTIONARY
360
15D
102
}
330
1
100
AcDbSymbolTableRecord
100
AcDbBlockTableRecord
  2
*Model_Space
340
22
  0
BLOCK_RECORD
  5
58
330
1
100
AcDbSymbolTableRecord
100
AcDbBlockTableRecord
  2
*Paper_Space
340
59
  0
BLOCK_RECORD
  5
5D
330
1
100
AcDbSymbolTableRecord
100
AcDbBlockTableRecord
  2
*Paper_Space0
340
5E
  0
BLOCK_RECORD
  5
207
330
1
100
AcDbSymbolTableRecord
100
AcDbBlockTableRecord
  2
_ArchTick
340
0
  0
BLOCK_RECORD
  5
3226
330
1
100
AcDbSymbolTableRecord
100
AcDbBlockTableRecord
  2
*D2
340
0
  0
BLOCK_RECORD
  5
3242
330
1
100
AcDbSymbolTableRecord
100
AcDbBlockTableRecord
  2
*D3
340
0
  0
BLOCK_RECORD
  5
326F
330
1
100
AcDbSymbolTableRecord
100
AcDbBlockTableRecord
  2
*D4
340
0
  0
BLOCK_RECORD
  5
329F
330
1
100
AcDbSymbolTableRecord
100
AcDbBlockTableRecord
  2
*D5
340
0
  0
BLOCK_RECORD
  5
32B9
330
1
100
AcDbSymbolTableRecord
100
AcDbBlockTableRecord
  2
*D6
340
0
  0
BLOCK_RECORD
  5
32D3
330
1
100
AcDbSymbolTableRecord
100
AcDbBlockTableRecord
  2
*D7
340
0
  0
BLOCK_RECORD
  5
32ED
330
1
100
AcDbSymbolTableRecord
100
AcDbBlockTableRecord
  2
*D8
340
0
  0
BLOCK_RECORD
  5
3308
330
1
100
AcDbSymbolTableRecord
100
AcDbBlockTableRecord
  2
*D9
340
0
  0
BLOCK_RECORD
  5
335E
330
1
100
AcDbSymbolTableRecord
100
AcDbBlockTableRecord
  2
*D10
340
0
  0
BLOCK_RECORD
  5
3378
330
1
100
AcDbSymbolTableRecord
100
AcDbBlockTableRecord
  2
*D11
340
0
  0
BLOCK_RECORD
  5
3392
330
1
100
AcDbSymbolTableRecord
100
AcDbBlockTableRecord
  2
*D12
340
0
  0
BLOCK_RECORD
  5
33B4
330
1
100
AcDbSymbolTableRecord
100
AcDbBlockTableRecord
  2
*D13
340
0
  0
BLOCK_RECORD
  5
33C1
330
1
100
AcDbSymbolTableRecord
100
AcDbBlockTableRecord
  2
*D14
340
0
  0
BLOCK_RECORD
  5
33CE
330
1
100
AcDbSymbolTableRecord
100
AcDbBlockTableRecord
  2
*D15
340
0
  0
BLOCK_RECORD
  5
3424
330
1
100
AcDbSymbolTableRecord
100
AcDbBlockTableRecord
  2
*D16
340
0
  0
BLOCK_RECORD
  5
3431
330
1
100
AcDbSymbolTableRecord
100
AcDbBlockTableRecord
  2
*D17
340
0
  0
BLOCK_RECORD
  5
343E
330
1
100
AcDbSymbolTableRecord
100
AcDbBlockTableRecord
  2
*D18
340
0
  0
BLOCK_RECORD
  5
344B
330
1
100
AcDbSymbolTableRecord
100
AcDbBlockTableRecord
  2
*D19
340
0
  0
BLOCK_RECORD
  5
3497
330
1
100
AcDbSymbolTableRecord
100
AcDbBlockTableRecord
  2
*D20
340
0
  0
BLOCK_RECORD
  5
34A4
330
1
100
AcDbSymbolTableRecord
100
AcDbBlockTableRecord
  2
*D21
340
0
  0
BLOCK_RECORD
  5
34B1
330
1
100
AcDbSymbolTableRecord
100
AcDbBlockTableRecord
  2
*D22
340
0
  0
BLOCK_RECORD
  5
34BE
330
1
100
AcDbSymbolTableRecord
100
AcDbBlockTableRecord
  2
*D23
340
0
  0
BLOCK_RECORD
  5
3508
330
1
100
AcDbSymbolTableRecord
100
AcDbBlockTableRecord
  2
*D24
340
0
  0
BLOCK_RECORD
  5
3535
330
1
100
AcDbSymbolTableRecord
100
AcDbBlockTableRecord
  2
*D25
340
0
  0
BLOCK_RECORD
  5
35B6
330
1
100
AcDbSymbolTableRecord
100
AcDbBlockTableRecord
  2
*D26
340
0
  0
BLOCK_RECORD
  5
35C3
330
1
100
AcDbSymbolTableRecord
100
AcDbBlockTableRecord
  2
*D27
340
0
  0
BLOCK_RECORD
  5
35D0
330
1
100
AcDbSymbolTableRecord
100
AcDbBlockTableRecord
  2
*D28
340
0
  0
BLOCK_RECORD
  5
35DD
330
1
100
AcDbSymbolTableRecord
100
AcDbBlockTableRecord
  2
*D29
340
0
  0
BLOCK_RECORD
  5
3758
330
1
100
AcDbSymbolTableRecord
100
AcDbBlockTableRecord
  2
*D30
340
0
  0
BLOCK_RECORD
  5
3765
330
1
100
AcDbSymbolTableRecord
100
AcDbBlockTableRecord
  2
*D31
340
0
  0
BLOCK_RECORD
  5
3772
330
1
100
AcDbSymbolTableRecord
100
AcDbBlockTableRecord
  2
*D32
340
0
  0
BLOCK_RECORD
  5
377F
330
1
100
AcDbSymbolTableRecord
100
AcDbBlockTableRecord
  2
*D33
340
0
  0
BLOCK_RECORD
  5
37D4
330
1
100
AcDbSymbolTableRecord
100
AcDbBlockTableRecord
  2
*D34
340
0
  0
BLOCK_RECORD
  5
3A2B
330
1
100
AcDbSymbolTableRecord
100
AcDbBlockTableRecord
  2
*D35
340
0
  0
BLOCK_RECORD
  5
3A38
330
1
100
AcDbSymbolTableRecord
100
AcDbBlockTableRecord
  2
*D36
340
0
  0
BLOCK_RECORD
  5
3A45
330
1
100
AcDbSymbolTableRecord
100
AcDbBlockTableRecord
  2
*D37
340
0
  0
BLOCK_RECORD
  5
3A52
330
1
100
AcDbSymbolTableRecord
100
AcDbBlockTableRecord
  2
*D38
340
0
  0
BLOCK_RECORD
  5
3A87
330
1
100
AcDbSymbolTableRecord
100
AcDbBlockTableRecord
  2
*D39
340
0
  0
BLOCK_RECORD
  5
3BA9
330
1
100
AcDbSymbolTableRecord
100
AcDbBlockTableRecord
  2
*D40
340
0
  0
BLOCK_RECORD
  5
3F89
330
1
100
AcDbSymbolTableRecord
100
AcDbBlockTableRecord
  2
*D41
340
0
  0
BLOCK_RECORD
  5
3F96
330
1
100
AcDbSymbolTableRecord
100
AcDbBlockTableRecord
  2
*D42
340
0
  0
BLOCK_RECORD
  5
3FA3
330
1
100
AcDbSymbolTableRecord
100
AcDbBlockTableRecord
  2
*D43
340
0
  0
BLOCK_RECORD
  5
3FB0
330
1
100
AcDbSymbolTableRecord
100
AcDbBlockTableRecord
  2
*D44
340
0
  0
BLOCK_RECORD
  5
3FF7
330
1
100
AcDbSymbolTableRecord
100
AcDbBlockTableRecord
  2
*D46
340
0
  0
BLOCK_RECORD
  5
4004
330
1
100
AcDbSymbolTableRecord
100
AcDbBlockTableRecord
  2
*D47
340
0
  0
BLOCK_RECORD
  5
4011
330
1
100
AcDbSymbolTableRecord
100
AcDbBlockTableRecord
  2
*D48
340
0
  0
BLOCK_RECORD
  5
401E
330
1
100
AcDbSymbolTableRecord
100
AcDbBlockTableRecord
  2
*D49
340
0
  0
BLOCK_RECORD
  5
409A
330
1
100
AcDbSymbolTableRecord
100
AcDbBlockTableRecord
  2
*D50
340
0
  0
ENDTAB
  0
ENDSEC
  0
SECTION
  2
BLOCKS
  0
BLOCK
  5
20
330
1F
100
AcDbEntity
  8
0
100
AcDbBlockBegin
  2
*Model_Space
 70
     0
 10
0.0
 20
0.0
 30
0.0
  3
*Model_Space
  1

  0
ENDBLK
  5
21
330
1F
100
AcDbEntity
  8
0
100
AcDbBlockEnd
  0
BLOCK
  5
5A
330
58
100
AcDbEntity
 67
     1
  8
0
100
AcDbBlockBegin
  2
*Paper_Space
 70
     0
 10
0.0
 20
0.0
 30
0.0
  3
*Paper_Space
  1

  0
ENDBLK
  5
5B
330
58
100
AcDbEntity
 67
     1
  8
0
100
AcDbBlockEnd
  0
BLOCK
  5
5F
330
5D
100
AcDbEntity
 67
     1
  8
0
100
AcDbBlockBegin
  2
*Paper_Space0
 70
     0
 10
0.0
 20
0.0
 30
0.0
  3
*Paper_Space0
  1

  0
ENDBLK
  5
60
330
5D
100
AcDbEntity
 67
     1
  8
0
100
AcDbBlockEnd
  0
BLOCK
  5
209
330
207
100
AcDbEntity
  8
0
100
AcDbBlockBegin
  2
_ArchTick
 70
     0
 10
0.0
 20
0.0
 30
0.0
  3
_ArchTick
  1

  0
LWPOLYLINE
  5
208
330
207
100
AcDbEntity
  8
0
  6
ByBlock
 62
     0
100
AcDbPolyline
 90
        2
 70
     0
 43
0.15
 10
-0.5
 20
-0.5
 10
0.5
 20
0.5
  0
ENDBLK
  5
20A
330
207
100
AcDbEntity
  8
0
100
AcDbBlockEnd
  0
BLOCK
  5
3227
330
3226
100
AcDbEntity
  8
0
100
AcDbBlockBegin
  2
*D2
 70
     1
 10
0.0
 20
0.0
 30
0.0
  3
*D2
  1

  0
LINE
  5
3234
330
3226
100
AcDbEntity
  8
0
370
    15
100
AcDbLine
 10
-4482.333156194385
 20
1515.020647463602
 30
0.0
 11
-4482.333156194385
 21
1511.020647463602
 31
0.0
  0
LINE
  5
3235
330
3226
100
AcDbEntity
  8
0
370
    15
100
AcDbLine
 10
-4478.34711012372
 20
1515.020647463602
 30
0.0
 11
-4478.34711012372
 21
1511.020647463602
 31
0.0
  0
LINE
  5
3236
330
3226
100
AcDbEntity
  8
0
370
    -2
100
AcDbLine
 10
-4487.333156194384
 20
1513.020647463602
 30
0.0
 11
-4492.333156194385
 21
1513.020647463602
 31
0.0
  0
LINE
  5
3237
330
3226
100
AcDbEntity
  8
0
370
    -2
100
AcDbLine
 10
-4473.34711012372
 20
1513.020647463602
 30
0.0
 11
-4468.34711012372
 21
1513.020647463602
 31
0.0
  0
SOLID
  5
3238
330
3226
100
AcDbEntity
  8
0
100
AcDbTrace
 10
-4487.333156194384
 20
1513.853980796936
 30
0.0
 11
-4487.333156194384
 21
1512.187314130269
 31
0.0
 12
-4482.333156194385
 22
1513.020647463602
 32
0.0
 13
-4482.333156194385
 23
1513.020647463602
 33
0.0
  0
SOLID
  5
3239
330
3226
100
AcDbEntity
  8
0
100
AcDbTrace
 10
-4473.34711012372
 20
1513.853980796936
 30
0.0
 11
-4473.34711012372
 21
1512.187314130269
 31
0.0
 12
-4478.34711012372
 22
1513.020647463602
 32
0.0
 13
-4478.34711012372
 23
1513.020647463602
 33
0.0
  0
MTEXT
  5
323A
330
3226
100
AcDbEntity
  8
0
 62
     0
100
AcDbMText
 10
-4459.059934134634
 20
1513.020647463602
 30
0.0
 40
10.0
 41
0.0
 71
     5
 72
     1
  1
\A2;4.0
  7
ARIAL
 73
     1
 44
1.0
1001
ACAD
1000
MTEXTBEGIN
1070
    73
1070
     1
1070
    44
1040
1.0
1070
    74
1070
     0
1000
MTEXTEND
  0
POINT
  5
323B
330
3226
100
AcDbEntity
  8
Defpoints
 62
     0
100
AcDbPoint
 10
-4482.333156194385
 20
1519.781086936406
 30
0.0
  0
POINT
  5
323C
330
3226
100
AcDbEntity
  8
Defpoints
 62
     0
100
AcDbPoint
 10
-4478.34711012372
 20
1519.545245877226
 30
0.0
  0
POINT
  5
323D
330
3226
100
AcDbEntity
  8
Defpoints
 62
     0
100
AcDbPoint
 10
-4478.34711012372
 20
1513.020647463602
 30
0.0
  0
ENDBLK
  5
3228
330
3226
100
AcDbEntity
  8
0
100
AcDbBlockEnd
  0
BLOCK
  5
3243
330
3242
100
AcDbEntity
  8
0
100
AcDbBlockBegin
  2
*D3
 70
     1
 10
0.0
 20
0.0
 30
0.0
  3
*D3
  1

  0
LINE
  5
3250
330
3242
100
AcDbEntity
  8
0
370
    15
100
AcDbLine
 10
-4481.333156194385
 20
1518.174893247861
 30
0.0
 11
-4481.333156194385
 21
1514.174893247861
 31
0.0
  0
LINE
  5
3251
330
3242
100
AcDbEntity
  8
0
370
    15
100
AcDbLine
 10
-4479.333156194384
 20
1518.174893247861
 30
0.0
 11
-4479.333156194384
 21
1514.174893247861
 31
0.0
  0
LINE
  5
3252
330
3242
100
AcDbEntity
  8
0
370
    -2
100
AcDbLine
 10
-4486.333156194385
 20
1516.174893247861
 30
0.0
 11
-4491.333156194385
 21
1516.174893247861
 31
0.0
  0
LINE
  5
3253
330
3242
100
AcDbEntity
  8
0
370
    -2
100
AcDbLine
 10
-4474.333156194385
 20
1516.174893247861
 30
0.0
 11
-4469.333156194385
 21
1516.174893247861
 31
0.0
  0
SOLID
  5
3254
330
3242
100
AcDbEntity
  8
0
100
AcDbTrace
 10
-4486.333156194385
 20
1517.008226581194
 30
0.0
 11
-4486.333156194385
 21
1515.341559914528
 31
0.0
 12
-4481.333156194385
 22
1516.174893247861
 32
0.0
 13
-4481.333156194385
 23
1516.174893247861
 33
0.0
  0
SOLID
  5
3255
330
3242
100
AcDbEntity
  8
0
100
AcDbTrace
 10
-4474.333156194385
 20
1517.008226581194
 30
0.0
 11
-4474.333156194385
 21
1515.341559914528
 31
0.0
 12
-4479.333156194384
 22
1516.174893247861
 32
0.0
 13
-4479.333156194384
 23
1516.174893247861
 33
0.0
  0
MTEXT
  5
3256
330
3242
100
AcDbEntity
  8
0
 62
     0
100
AcDbMText
 10
-4460.161942006116
 20
1516.174893247861
 30
0.0
 40
10.0
 41
0.0
 71
     5
 72
     1
  1
\A2;2.0
  7
ARIAL
 73
     1
 44
1.0
1001
ACAD
1000
MTEXTBEGIN
1070
    73
1070
     1
1070
    44
1040
1.0
1070
    74
1070
     0
1000
MTEXTEND
  0
POINT
  5
3257
330
3242
100
AcDbEntity
  8
Defpoints
 62
     0
100
AcDbPoint
 10
-4481.333156194385
 20
1519.781086936406
 30
0.0
  0
POINT
  5
3258
330
3242
100
AcDbEntity
  8
Defpoints
 62
     0
100
AcDbPoint
 10
-4479.333156194384
 20
1519.781086936406
 30
0.0
  0
POINT
  5
3259
330
3242
100
AcDbEntity
  8
Defpoints
 62
     0
100
AcDbPoint
 10
-4479.333156194384
 20
1516.174893247861
 30
0.0
  0
ENDBLK
  5
3244
330
3242
100
AcDbEntity
  8
0
100
AcDbBlockEnd
  0
BLOCK
  5
3270
330
326F
100
AcDbEntity
  8
0
100
AcDbBlockBegin
  2
*D4
 70
     1
 10
0.0
 20
0.0
 30
0.0
  3
*D4
  1

  0
LINE
  5
327D
330
326F
100
AcDbEntity
  8
0
370
    15
100
AcDbLine
 10
-4076.018753451203
 20
2146.643583920604
 30
0.0
 11
-4076.018753451203
 21
2150.643583920604
 31
0.0
  0
LINE
  5
327E
330
326F
100
AcDbEntity
  8
0
370
    15
100
AcDbLine
 10
-3995.018753451203
 20
2146.643583920604
 30
0.0
 11
-3995.018753451203
 21
2150.643583920604
 31
0.0
  0
LINE
  5
327F
330
326F
100
AcDbEntity
  8
0
370
    -2
100
AcDbLine
 10
-4071.018753451202
 20
2148.643583920604
 30
0.0
 11
-4048.496243219278
 21
2148.643583920604
 31
0.0
  0
LINE
  5
3280
330
326F
100
AcDbEntity
  8
0
370
    -2
100
AcDbLine
 10
-4000.018753451202
 20
2148.643583920604
 30
0.0
 11
-4022.541263683126
 21
2148.643583920604
 31
0.0
  0
SOLID
  5
3281
330
326F
100
AcDbEntity
  8
0
100
AcDbTrace
 10
-4071.018753451202
 20
2149.476917253938
 30
0.0
 11
-4071.018753451202
 21
2147.810250587271
 31
0.0
 12
-4076.018753451203
 22
2148.643583920604
 32
0.0
 13
-4076.018753451203
 23
2148.643583920604
 33
0.0
  0
SOLID
  5
3282
330
326F
100
AcDbEntity
  8
0
100
AcDbTrace
 10
-4000.018753451202
 20
2149.476917253938
 30
0.0
 11
-4000.018753451202
 21
2147.810250587271
 31
0.0
 12
-3995.018753451203
 22
2148.643583920604
 32
0.0
 13
-3995.018753451203
 23
2148.643583920604
 33
0.0
  0
MTEXT
  5
3283
330
326F
100
AcDbEntity
  8
0
 62
     0
100
AcDbMText
 10
-4035.518753451202
 20
2148.643583920604
 30
0.0
 40
10.0
 41
0.0
 71
     5
 72
     1
  1
\A2;81.0
  7
ARIAL
 73
     1
 44
1.0
1001
ACAD
1000
MTEXTBEGIN
1070
    73
1070
     1
1070
    44
1040
1.0
1070
    74
1070
     0
1000
MTEXTEND
  0
POINT
  5
3284
330
326F
100
AcDbEntity
  8
Defpoints
 62
     0
100
AcDbPoint
 10
-4076.018753451203
 20
2122.781086936424
 30
0.0
  0
POINT
  5
3285
330
326F
100
AcDbEntity
  8
Defpoints
 62
     0
100
AcDbPoint
 10
-3995.018753451203
 20
2122.781086936424
 30
0.0
  0
POINT
  5
3286
330
326F
100
AcDbEntity
  8
Defpoints
 62
     0
100
AcDbPoint
 10
-3995.018753451203
 20
2148.643583920604
 30
0.0
  0
ENDBLK
  5
3271
330
326F
100
AcDbEntity
  8
0
100
AcDbBlockEnd
  0
BLOCK
  5
32A0
330
329F
100
AcDbEntity
  8
0
100
AcDbBlockBegin
  2
*D5
 70
     1
 10
0.0
 20
0.0
 30
0.0
  3
*D5
  1

  0
LINE
  5
3335
330
329F
100
AcDbEntity
  8
0
370
    15
100
AcDbLine
 10
-4050.462748147827
 20
2315.395877154753
 30
0.0
 11
-4050.462748147827
 21
2319.395877154753
 31
0.0
  0
LINE
  5
3336
330
329F
100
AcDbEntity
  8
0
370
    15
100
AcDbLine
 10
-3965.462748147827
 20
2315.395877154753
 30
0.0
 11
-3965.462748147827
 21
2319.395877154753
 31
0.0
  0
LINE
  5
3337
330
329F
100
AcDbEntity
  8
0
370
    -2
100
AcDbLine
 10
-4045.462748147827
 20
2317.395877154753
 30
0.0
 11
-4020.940237915904
 21
2317.395877154753
 31
0.0
  0
LINE
  5
3338
330
329F
100
AcDbEntity
  8
0
370
    -2
100
AcDbLine
 10
-3970.462748147827
 20
2317.395877154753
 30
0.0
 11
-3994.985258379751
 21
2317.395877154753
 31
0.0
  0
SOLID
  5
3339
330
329F
100
AcDbEntity
  8
0
100
AcDbTrace
 10
-4045.462748147827
 20
2318.229210488087
 30
0.0
 11
-4045.462748147827
 21
2316.562543821421
 31
0.0
 12
-4050.462748147827
 22
2317.395877154753
 32
0.0
 13
-4050.462748147827
 23
2317.395877154753
 33
0.0
  0
SOLID
  5
333A
330
329F
100
AcDbEntity
  8
0
100
AcDbTrace
 10
-3970.462748147827
 20
2318.229210488087
 30
0.0
 11
-3970.462748147827
 21
2316.562543821421
 31
0.0
 12
-3965.462748147827
 22
2317.395877154753
 32
0.0
 13
-3965.462748147827
 23
2317.395877154753
 33
0.0
  0
MTEXT
  5
333B
330
329F
100
AcDbEntity
  8
0
 62
     0
100
AcDbMText
 10
-4007.962748147828
 20
2317.395877154753
 30
0.0
 40
10.0
 41
0.0
 71
     5
 72
     1
  1
\A2;85.0
  7
ARIAL
 73
     1
 44
1.0
1001
ACAD
1000
MTEXTBEGIN
1070
    73
1070
     1
1070
    44
1040
1.0
1070
    74
1070
     0
1000
MTEXTEND
  0
POINT
  5
333C
330
329F
100
AcDbEntity
  8
Defpoints
 62
     0
100
AcDbPoint
 10
-4050.462748147827
 20
2269.781086936407
 30
0.0
  0
POINT
  5
333D
330
329F
100
AcDbEntity
  8
Defpoints
 62
     0
100
AcDbPoint
 10
-3965.462748147827
 20
2269.781086936407
 30
0.0
  0
POINT
  5
333E
330
329F
100
AcDbEntity
  8
Defpoints
 62
     0
100
AcDbPoint
 10
-3965.462748147827
 20
2317.395877154753
 30
0.0
  0
ENDBLK
  5
32A1
330
329F
100
AcDbEntity
  8
0
100
AcDbBlockEnd
  0
BLOCK
  5
32BA
330
32B9
100
AcDbEntity
  8
0
100
AcDbBlockBegin
  2
*D6
 70
     1
 10
0.0
 20
0.0
 30
0.0
  3
*D6
  1

  0
LINE
  5
3DF8
330
32B9
100
AcDbEntity
  8
0
370
    15
100
AcDbLine
 10
-4517.833156194384
 20
2303.678530634347
 30
0.0
 11
-4517.833156194384
 21
2307.678530634347
 31
0.0
  0
LINE
  5
3DF9
330
32B9
100
AcDbEntity
  8
0
370
    15
100
AcDbLine
 10
-4442.833156194384
 20
2303.678530634347
 30
0.0
 11
-4442.833156194384
 21
2307.678530634347
 31
0.0
  0
LINE
  5
3DFA
330
32B9
100
AcDbEntity
  8
0
370
    -2
100
AcDbLine
 10
-4512.833156194385
 20
2305.678530634347
 30
0.0
 11
-4493.262896985653
 21
2305.678530634347
 31
0.0
  0
LINE
  5
3DFB
330
32B9
100
AcDbEntity
  8
0
370
    -2
100
AcDbLine
 10
-4447.833156194383
 20
2305.678530634347
 30
0.0
 11
-4467.403415403115
 21
2305.678530634347
 31
0.0
  0
SOLID
  5
3DFC
330
32B9
100
AcDbEntity
  8
0
100
AcDbTrace
 10
-4512.833156194385
 20
2306.51186396768
 30
0.0
 11
-4512.833156194385
 21
2304.845197301014
 31
0.0
 12
-4517.833156194384
 22
2305.678530634347
 32
0.0
 13
-4517.833156194384
 23
2305.678530634347
 33
0.0
  0
SOLID
  5
3DFD
330
32B9
100
AcDbEntity
  8
0
100
AcDbTrace
 10
-4447.833156194383
 20
2306.51186396768
 30
0.0
 11
-4447.833156194383
 21
2304.845197301014
 31
0.0
 12
-4442.833156194384
 22
2305.678530634347
 32
0.0
 13
-4442.833156194384
 23
2305.678530634347
 33
0.0
  0
MTEXT
  5
3DFE
330
32B9
100
AcDbEntity
  8
0
 62
     0
100
AcDbMText
 10
-4480.333156194384
 20
2305.678530634347
 30
0.0
 40
10.0
 41
0.0
 71
     5
 72
     1
  1
\A2;75.0
  7
ARIAL
 73
     1
 44
1.0
1001
ACAD
1000
MTEXTBEGIN
1070
    73
1070
     1
1070
    44
1040
1.0
1070
    74
1070
     0
1000
MTEXTEND
  0
POINT
  5
3DFF
330
32B9
100
AcDbEntity
  8
Defpoints
 62
     0
100
AcDbPoint
 10
-4517.833156194384
 20
2269.781086936407
 30
0.0
  0
POINT
  5
3E00
330
32B9
100
AcDbEntity
  8
Defpoints
 62
     0
100
AcDbPoint
 10
-4442.833156194384
 20
2269.781086936407
 30
0.0
  0
POINT
  5
3E01
330
32B9
100
AcDbEntity
  8
Defpoints
 62
     0
100
AcDbPoint
 10
-4442.833156194384
 20
2305.678530634347
 30
0.0
  0
ENDBLK
  5
32BB
330
32B9
100
AcDbEntity
  8
0
100
AcDbBlockEnd
  0
BLOCK
  5
32D4
330
32D3
100
AcDbEntity
  8
0
100
AcDbBlockBegin
  2
*D7
 70
     1
 10
0.0
 20
0.0
 30
0.0
  3
*D7
  1

  0
LINE
  5
32E1
330
32D3
100
AcDbEntity
  8
0
370
    15
100
AcDbLine
 10
-3861.489787722166
 20
2176.129729992284
 30
0.0
 11
-3861.489787722166
 21
2180.129729992284
 31
0.0
  0
LINE
  5
32E2
330
32D3
100
AcDbEntity
  8
0
370
    15
100
AcDbLine
 10
-3775.926407440476
 20
2176.129729992284
 30
0.0
 11
-3775.926407440476
 21
2180.129729992284
 31
0.0
  0
LINE
  5
32E3
330
32D3
100
AcDbEntity
  8
0
370
    -2
100
AcDbLine
 10
-3856.489787722166
 20
2178.129729992285
 30
0.0
 11
-3831.6992299142
 21
2178.129729992285
 31
0.0
  0
LINE
  5
32E4
330
32D3
100
AcDbEntity
  8
0
370
    -2
100
AcDbLine
 10
-3780.926407440476
 20
2178.129729992285
 30
0.0
 11
-3805.716965248442
 21
2178.129729992285
 31
0.0
  0
SOLID
  5
32E5
330
32D3
100
AcDbEntity
  8
0
100
AcDbTrace
 10
-3856.489787722166
 20
2178.963063325618
 30
0.0
 11
-3856.489787722166
 21
2177.296396658951
 31
0.0
 12
-3861.489787722166
 22
2178.129729992285
 32
0.0
 13
-3861.489787722166
 23
2178.129729992285
 33
0.0
  0
SOLID
  5
32E6
330
32D3
100
AcDbEntity
  8
0
100
AcDbTrace
 10
-3780.926407440476
 20
2178.963063325618
 30
0.0
 11
-3780.926407440476
 21
2177.296396658951
 31
0.0
 12
-3775.926407440476
 22
2178.129729992285
 32
0.0
 13
-3775.926407440476
 23
2178.129729992285
 33
0.0
  0
MTEXT
  5
32E7
330
32D3
100
AcDbEntity
  8
0
 62
     0
100
AcDbMText
 10
-3818.708097581321
 20
2178.129729992285
 30
0.0
 40
10.0
 41
0.0
 71
     5
 72
     1
  1
\A2;85.6
  7
ARIAL
 73
     1
 44
1.0
1001
ACAD
1000
MTEXTBEGIN
1070
    73
1070
     1
1070
    44
1040
1.0
1070
    74
1070
     0
1000
MTEXTEND
  0
POINT
  5
32E8
330
32D3
100
AcDbEntity
  8
Defpoints
 62
     0
100
AcDbPoint
 10
-3861.489787722166
 20
2125.062777077269
 30
0.0
  0
POINT
  5
32E9
330
32D3
100
AcDbEntity
  8
Defpoints
 62
     0
100
AcDbPoint
 10
-3775.926407440476
 20
2125.062777077269
 30
0.0
  0
POINT
  5
32EA
330
32D3
100
AcDbEntity
  8
Defpoints
 62
     0
100
AcDbPoint
 10
-3775.926407440476
 20
2178.129729992285
 30
0.0
  0
ENDBLK
  5
32D5
330
32D3
100
AcDbEntity
  8
0
100
AcDbBlockEnd
  0
BLOCK
  5
32EE
330
32ED
100
AcDbEntity
  8
0
100
AcDbBlockBegin
  2
*D8
 70
     1
 10
0.0
 20
0.0
 30
0.0
  3
*D8
  1

  0
LINE
  5
32FB
330
32ED
100
AcDbEntity
  8
0
370
    15
100
AcDbLine
 10
-3859.208097581321
 20
2145.365516815169
 30
0.0
 11
-3859.208097581321
 21
2149.365516815169
 31
0.0
  0
LINE
  5
32FC
330
32ED
100
AcDbEntity
  8
0
370
    15
100
AcDbLine
 10
-3778.208097581321
 20
2145.365516815169
 30
0.0
 11
-3778.208097581321
 21
2149.365516815169
 31
0.0
  0
LINE
  5
32FD
330
32ED
100
AcDbEntity
  8
0
370
    -2
100
AcDbLine
 10
-3854.208097581322
 20
2147.365516815169
 30
0.0
 11
-3831.685587349397
 21
2147.365516815169
 31
0.0
  0
LINE
  5
32FE
330
32ED
100
AcDbEntity
  8
0
370
    -2
100
AcDbLine
 10
-3783.208097581321
 20
2147.365516815169
 30
0.0
 11
-3805.730607813244
 21
2147.365516815169
 31
0.0
  0
SOLID
  5
32FF
330
32ED
100
AcDbEntity
  8
0
100
AcDbTrace
 10
-3854.208097581322
 20
2148.198850148503
 30
0.0
 11
-3854.208097581322
 21
2146.532183481836
 31
0.0
 12
-3859.208097581321
 22
2147.365516815169
 32
0.0
 13
-3859.208097581321
 23
2147.365516815169
 33
0.0
  0
SOLID
  5
3300
330
32ED
100
AcDbEntity
  8
0
100
AcDbTrace
 10
-3783.208097581321
 20
2148.198850148503
 30
0.0
 11
-3783.208097581321
 21
2146.532183481836
 31
0.0
 12
-3778.208097581321
 22
2147.365516815169
 32
0.0
 13
-3778.208097581321
 23
2147.365516815169
 33
0.0
  0
MTEXT
  5
3301
330
32ED
100
AcDbEntity
  8
0
 62
     0
100
AcDbMText
 10
-3818.708097581321
 20
2147.365516815169
 30
0.0
 40
10.0
 41
0.0
 71
     5
 72
     1
  1
\A2;81.0
  7
ARIAL
 73
     1
 44
1.0
1001
ACAD
1000
MTEXTBEGIN
1070
    73
1070
     1
1070
    44
1040
1.0
1070
    74
1070
     0
1000
MTEXTEND
  0
POINT
  5
3302
330
32ED
100
AcDbEntity
  8
Defpoints
 62
     0
100
AcDbPoint
 10
-3859.208097581321
 20
2122.781086936424
 30
0.0
  0
POINT
  5
3303
330
32ED
100
AcDbEntity
  8
Defpoints
 62
     0
100
AcDbPoint
 10
-3778.208097581321
 20
2122.781086936424
 30
0.0
  0
POINT
  5
3304
330
32ED
100
AcDbEntity
  8
Defpoints
 62
     0
100
AcDbPoint
 10
-3778.208097581321
 20
2147.365516815169
 30
0.0
  0
ENDBLK
  5
32EF
330
32ED
100
AcDbEntity
  8
0
100
AcDbBlockEnd
  0
BLOCK
  5
3309
330
3308
100
AcDbEntity
  8
0
100
AcDbBlockBegin
  2
*D9
 70
     1
 10
0.0
 20
0.0
 30
0.0
  3
*D9
  1

  0
LINE
  5
3353
330
3308
100
AcDbEntity
  8
0
370
    15
100
AcDbLine
 10
-3859.208097581321
 20
2144.608761566742
 30
0.0
 11
-3859.208097581321
 21
2148.608761566742
 31
0.0
  0
LINE
  5
3354
330
3308
100
AcDbEntity
  8
0
370
    15
100
AcDbLine
 10
-3778.208097581321
 20
2144.608761566742
 30
0.0
 11
-3778.208097581321
 21
2148.608761566742
 31
0.0
  0
LINE
  5
3355
330
3308
100
AcDbEntity
  8
0
370
    -2
100
AcDbLine
 10
-3854.208097581322
 20
2146.608761566742
 30
0.0
 11
-3831.685587349397
 21
2146.608761566742
 31
0.0
  0
LINE
  5
3356
330
3308
100
AcDbEntity
  8
0
370
    -2
100
AcDbLine
 10
-3783.208097581321
 20
2146.608761566742
 30
0.0
 11
-3805.730607813244
 21
2146.608761566742
 31
0.0
  0
SOLID
  5
3357
330
3308
100
AcDbEntity
  8
0
100
AcDbTrace
 10
-3854.208097581322
 20
2147.442094900076
 30
0.0
 11
-3854.208097581322
 21
2145.775428233409
 31
0.0
 12
-3859.208097581321
 22
2146.608761566742
 32
0.0
 13
-3859.208097581321
 23
2146.608761566742
 33
0.0
  0
SOLID
  5
3358
330
3308
100
AcDbEntity
  8
0
100
AcDbTrace
 10
-3783.208097581321
 20
2147.442094900076
 30
0.0
 11
-3783.208097581321
 21
2145.775428233409
 31
0.0
 12
-3778.208097581321
 22
2146.608761566742
 32
0.0
 13
-3778.208097581321
 23
2146.608761566742
 33
0.0
  0
MTEXT
  5
3359
330
3308
100
AcDbEntity
  8
0
 62
     0
100
AcDbMText
 10
-3818.708097581321
 20
2146.608761566742
 30
0.0
 40
10.0
 41
0.0
 71
     5
 72
     1
  1
\A2;81.0
  7
ARIAL
 73
     1
 44
1.0
1001
ACAD
1000
MTEXTBEGIN
1070
    73
1070
     1
1070
    44
1040
1.0
1070
    74
1070
     0
1000
MTEXTEND
  0
POINT
  5
335A
330
3308
100
AcDbEntity
  8
Defpoints
 62
     0
100
AcDbPoint
 10
-3859.208097581321
 20
2122.781086936424
 30
0.0
  0
POINT
  5
335B
330
3308
100
AcDbEntity
  8
Defpoints
 62
     0
100
AcDbPoint
 10
-3778.208097581321
 20
2122.781086936424
 30
0.0
  0
POINT
  5
335C
330
3308
100
AcDbEntity
  8
Defpoints
 62
     0
100
AcDbPoint
 10
-3778.208097581321
 20
2146.608761566742
 30
0.0
  0
ENDBLK
  5
330A
330
3308
100
AcDbEntity
  8
0
100
AcDbBlockEnd
  0
BLOCK
  5
335F
330
335E
100
AcDbEntity
  8
0
100
AcDbBlockBegin
  2
*D10
 70
     1
 10
0.0
 20
0.0
 30
0.0
  3
*D10
  1

  0
LINE
  5
3E02
330
335E
100
AcDbEntity
  8
0
370
    15
100
AcDbLine
 10
-4301.21255610082
 20
2144.228761566742
 30
0.0
 11
-4301.21255610082
 21
2148.228761566742
 31
0.0
  0
LINE
  5
3E03
330
335E
100
AcDbEntity
  8
0
370
    15
100
AcDbLine
 10
-4230.212556100823
 20
2144.228761566742
 30
0.0
 11
-4230.212556100823
 21
2148.228761566742
 31
0.0
  0
LINE
  5
3E04
330
335E
100
AcDbEntity
  8
0
370
    -2
100
AcDbLine
 10
-4296.212556100821
 20
2146.228761566742
 30
0.0
 11
-4278.64229689209
 21
2146.228761566742
 31
0.0
  0
LINE
  5
3E05
330
335E
100
AcDbEntity
  8
0
370
    -2
100
AcDbLine
 10
-4235.212556100822
 20
2146.228761566742
 30
0.0
 11
-4252.782815309553
 21
2146.228761566742
 31
0.0
  0
SOLID
  5
3E06
330
335E
100
AcDbEntity
  8
0
100
AcDbTrace
 10
-4296.212556100821
 20
2147.062094900075
 30
0.0
 11
-4296.212556100821
 21
2145.395428233408
 31
0.0
 12
-4301.21255610082
 22
2146.228761566742
 32
0.0
 13
-4301.21255610082
 23
2146.228761566742
 33
0.0
  0
SOLID
  5
3E07
330
335E
100
AcDbEntity
  8
0
100
AcDbTrace
 10
-4235.212556100822
 20
2147.062094900075
 30
0.0
 11
-4235.212556100822
 21
2145.395428233408
 31
0.0
 12
-4230.212556100823
 22
2146.228761566742
 32
0.0
 13
-4230.212556100823
 23
2146.228761566742
 33
0.0
  0
MTEXT
  5
3E08
330
335E
100
AcDbEntity
  8
0
 62
     0
100
AcDbMText
 10
-4265.712556100822
 20
2146.228761566742
 30
0.0
 40
10.0
 41
0.0
 71
     5
 72
     1
  1
\A2;71.0
  7
ARIAL
 73
     1
 44
1.0
1001
ACAD
1000
MTEXTBEGIN
1070
    73
1070
     1
1070
    44
1040
1.0
1070
    74
1070
     0
1000
MTEXTEND
  0
POINT
  5
3E09
330
335E
100
AcDbEntity
  8
Defpoints
 62
     0
100
AcDbPoint
 10
-4301.21255610082
 20
2117.781086936407
 30
0.0
  0
POINT
  5
3E0A
330
335E
100
AcDbEntity
  8
Defpoints
 62
     0
100
AcDbPoint
 10
-4230.212556100823
 20
2117.781086936407
 30
0.0
  0
POINT
  5
3E0B
330
335E
100
AcDbEntity
  8
Defpoints
 62
     0
100
AcDbPoint
 10
-4230.212556100823
 20
2146.228761566742
 30
0.0
  0
ENDBLK
  5
3360
330
335E
100
AcDbEntity
  8
0
100
AcDbBlockEnd
  0
BLOCK
  5
3379
330
3378
100
AcDbEntity
  8
0
100
AcDbBlockBegin
  2
*D11
 70
     1
 10
0.0
 20
0.0
 30
0.0
  3
*D11
  1

  0
LINE
  5
3E0C
330
3378
100
AcDbEntity
  8
0
370
    15
100
AcDbLine
 10
-4396.76275030527
 20
2269.781086936408
 30
0.0
 11
-4392.762750305268
 21
2269.781086936408
 31
0.0
  0
LINE
  5
3E0D
330
3378
100
AcDbEntity
  8
0
370
    15
100
AcDbLine
 10
-4396.76275030527
 20
2119.781086936408
 30
0.0
 11
-4392.762750305268
 21
2119.781086936408
 31
0.0
  0
LINE
  5
3E0E
330
3378
100
AcDbEntity
  8
0
370
    -2
100
AcDbLine
 10
-4394.76275030527
 20
2264.781086936408
 30
0.0
 11
-4394.76275030527
 21
2211.16580726383
 31
0.0
  0
LINE
  5
3E0F
330
3378
100
AcDbEntity
  8
0
370
    -2
100
AcDbLine
 10
-4394.76275030527
 20
2124.781086936408
 30
0.0
 11
-4394.76275030527
 21
2178.396366608986
 31
0.0
  0
SOLID
  5
3E10
330
3378
100
AcDbEntity
  8
0
100
AcDbTrace
 10
-4395.596083638603
 20
2264.781086936408
 30
0.0
 11
-4393.929416971936
 21
2264.781086936408
 31
0.0
 12
-4394.76275030527
 22
2269.781086936408
 32
0.0
 13
-4394.76275030527
 23
2269.781086936408
 33
0.0
  0
SOLID
  5
3E11
330
3378
100
AcDbEntity
  8
0
100
AcDbTrace
 10
-4395.596083638603
 20
2124.781086936408
 30
0.0
 11
-4393.929416971936
 21
2124.781086936408
 31
0.0
 12
-4394.76275030527
 22
2119.781086936408
 32
0.0
 13
-4394.76275030527
 23
2119.781086936408
 33
0.0
  0
MTEXT
  5
3E12
330
3378
100
AcDbEntity
  8
0
 62
     0
100
AcDbMText
 10
-4394.762750305266
 20
2194.781086936409
 30
0.0
 40
10.0
 41
0.0
 71
     5
 72
     1
  1
\A2;150.0
  7
ARIAL
 11
0.0000000000000001
 21
1.0
 31
0.0
 73
     1
 44
1.0
1001
ACAD
1000
MTEXTBEGIN
1070
    73
1070
     1
1070
    44
1040
1.0
1070
    74
1070
     0
1000
MTEXTEND
  0
POINT
  5
3E13
330
3378
100
AcDbEntity
  8
Defpoints
 62
     0
100
AcDbPoint
 10
-4442.833156194386
 20
2269.781086936408
 30
0.0
  0
POINT
  5
3E14
330
3378
100
AcDbEntity
  8
Defpoints
 62
     0
100
AcDbPoint
 10
-4442.833156194386
 20
2119.781086936408
 30
0.0
  0
POINT
  5
3E15
330
3378
100
AcDbEntity
  8
Defpoints
 62
     0
100
AcDbPoint
 10
-4394.76275030527
 20
2119.781086936408
 30
0.0
  0
ENDBLK
  5
337A
330
3378
100
AcDbEntity
  8
0
100
AcDbBlockEnd
  0
BLOCK
  5
3393
330
3392
100
AcDbEntity
  8
0
100
AcDbBlockBegin
  2
*D12
 70
     1
 10
0.0
 20
0.0
 30
0.0
  3
*D12
  1

  0
LINE
  5
3E16
330
3392
100
AcDbEntity
  8
0
370
    15
100
AcDbLine
 10
-4592.446542490693
 20
2269.781086936408
 30
0.0
 11
-4596.446542490694
 21
2269.781086936408
 31
0.0
  0
LINE
  5
3E17
330
3392
100
AcDbEntity
  8
0
370
    15
100
AcDbLine
 10
-4592.446542490693
 20
1519.781086936406
 30
0.0
 11
-4596.446542490693
 21
1519.781086936406
 31
0.0
  0
LINE
  5
3E18
330
3392
100
AcDbEntity
  8
0
370
    -2
100
AcDbLine
 10
-4594.446542490692
 20
2264.781086936408
 30
0.0
 11
-4594.446542490692
 21
1911.595548055097
 31
0.0
  0
LINE
  5
3E19
330
3392
100
AcDbEntity
  8
0
370
    -2
100
AcDbLine
 10
-4594.446542490692
 20
1524.781086936406
 30
0.0
 11
-4594.446542490692
 21
1877.966625817717
 31
0.0
  0
SOLID
  5
3E1A
330
3392
100
AcDbEntity
  8
0
100
AcDbTrace
 10
-4595.279875824027
 20
2264.781086936408
 30
0.0
 11
-4593.613209157361
 21
2264.781086936408
 31
0.0
 12
-4594.446542490692
 22
2269.781086936408
 32
0.0
 13
-4594.446542490692
 23
2269.781086936408
 33
0.0
  0
SOLID
  5
3E1B
330
3392
100
AcDbEntity
  8
0
100
AcDbTrace
 10
-4595.279875824026
 20
1524.781086936406
 30
0.0
 11
-4593.61320915736
 21
1524.781086936406
 31
0.0
 12
-4594.446542490692
 22
1519.781086936406
 32
0.0
 13
-4594.446542490692
 23
1519.781086936406
 33
0.0
  0
MTEXT
  5
3E1C
330
3392
100
AcDbEntity
  8
0
 62
     0
100
AcDbMText
 10
-4594.446542490692
 20
1894.781086936408
 30
0.0
 40
10.0
 41
0.0
 71
     5
 72
     1
  1
\A2;750.0
  7
ARIAL
 11
0.0000000000000001
 21
1.0
 31
0.0
 73
     1
 44
1.0
1001
ACAD
1000
MTEXTBEGIN
1070
    73
1070
     1
1070
    44
1040
1.0
1070
    74
1070
     0
1000
MTEXTEND
  0
POINT
  5
3E1D
330
3392
100
AcDbEntity
  8
Defpoints
 62
     0
100
AcDbPoint
 10
-4517.833156194386
 20
2269.781086936408
 30
0.0
  0
POINT
  5
3E1E
330
3392
100
AcDbEntity
  8
Defpoints
 62
     0
100
AcDbPoint
 10
-4483.333156194387
 20
1519.781086936406
 30
0.0
  0
POINT
  5
3E1F
330
3392
100
AcDbEntity
  8
Defpoints
 62
     0
100
AcDbPoint
 10
-4594.446542490692
 20
1519.781086936406
 30
0.0
  0
ENDBLK
  5
3394
330
3392
100
AcDbEntity
  8
0
100
AcDbBlockEnd
  0
BLOCK
  5
33B5
330
33B4
100
AcDbEntity
  8
0
100
AcDbBlockBegin
  2
*D13
 70
     1
 10
0.0
 20
0.0
 30
0.0
  3
*D13
  1

  0
LINE
  5
3403
330
33B4
100
AcDbEntity
  8
0
370
    15
100
AcDbLine
 10
-4050.462748147827
 20
2303.678530634346
 30
0.0
 11
-4050.462748147827
 21
2307.678530634346
 31
0.0
  0
LINE
  5
3404
330
33B4
100
AcDbEntity
  8
0
370
    15
100
AcDbLine
 10
-3965.462748147827
 20
2303.678530634346
 30
0.0
 11
-3965.462748147827
 21
2307.678530634346
 31
0.0
  0
LINE
  5
3405
330
33B4
100
AcDbEntity
  8
0
370
    -2
100
AcDbLine
 10
-4045.462748147827
 20
2305.678530634347
 30
0.0
 11
-4020.940237915904
 21
2305.678530634347
 31
0.0
  0
LINE
  5
3406
330
33B4
100
AcDbEntity
  8
0
370
    -2
100
AcDbLine
 10
-3970.462748147827
 20
2305.678530634347
 30
0.0
 11
-3994.985258379751
 21
2305.678530634347
 31
0.0
  0
SOLID
  5
3407
330
33B4
100
AcDbEntity
  8
0
100
AcDbTrace
 10
-4045.462748147827
 20
2306.51186396768
 30
0.0
 11
-4045.462748147827
 21
2304.845197301013
 31
0.0
 12
-4050.462748147827
 22
2305.678530634347
 32
0.0
 13
-4050.462748147827
 23
2305.678530634347
 33
0.0
  0
SOLID
  5
3408
330
33B4
100
AcDbEntity
  8
0
100
AcDbTrace
 10
-3970.462748147827
 20
2306.51186396768
 30
0.0
 11
-3970.462748147827
 21
2304.845197301013
 31
0.0
 12
-3965.462748147827
 22
2305.678530634347
 32
0.0
 13
-3965.462748147827
 23
2305.678530634347
 33
0.0
  0
MTEXT
  5
3409
330
33B4
100
AcDbEntity
  8
0
 62
     0
100
AcDbMText
 10
-4007.962748147828
 20
2305.678530634347
 30
0.0
 40
10.0
 41
0.0
 71
     5
 72
     1
  1
\A2;85.0
  7
ARIAL
 73
     1
 44
1.0
1001
ACAD
1000
MTEXTBEGIN
1070
    73
1070
     1
1070
    44
1040
1.0
1070
    74
1070
     0
1000
MTEXTEND
  0
POINT
  5
340A
330
33B4
100
AcDbEntity
  8
Defpoints
 62
     0
100
AcDbPoint
 10
-4050.462748147827
 20
2269.781086936407
 30
0.0
  0
POINT
  5
340B
330
33B4
100
AcDbEntity
  8
Defpoints
 62
     0
100
AcDbPoint
 10
-3965.462748147827
 20
2269.781086936407
 30
0.0
  0
POINT
  5
340C
330
33B4
100
AcDbEntity
  8
Defpoints
 62
     0
100
AcDbPoint
 10
-3965.462748147827
 20
2305.678530634347
 30
0.0
  0
ENDBLK
  5
33B6
330
33B4
100
AcDbEntity
  8
0
100
AcDbBlockEnd
  0
BLOCK
  5
33C2
330
33C1
100
AcDbEntity
  8
0
100
AcDbBlockBegin
  2
*D14
 70
     1
 10
0.0
 20
0.0
 30
0.0
  3
*D14
  1

  0
LINE
  5
33DB
330
33C1
100
AcDbEntity
  8
0
370
    15
100
AcDbLine
 10
-3924.392342258715
 20
2269.781086936408
 30
0.0
 11
-3920.392342258714
 21
2269.781086936408
 31
0.0
  0
LINE
  5
33DC
330
33C1
100
AcDbEntity
  8
0
370
    15
100
AcDbLine
 10
-3924.392342258715
 20
2119.781086936407
 30
0.0
 11
-3920.392342258714
 21
2119.781086936407
 31
0.0
  0
LINE
  5
33DD
330
33C1
100
AcDbEntity
  8
0
370
    -2
100
AcDbLine
 10
-3922.392342258714
 20
2264.781086936408
 30
0.0
 11
-3922.392342258714
 21
2211.165807263829
 31
0.0
  0
LINE
  5
33DE
330
33C1
100
AcDbEntity
  8
0
370
    -2
100
AcDbLine
 10
-3922.392342258714
 20
2124.781086936408
 30
0.0
 11
-3922.392342258714
 21
2178.396366608986
 31
0.0
  0
SOLID
  5
33DF
330
33C1
100
AcDbEntity
  8
0
100
AcDbTrace
 10
-3923.225675592048
 20
2264.781086936408
 30
0.0
 11
-3921.559008925381
 21
2264.781086936408
 31
0.0
 12
-3922.392342258714
 22
2269.781086936408
 32
0.0
 13
-3922.392342258714
 23
2269.781086936408
 33
0.0
  0
SOLID
  5
33E0
330
33C1
100
AcDbEntity
  8
0
100
AcDbTrace
 10
-3923.225675592048
 20
2124.781086936408
 30
0.0
 11
-3921.559008925381
 21
2124.781086936408
 31
0.0
 12
-3922.392342258714
 22
2119.781086936407
 32
0.0
 13
-3922.392342258714
 23
2119.781086936407
 33
0.0
  0
MTEXT
  5
33E1
330
33C1
100
AcDbEntity
  8
0
 62
     0
100
AcDbMText
 10
-3922.392342258713
 20
2194.781086936409
 30
0.0
 40
10.0
 41
0.0
 71
     5
 72
     1
  1
\A2;150.0
  7
ARIAL
 11
0.0000000000000001
 21
1.0
 31
0.0
 73
     1
 44
1.0
1001
ACAD
1000
MTEXTBEGIN
1070
    73
1070
     1
1070
    44
1040
1.0
1070
    74
1070
     0
1000
MTEXTEND
  0
POINT
  5
33E2
330
33C1
100
AcDbEntity
  8
Defpoints
 62
     0
100
AcDbPoint
 10
-3970.462748147829
 20
2269.781086936408
 30
0.0
  0
POINT
  5
33E3
330
33C1
100
AcDbEntity
  8
Defpoints
 62
     0
100
AcDbPoint
 10
-3970.462748147829
 20
2119.781086936407
 30
0.0
  0
POINT
  5
33E4
330
33C1
100
AcDbEntity
  8
Defpoints
 62
     0
100
AcDbPoint
 10
-3922.392342258714
 20
2119.781086936407
 30
0.0
  0
ENDBLK
  5
33C3
330
33C1
100
AcDbEntity
  8
0
100
AcDbBlockEnd
  0
BLOCK
  5
33CF
330
33CE
100
AcDbEntity
  8
0
100
AcDbBlockBegin
  2
*D15
 70
     1
 10
0.0
 20
0.0
 30
0.0
  3
*D15
  1

  0
LINE
  5
33E5
330
33CE
100
AcDbEntity
  8
0
370
    15
100
AcDbLine
 10
-4120.076134444135
 20
2269.781086936408
 30
0.0
 11
-4124.076134444135
 21
2269.781086936408
 31
0.0
  0
LINE
  5
33E6
330
33CE
100
AcDbEntity
  8
0
370
    15
100
AcDbLine
 10
-4120.076134444135
 20
1519.781086936407
 30
0.0
 11
-4124.076134444133
 21
1519.781086936407
 31
0.0
  0
LINE
  5
33E7
330
33CE
100
AcDbEntity
  8
0
370
    -2
100
AcDbLine
 10
-4122.076134444135
 20
2264.781086936408
 30
0.0
 11
-4122.076134444133
 21
1911.595548055098
 31
0.0
  0
LINE
  5
33E8
330
33CE
100
AcDbEntity
  8
0
370
    -2
100
AcDbLine
 10
-4122.076134444133
 20
1524.781086936407
 30
0.0
 11
-4122.076134444133
 21
1877.966625817717
 31
0.0
  0
SOLID
  5
33E9
330
33CE
100
AcDbEntity
  8
0
100
AcDbTrace
 10
-4122.909467777468
 20
2264.781086936408
 30
0.0
 11
-4121.242801110802
 21
2264.781086936408
 31
0.0
 12
-4122.076134444135
 22
2269.781086936408
 32
0.0
 13
-4122.076134444135
 23
2269.781086936408
 33
0.0
  0
SOLID
  5
33EA
330
33CE
100
AcDbEntity
  8
0
100
AcDbTrace
 10
-4122.909467777467
 20
1524.781086936407
 30
0.0
 11
-4121.242801110802
 21
1524.781086936407
 31
0.0
 12
-4122.076134444133
 22
1519.781086936407
 32
0.0
 13
-4122.076134444133
 23
1519.781086936407
 33
0.0
  0
MTEXT
  5
33EB
330
33CE
100
AcDbEntity
  8
0
 62
     0
100
AcDbMText
 10
-4122.076134444133
 20
1894.781086936408
 30
0.0
 40
10.0
 41
0.0
 71
     5
 72
     1
  1
\A2;750.0
  7
ARIAL
 11
0.0000000000000001
 21
1.0
 31
0.0
 73
     1
 44
1.0
1001
ACAD
1000
MTEXTBEGIN
1070
    73
1070
     1
1070
    44
1040
1.0
1070
    74
1070
     0
1000
MTEXTEND
  0
POINT
  5
33EC
330
33CE
100
AcDbEntity
  8
Defpoints
 62
     0
100
AcDbPoint
 10
-4045.462748147829
 20
2269.781086936408
 30
0.0
  0
POINT
  5
33ED
330
33CE
100
AcDbEntity
  8
Defpoints
 62
     0
100
AcDbPoint
 10
-4010.962748147829
 20
1519.781086936407
 30
0.0
  0
POINT
  5
33EE
330
33CE
100
AcDbEntity
  8
Defpoints
 62
     0
100
AcDbPoint
 10
-4122.076134444133
 20
1519.781086936407
 30
0.0
  0
ENDBLK
  5
33D0
330
33CE
100
AcDbEntity
  8
0
100
AcDbBlockEnd
  0
BLOCK
  5
3425
330
3424
100
AcDbEntity
  8
0
100
AcDbBlockBegin
  2
*D16
 70
     1
 10
0.0
 20
0.0
 30
0.0
  3
*D16
  1

  0
LINE
  5
3F67
330
3424
100
AcDbEntity
  8
0
370
    15
100
AcDbLine
 10
-8316.175304248131
 20
4385.959617570493
 30
0.0
 11
-8316.175304248131
 21
4389.959617570492
 31
0.0
  0
LINE
  5
3F68
330
3424
100
AcDbEntity
  8
0
370
    15
100
AcDbLine
 10
-8231.175304248132
 20
4385.959617570493
 30
0.0
 11
-8231.175304248132
 21
4389.959617570492
 31
0.0
  0
LINE
  5
3F69
330
3424
100
AcDbEntity
  8
0
370
    -2
100
AcDbLine
 10
-8311.175304248131
 20
4387.959617570492
 30
0.0
 11
-8286.652794016209
 21
4387.959617570492
 31
0.0
  0
LINE
  5
3F6A
330
3424
100
AcDbEntity
  8
0
370
    -2
100
AcDbLine
 10
-8236.175304248133
 20
4387.959617570492
 30
0.0
 11
-8260.697814480057
 21
4387.959617570492
 31
0.0
  0
SOLID
  5
3F6B
330
3424
100
AcDbEntity
  8
0
100
AcDbTrace
 10
-8311.175304248131
 20
4388.792950903826
 30
0.0
 11
-8311.175304248131
 21
4387.12628423716
 31
0.0
 12
-8316.175304248131
 22
4387.959617570492
 32
0.0
 13
-8316.175304248131
 23
4387.959617570492
 33
0.0
  0
SOLID
  5
3F6C
330
3424
100
AcDbEntity
  8
0
100
AcDbTrace
 10
-8236.175304248133
 20
4388.792950903826
 30
0.0
 11
-8236.175304248133
 21
4387.12628423716
 31
0.0
 12
-8231.175304248132
 22
4387.959617570492
 32
0.0
 13
-8231.175304248132
 23
4387.959617570492
 33
0.0
  0
MTEXT
  5
3F6D
330
3424
100
AcDbEntity
  8
0
 62
     0
100
AcDbMText
 10
-8273.675304248133
 20
4387.959617570492
 30
0.0
 40
10.0
 41
0.0
 71
     5
 72
     1
  1
\A2;85.0
  7
ARIAL
 73
     1
 44
1.0
1001
ACAD
1000
MTEXTBEGIN
1070
    73
1070
     1
1070
    44
1040
1.0
1070
    74
1070
     0
1000
MTEXTEND
  0
POINT
  5
3F6E
330
3424
100
AcDbEntity
  8
Defpoints
 62
     0
100
AcDbPoint
 10
-8316.175304248131
 20
4352.062173872555
 30
0.0
  0
POINT
  5
3F6F
330
3424
100
AcDbEntity
  8
Defpoints
 62
     0
100
AcDbPoint
 10
-8231.175304248132
 20
4352.062173872555
 30
0.0
  0
POINT
  5
3F70
330
3424
100
AcDbEntity
  8
Defpoints
 62
     0
100
AcDbPoint
 10
-8231.175304248132
 20
4387.959617570492
 30
0.0
  0
ENDBLK
  5
3426
330
3424
100
AcDbEntity
  8
0
100
AcDbBlockEnd
  0
BLOCK
  5
3432
330
3431
100
AcDbEntity
  8
0
100
AcDbBlockBegin
  2
*D17
 70
     1
 10
0.0
 20
0.0
 30
0.0
  3
*D17
  1

  0
LINE
  5
3F71
330
3431
100
AcDbEntity
  8
0
370
    15
100
AcDbLine
 10
-8190.104898359038
 20
4352.062173872556
 30
0.0
 11
-8186.104898359038
 21
4352.062173872556
 31
0.0
  0
LINE
  5
3F72
330
3431
100
AcDbEntity
  8
0
370
    15
100
AcDbLine
 10
-8190.104898359038
 20
4202.062173872556
 30
0.0
 11
-8186.104898359038
 21
4202.062173872556
 31
0.0
  0
LINE
  5
3F73
330
3431
100
AcDbEntity
  8
0
370
    -2
100
AcDbLine
 10
-8188.104898359039
 20
4347.062173872557
 30
0.0
 11
-8188.104898359039
 21
4293.446894199979
 31
0.0
  0
LINE
  5
3F74
330
3431
100
AcDbEntity
  8
0
370
    -2
100
AcDbLine
 10
-8188.104898359039
 20
4207.062173872556
 30
0.0
 11
-8188.104898359039
 21
4260.677453545135
 31
0.0
  0
SOLID
  5
3F75
330
3431
100
AcDbEntity
  8
0
100
AcDbTrace
 10
-8188.938231692372
 20
4347.062173872557
 30
0.0
 11
-8187.271565025707
 21
4347.062173872557
 31
0.0
 12
-8188.104898359039
 22
4352.062173872556
 32
0.0
 13
-8188.104898359039
 23
4352.062173872556
 33
0.0
  0
SOLID
  5
3F76
330
3431
100
AcDbEntity
  8
0
100
AcDbTrace
 10
-8188.938231692372
 20
4207.062173872556
 30
0.0
 11
-8187.271565025707
 21
4207.062173872556
 31
0.0
 12
-8188.104898359039
 22
4202.062173872556
 32
0.0
 13
-8188.104898359039
 23
4202.062173872556
 33
0.0
  0
MTEXT
  5
3F77
330
3431
100
AcDbEntity
  8
0
 62
     0
100
AcDbMText
 10
-8188.104898359036
 20
4277.062173872558
 30
0.0
 40
10.0
 41
0.0
 71
     5
 72
     1
  1
\A2;150.0
  7
ARIAL
 11
0.0000000000000001
 21
1.0
 31
0.0
 73
     1
 44
1.0
1001
ACAD
1000
MTEXTBEGIN
1070
    73
1070
     1
1070
    44
1040
1.0
1070
    74
1070
     0
1000
MTEXTEND
  0
POINT
  5
3F78
330
3431
100
AcDbEntity
  8
Defpoints
 62
     0
100
AcDbPoint
 10
-8236.175304248138
 20
4352.062173872556
 30
0.0
  0
POINT
  5
3F79
330
3431
100
AcDbEntity
  8
Defpoints
 62
     0
100
AcDbPoint
 10
-8236.175304248138
 20
4202.062173872556
 30
0.0
  0
POINT
  5
3F7A
330
3431
100
AcDbEntity
  8
Defpoints
 62
     0
100
AcDbPoint
 10
-8188.104898359039
 20
4202.062173872556
 30
0.0
  0
ENDBLK
  5
3433
330
3431
100
AcDbEntity
  8
0
100
AcDbBlockEnd
  0
BLOCK
  5
343F
330
343E
100
AcDbEntity
  8
0
100
AcDbBlockBegin
  2
*D18
 70
     1
 10
0.0
 20
0.0
 30
0.0
  3
*D18
  1

  0
LINE
  5
3F7B
330
343E
100
AcDbEntity
  8
0
370
    15
100
AcDbLine
 10
-8385.788690544462
 20
4352.062173872556
 30
0.0
 11
-8389.788690544461
 21
4352.062173872556
 31
0.0
  0
LINE
  5
3F7C
330
343E
100
AcDbEntity
  8
0
370
    15
100
AcDbLine
 10
-8385.78869054446
 20
3602.062173872559
 30
0.0
 11
-8389.78869054446
 21
3602.062173872559
 31
0.0
  0
LINE
  5
3F7D
330
343E
100
AcDbEntity
  8
0
370
    -2
100
AcDbLine
 10
-8387.788690544461
 20
4347.062173872557
 30
0.0
 11
-8387.788690544459
 21
3993.876634991249
 31
0.0
  0
LINE
  5
3F7E
330
343E
100
AcDbEntity
  8
0
370
    -2
100
AcDbLine
 10
-8387.788690544459
 20
3607.062173872559
 30
0.0
 11
-8387.788690544459
 21
3960.247712753868
 31
0.0
  0
SOLID
  5
3F7F
330
343E
100
AcDbEntity
  8
0
100
AcDbTrace
 10
-8388.622023877795
 20
4347.062173872557
 30
0.0
 11
-8386.955357211126
 21
4347.062173872557
 31
0.0
 12
-8387.788690544461
 22
4352.062173872556
 32
0.0
 13
-8387.788690544461
 23
4352.062173872556
 33
0.0
  0
SOLID
  5
3F80
330
343E
100
AcDbEntity
  8
0
100
AcDbTrace
 10
-8388.622023877793
 20
3607.062173872559
 30
0.0
 11
-8386.955357211126
 21
3607.062173872559
 31
0.0
 12
-8387.788690544459
 22
3602.062173872559
 32
0.0
 13
-8387.788690544459
 23
3602.062173872559
 33
0.0
  0
MTEXT
  5
3F81
330
343E
100
AcDbEntity
  8
0
 62
     0
100
AcDbMText
 10
-8387.788690544459
 20
3977.062173872559
 30
0.0
 40
10.0
 41
0.0
 71
     5
 72
     1
  1
\A2;750.0
  7
ARIAL
 11
0.0000000000000001
 21
1.0
 31
0.0
 73
     1
 44
1.0
1001
ACAD
1000
MTEXTBEGIN
1070
    73
1070
     1
1070
    44
1040
1.0
1070
    74
1070
     0
1000
MTEXTEND
  0
POINT
  5
3F82
330
343E
100
AcDbEntity
  8
Defpoints
 62
     0
100
AcDbPoint
 10
-8311.175304248136
 20
4352.062173872556
 30
0.0
  0
POINT
  5
3F83
330
343E
100
AcDbEntity
  8
Defpoints
 62
     0
100
AcDbPoint
 10
-8276.675304248138
 20
3602.062173872559
 30
0.0
  0
POINT
  5
3F84
330
343E
100
AcDbEntity
  8
Defpoints
 62
     0
100
AcDbPoint
 10
-8387.788690544459
 20
3602.062173872559
 30
0.0
  0
ENDBLK
  5
3440
330
343E
100
AcDbEntity
  8
0
100
AcDbBlockEnd
  0
BLOCK
  5
344C
330
344B
100
AcDbEntity
  8
0
100
AcDbBlockBegin
  2
*D19
 70
     1
 10
0.0
 20
0.0
 30
0.0
  3
*D19
  1

  0
LINE
  5
3F5D
330
344B
100
AcDbEntity
  8
0
370
    15
100
AcDbLine
 10
-8124.920653681625
 20
4226.88984850289
 30
0.0
 11
-8124.920653681625
 21
4230.88984850289
 31
0.0
  0
LINE
  5
3F5E
330
344B
100
AcDbEntity
  8
0
370
    15
100
AcDbLine
 10
-8043.920653681627
 20
4226.88984850289
 30
0.0
 11
-8043.920653681627
 21
4230.88984850289
 31
0.0
  0
LINE
  5
3F5F
330
344B
100
AcDbEntity
  8
0
370
    -2
100
AcDbLine
 10
-8119.920653681624
 20
4228.88984850289
 30
0.0
 11
-8097.398143449701
 21
4228.88984850289
 31
0.0
  0
LINE
  5
3F60
330
344B
100
AcDbEntity
  8
0
370
    -2
100
AcDbLine
 10
-8048.920653681626
 20
4228.88984850289
 30
0.0
 11
-8071.443163913549
 21
4228.88984850289
 31
0.0
  0
SOLID
  5
3F61
330
344B
100
AcDbEntity
  8
0
100
AcDbTrace
 10
-8119.920653681624
 20
4229.723181836223
 30
0.0
 11
-8119.920653681624
 21
4228.056515169558
 31
0.0
 12
-8124.920653681625
 22
4228.88984850289
 32
0.0
 13
-8124.920653681625
 23
4228.88984850289
 33
0.0
  0
SOLID
  5
3F62
330
344B
100
AcDbEntity
  8
0
100
AcDbTrace
 10
-8048.920653681626
 20
4229.723181836223
 30
0.0
 11
-8048.920653681626
 21
4228.056515169558
 31
0.0
 12
-8043.920653681627
 22
4228.88984850289
 32
0.0
 13
-8043.920653681627
 23
4228.88984850289
 33
0.0
  0
MTEXT
  5
3F63
330
344B
100
AcDbEntity
  8
0
 62
     0
100
AcDbMText
 10
-8084.420653681625
 20
4228.88984850289
 30
0.0
 40
10.0
 41
0.0
 71
     5
 72
     1
  1
\A2;81.0
  7
ARIAL
 73
     1
 44
1.0
1001
ACAD
1000
MTEXTBEGIN
1070
    73
1070
     1
1070
    44
1040
1.0
1070
    74
1070
     0
1000
MTEXTEND
  0
POINT
  5
3F64
330
344B
100
AcDbEntity
  8
Defpoints
 62
     0
100
AcDbPoint
 10
-8124.920653681625
 20
4205.062173872572
 30
0.0
  0
POINT
  5
3F65
330
344B
100
AcDbEntity
  8
Defpoints
 62
     0
100
AcDbPoint
 10
-8043.920653681627
 20
4205.062173872572
 30
0.0
  0
POINT
  5
3F66
330
344B
100
AcDbEntity
  8
Defpoints
 62
     0
100
AcDbPoint
 10
-8043.920653681627
 20
4228.88984850289
 30
0.0
  0
ENDBLK
  5
344D
330
344B
100
AcDbEntity
  8
0
100
AcDbBlockEnd
  0
BLOCK
  5
3498
330
3497
100
AcDbEntity
  8
0
100
AcDbBlockBegin
  2
*D20
 70
     1
 10
0.0
 20
0.0
 30
0.0
  3
*D20
  1

  0
LINE
  5
3E48
330
3497
100
AcDbEntity
  8
0
370
    15
100
AcDbLine
 10
-4055.462748147827
 20
2303.678530634346
 30
0.0
 11
-4055.462748147827
 21
2307.678530634346
 31
0.0
  0
LINE
  5
3E49
330
3497
100
AcDbEntity
  8
0
370
    15
100
AcDbLine
 10
-3960.462748147828
 20
2303.678530634346
 30
0.0
 11
-3960.462748147828
 21
2307.678530634346
 31
0.0
  0
LINE
  5
3E4A
330
3497
100
AcDbEntity
  8
0
370
    -2
100
AcDbLine
 10
-4050.462748147827
 20
2305.678530634346
 30
0.0
 11
-4020.933416633503
 21
2305.678530634346
 31
0.0
  0
LINE
  5
3E4B
330
3497
100
AcDbEntity
  8
0
370
    -2
100
AcDbLine
 10
-3965.462748147828
 20
2305.678530634346
 30
0.0
 11
-3994.992079662153
 21
2305.678530634346
 31
0.0
  0
SOLID
  5
3E4C
330
3497
100
AcDbEntity
  8
0
100
AcDbTrace
 10
-4050.462748147827
 20
2306.51186396768
 30
0.0
 11
-4050.462748147827
 21
2304.845197301013
 31
0.0
 12
-4055.462748147827
 22
2305.678530634346
 32
0.0
 13
-4055.462748147827
 23
2305.678530634346
 33
0.0
  0
SOLID
  5
3E4D
330
3497
100
AcDbEntity
  8
0
100
AcDbTrace
 10
-3965.462748147828
 20
2306.51186396768
 30
0.0
 11
-3965.462748147828
 21
2304.845197301013
 31
0.0
 12
-3960.462748147828
 22
2305.678530634346
 32
0.0
 13
-3960.462748147828
 23
2305.678530634346
 33
0.0
  0
MTEXT
  5
3E4E
330
3497
100
AcDbEntity
  8
0
 62
     0
100
AcDbMText
 10
-4007.962748147828
 20
2305.678530634346
 30
0.0
 40
10.0
 41
0.0
 71
     5
 72
     1
  1
\A2;95.0
  7
ARIAL
 73
     1
 44
1.0
1001
ACAD
1000
MTEXTBEGIN
1070
    73
1070
     1
1070
    44
1040
1.0
1070
    74
1070
     0
1000
MTEXTEND
  0
POINT
  5
3E4F
330
3497
100
AcDbEntity
  8
Defpoints
 62
     0
100
AcDbPoint
 10
-4055.462748147827
 20
2269.781086936407
 30
0.0
  0
POINT
  5
3E50
330
3497
100
AcDbEntity
  8
Defpoints
 62
     0
100
AcDbPoint
 10
-3960.462748147828
 20
2269.781086936406
 30
0.0
  0
POINT
  5
3E51
330
3497
100
AcDbEntity
  8
Defpoints
 62
     0
100
AcDbPoint
 10
-3960.462748147828
 20
2305.678530634346
 30
0.0
  0
ENDBLK
  5
3499
330
3497
100
AcDbEntity
  8
0
100
AcDbBlockEnd
  0
BLOCK
  5
34A5
330
34A4
100
AcDbEntity
  8
0
100
AcDbBlockBegin
  2
*D21
 70
     1
 10
0.0
 20
0.0
 30
0.0
  3
*D21
  1

  0
LINE
  5
3E52
330
34A4
100
AcDbEntity
  8
0
370
    15
100
AcDbLine
 10
-3919.392342258729
 20
2269.781086936407
 30
0.0
 11
-3915.392342258729
 21
2269.781086936407
 31
0.0
  0
LINE
  5
3E53
330
34A4
100
AcDbEntity
  8
0
370
    15
100
AcDbLine
 10
-3919.392342258729
 20
2119.781086936407
 30
0.0
 11
-3915.392342258729
 21
2119.781086936407
 31
0.0
  0
LINE
  5
3E54
330
34A4
100
AcDbEntity
  8
0
370
    -2
100
AcDbLine
 10
-3917.392342258729
 20
2264.781086936407
 30
0.0
 11
-3917.392342258729
 21
2211.165807263829
 31
0.0
  0
LINE
  5
3E55
330
34A4
100
AcDbEntity
  8
0
370
    -2
100
AcDbLine
 10
-3917.392342258729
 20
2124.781086936407
 30
0.0
 11
-3917.392342258729
 21
2178.396366608986
 31
0.0
  0
SOLID
  5
3E56
330
34A4
100
AcDbEntity
  8
0
100
AcDbTrace
 10
-3918.225675592062
 20
2264.781086936407
 30
0.0
 11
-3916.559008925395
 21
2264.781086936407
 31
0.0
 12
-3917.392342258729
 22
2269.781086936407
 32
0.0
 13
-3917.392342258729
 23
2269.781086936407
 33
0.0
  0
SOLID
  5
3E57
330
34A4
100
AcDbEntity
  8
0
100
AcDbTrace
 10
-3918.225675592062
 20
2124.781086936407
 30
0.0
 11
-3916.559008925395
 21
2124.781086936407
 31
0.0
 12
-3917.392342258729
 22
2119.781086936407
 32
0.0
 13
-3917.392342258729
 23
2119.781086936407
 33
0.0
  0
MTEXT
  5
3E58
330
34A4
100
AcDbEntity
  8
0
 62
     0
100
AcDbMText
 10
-3917.392342258727
 20
2194.781086936408
 30
0.0
 40
10.0
 41
0.0
 71
     5
 72
     1
  1
\A2;150.0
  7
ARIAL
 11
0.0000000000000001
 21
1.0
 31
0.0
 73
     1
 44
1.0
1001
ACAD
1000
MTEXTBEGIN
1070
    73
1070
     1
1070
    44
1040
1.0
1070
    74
1070
     0
1000
MTEXTEND
  0
POINT
  5
3E59
330
34A4
100
AcDbEntity
  8
Defpoints
 62
     0
100
AcDbPoint
 10
-3960.462748147829
 20
2269.781086936407
 30
0.0
  0
POINT
  5
3E5A
330
34A4
100
AcDbEntity
  8
Defpoints
 62
     0
100
AcDbPoint
 10
-3960.462748147829
 20
2119.781086936407
 30
0.0
  0
POINT
  5
3E5B
330
34A4
100
AcDbEntity
  8
Defpoints
 62
     0
100
AcDbPoint
 10
-3917.392342258729
 20
2119.781086936407
 30
0.0
  0
ENDBLK
  5
34A6
330
34A4
100
AcDbEntity
  8
0
100
AcDbBlockEnd
  0
BLOCK
  5
34B2
330
34B1
100
AcDbEntity
  8
0
100
AcDbBlockBegin
  2
*D22
 70
     1
 10
0.0
 20
0.0
 30
0.0
  3
*D22
  1

  0
LINE
  5
3E5C
330
34B1
100
AcDbEntity
  8
0
370
    15
100
AcDbLine
 10
-4120.076134444146
 20
2269.781086936408
 30
0.0
 11
-4124.076134444146
 21
2269.781086936408
 31
0.0
  0
LINE
  5
3E5D
330
34B1
100
AcDbEntity
  8
0
370
    15
100
AcDbLine
 10
-4120.076134444145
 20
1519.781086936406
 30
0.0
 11
-4124.076134444145
 21
1519.781086936406
 31
0.0
  0
LINE
  5
3E5E
330
34B1
100
AcDbEntity
  8
0
370
    -2
100
AcDbLine
 10
-4122.076134444146
 20
2264.781086936408
 30
0.0
 11
-4122.076134444145
 21
1911.595548055097
 31
0.0
  0
LINE
  5
3E5F
330
34B1
100
AcDbEntity
  8
0
370
    -2
100
AcDbLine
 10
-4122.076134444145
 20
1524.781086936406
 30
0.0
 11
-4122.076134444145
 21
1877.966625817717
 31
0.0
  0
SOLID
  5
3E60
330
34B1
100
AcDbEntity
  8
0
100
AcDbTrace
 10
-4122.909467777479
 20
2264.781086936408
 30
0.0
 11
-4121.242801110811
 21
2264.781086936408
 31
0.0
 12
-4122.076134444146
 22
2269.781086936408
 32
0.0
 13
-4122.076134444146
 23
2269.781086936408
 33
0.0
  0
SOLID
  5
3E61
330
34B1
100
AcDbEntity
  8
0
100
AcDbTrace
 10
-4122.909467777478
 20
1524.781086936406
 30
0.0
 11
-4121.242801110811
 21
1524.781086936406
 31
0.0
 12
-4122.076134444145
 22
1519.781086936406
 32
0.0
 13
-4122.076134444145
 23
1519.781086936406
 33
0.0
  0
MTEXT
  5
3E62
330
34B1
100
AcDbEntity
  8
0
 62
     0
100
AcDbMText
 10
-4122.076134444144
 20
1894.781086936408
 30
0.0
 40
10.0
 41
0.0
 71
     5
 72
     1
  1
\A2;750.0
  7
ARIAL
 11
0.0000000000000001
 21
1.0
 31
0.0
 73
     1
 44
1.0
1001
ACAD
1000
MTEXTBEGIN
1070
    73
1070
     1
1070
    44
1040
1.0
1070
    74
1070
     0
1000
MTEXTEND
  0
POINT
  5
3E63
330
34B1
100
AcDbEntity
  8
Defpoints
 62
     0
100
AcDbPoint
 10
-4050.462748147829
 20
2269.781086936408
 30
0.0
  0
POINT
  5
3E64
330
34B1
100
AcDbEntity
  8
Defpoints
 62
     0
100
AcDbPoint
 10
-4010.96274814783
 20
1519.781086936406
 30
0.0
  0
POINT
  5
3E65
330
34B1
100
AcDbEntity
  8
Defpoints
 62
     0
100
AcDbPoint
 10
-4122.076134444145
 20
1519.781086936406
 30
0.0
  0
ENDBLK
  5
34B3
330
34B1
100
AcDbEntity
  8
0
100
AcDbBlockEnd
  0
BLOCK
  5
34BF
330
34BE
100
AcDbEntity
  8
0
100
AcDbBlockBegin
  2
*D23
 70
     1
 10
0.0
 20
0.0
 30
0.0
  3
*D23
  1

  0
LINE
  5
34CB
330
34BE
100
AcDbEntity
  8
0
370
    15
100
AcDbLine
 10
-3412.203639060131
 20
2144.608761565931
 30
0.0
 11
-3412.203639060131
 21
2148.608761565931
 31
0.0
  0
LINE
  5
34CC
330
34BE
100
AcDbEntity
  8
0
370
    15
100
AcDbLine
 10
-3331.203639060131
 20
2144.608761565931
 30
0.0
 11
-3331.203639060131
 21
2148.608761565931
 31
0.0
  0
LINE
  5
34CD
330
34BE
100
AcDbEntity
  8
0
370
    -2
100
AcDbLine
 10
-3407.203639060131
 20
2146.608761565931
 30
0.0
 11
-3384.681128828207
 21
2146.608761565931
 31
0.0
  0
LINE
  5
34CE
330
34BE
100
AcDbEntity
  8
0
370
    -2
100
AcDbLine
 10
-3336.20363906013
 20
2146.608761565931
 30
0.0
 11
-3358.726149292055
 21
2146.608761565931
 31
0.0
  0
SOLID
  5
34CF
330
34BE
100
AcDbEntity
  8
0
100
AcDbTrace
 10
-3407.203639060131
 20
2147.442094899265
 30
0.0
 11
-3407.203639060131
 21
2145.775428232598
 31
0.0
 12
-3412.203639060131
 22
2146.608761565931
 32
0.0
 13
-3412.203639060131
 23
2146.608761565931
 33
0.0
  0
SOLID
  5
34D0
330
34BE
100
AcDbEntity
  8
0
100
AcDbTrace
 10
-3336.20363906013
 20
2147.442094899265
 30
0.0
 11
-3336.20363906013
 21
2145.775428232598
 31
0.0
 12
-3331.203639060131
 22
2146.608761565931
 32
0.0
 13
-3331.203639060131
 23
2146.608761565931
 33
0.0
  0
MTEXT
  5
34D1
330
34BE
100
AcDbEntity
  8
0
 62
     0
100
AcDbMText
 10
-3371.703639060131
 20
2146.608761565931
 30
0.0
 40
10.0
 41
0.0
 71
     5
 72
     1
  1
\A2;81.0
  7
ARIAL
 73
     1
 44
1.0
1001
ACAD
1000
MTEXTBEGIN
1070
    73
1070
     1
1070
    44
1040
1.0
1070
    74
1070
     0
1000
MTEXTEND
  0
POINT
  5
34D2
330
34BE
100
AcDbEntity
  8
Defpoints
 62
     0
100
AcDbPoint
 10
-3412.203639060131
 20
2122.781086935613
 30
0.0
  0
POINT
  5
34D3
330
34BE
100
AcDbEntity
  8
Defpoints
 62
     0
100
AcDbPoint
 10
-3331.203639060131
 20
2122.781086935613
 30
0.0
  0
POINT
  5
34D4
330
34BE
100
AcDbEntity
  8
Defpoints
 62
     0
100
AcDbPoint
 10
-3331.203639060131
 20
2146.608761565931
 30
0.0
  0
ENDBLK
  5
34C0
330
34BE
100
AcDbEntity
  8
0
100
AcDbBlockEnd
  0
BLOCK
  5
3509
330
3508
100
AcDbEntity
  8
0
100
AcDbBlockBegin
  2
*D24
 70
     1
 10
0.0
 20
0.0
 30
0.0
  3
*D24
  1

  0
LINE
  5
3E66
330
3508
100
AcDbEntity
  8
0
370
    15
100
AcDbLine
 10
-3864.208097581519
 20
2149.608761566848
 30
0.0
 11
-3864.208097581519
 21
2153.608761566848
 31
0.0
  0
LINE
  5
3E67
330
3508
100
AcDbEntity
  8
0
370
    15
100
AcDbLine
 10
-3773.20809758152
 20
2149.608761566848
 30
0.0
 11
-3773.20809758152
 21
2153.608761566848
 31
0.0
  0
LINE
  5
3E68
330
3508
100
AcDbEntity
  8
0
370
    -2
100
AcDbLine
 10
-3859.20809758152
 20
2151.608761566848
 30
0.0
 11
-3831.678766067194
 21
2151.608761566848
 31
0.0
  0
LINE
  5
3E69
330
3508
100
AcDbEntity
  8
0
370
    -2
100
AcDbLine
 10
-3778.208097581519
 20
2151.608761566848
 30
0.0
 11
-3805.737429095844
 21
2151.608761566848
 31
0.0
  0
SOLID
  5
3E6A
330
3508
100
AcDbEntity
  8
0
100
AcDbTrace
 10
-3859.20809758152
 20
2152.442094900182
 30
0.0
 11
-3859.20809758152
 21
2150.775428233515
 31
0.0
 12
-3864.208097581519
 22
2151.608761566848
 32
0.0
 13
-3864.208097581519
 23
2151.608761566848
 33
0.0
  0
SOLID
  5
3E6B
330
3508
100
AcDbEntity
  8
0
100
AcDbTrace
 10
-3778.208097581519
 20
2152.442094900182
 30
0.0
 11
-3778.208097581519
 21
2150.775428233515
 31
0.0
 12
-3773.20809758152
 22
2151.608761566848
 32
0.0
 13
-3773.20809758152
 23
2151.608761566848
 33
0.0
  0
MTEXT
  5
3E6C
330
3508
100
AcDbEntity
  8
0
 62
     0
100
AcDbMText
 10
-3818.708097581519
 20
2151.608761566848
 30
0.0
 40
10.0
 41
0.0
 71
     5
 72
     1
  1
\A2;91.0
  7
ARIAL
 73
     1
 44
1.0
1001
ACAD
1000
MTEXTBEGIN
1070
    73
1070
     1
1070
    44
1040
1.0
1070
    74
1070
     0
1000
MTEXTEND
  0
POINT
  5
3E6D
330
3508
100
AcDbEntity
  8
Defpoints
 62
     0
100
AcDbPoint
 10
-3864.208097581519
 20
2127.781086936529
 30
0.0
  0
POINT
  5
3E6E
330
3508
100
AcDbEntity
  8
Defpoints
 62
     0
100
AcDbPoint
 10
-3773.20809758152
 20
2127.781086936529
 30
0.0
  0
POINT
  5
3E6F
330
3508
100
AcDbEntity
  8
Defpoints
 62
     0
100
AcDbPoint
 10
-3773.20809758152
 20
2151.608761566848
 30
0.0
  0
ENDBLK
  5
350A
330
3508
100
AcDbEntity
  8
0
100
AcDbBlockEnd
  0
BLOCK
  5
3536
330
3535
100
AcDbEntity
  8
0
100
AcDbBlockBegin
  2
*D25
 70
     1
 10
0.0
 20
0.0
 30
0.0
  3
*D25
  1

  0
LINE
  5
3543
330
3535
100
AcDbEntity
  8
0
370
    15
100
AcDbLine
 10
-3419.203639060329
 20
2182.618532527877
 30
0.0
 11
-3419.203639060329
 21
2186.618532527877
 31
0.0
  0
LINE
  5
3544
330
3535
100
AcDbEntity
  8
0
370
    15
100
AcDbLine
 10
-3324.203639060329
 20
2182.618532527877
 30
0.0
 11
-3324.203639060329
 21
2186.618532527877
 31
0.0
  0
LINE
  5
3545
330
3535
100
AcDbEntity
  8
0
370
    -2
100
AcDbLine
 10
-3414.203639060329
 20
2184.618532527877
 30
0.0
 11
-3384.674307546004
 21
2184.618532527877
 31
0.0
  0
LINE
  5
3546
330
3535
100
AcDbEntity
  8
0
370
    -2
100
AcDbLine
 10
-3329.203639060329
 20
2184.618532527877
 30
0.0
 11
-3358.732970574654
 21
2184.618532527877
 31
0.0
  0
SOLID
  5
3547
330
3535
100
AcDbEntity
  8
0
100
AcDbTrace
 10
-3414.203639060329
 20
2185.45186586121
 30
0.0
 11
-3414.203639060329
 21
2183.785199194543
 31
0.0
 12
-3419.203639060329
 22
2184.618532527877
 32
0.0
 13
-3419.203639060329
 23
2184.618532527877
 33
0.0
  0
SOLID
  5
3548
330
3535
100
AcDbEntity
  8
0
100
AcDbTrace
 10
-3329.203639060329
 20
2185.45186586121
 30
0.0
 11
-3329.203639060329
 21
2183.785199194543
 31
0.0
 12
-3324.203639060329
 22
2184.618532527877
 32
0.0
 13
-3324.203639060329
 23
2184.618532527877
 33
0.0
  0
MTEXT
  5
3549
330
3535
100
AcDbEntity
  8
0
 62
     0
100
AcDbMText
 10
-3371.703639060329
 20
2184.618532527877
 30
0.0
 40
10.0
 41
0.0
 71
     5
 72
     1
  1
\A2;95.0
  7
ARIAL
 73
     1
 44
1.0
1001
ACAD
1000
MTEXTBEGIN
1070
    73
1070
     1
1070
    44
1040
1.0
1070
    74
1070
     0
1000
MTEXTEND
  0
POINT
  5
354A
330
3535
100
AcDbEntity
  8
Defpoints
 62
     0
100
AcDbPoint
 10
-3419.203639060329
 20
2129.781086935719
 30
0.0
  0
POINT
  5
354B
330
3535
100
AcDbEntity
  8
Defpoints
 62
     0
100
AcDbPoint
 10
-3324.203639060329
 20
2129.781086935719
 30
0.0
  0
POINT
  5
354C
330
3535
100
AcDbEntity
  8
Defpoints
 62
     0
100
AcDbPoint
 10
-3324.203639060329
 20
2184.618532527877
 30
0.0
  0
ENDBLK
  5
3537
330
3535
100
AcDbEntity
  8
0
100
AcDbBlockEnd
  0
BLOCK
  5
35B7
330
35B6
100
AcDbEntity
  8
0
100
AcDbBlockBegin
  2
*D26
 70
     1
 10
0.0
 20
0.0
 30
0.0
  3
*D26
  1

  0
LINE
  5
3E8E
330
35B6
100
AcDbEntity
  8
0
370
    15
100
AcDbLine
 10
-3422.203639056931
 20
2154.608761562063
 30
0.0
 11
-3422.203639056931
 21
2158.608761562063
 31
0.0
  0
LINE
  5
3E8F
330
35B6
100
AcDbEntity
  8
0
370
    15
100
AcDbLine
 10
-3321.203639066031
 20
2154.608761562063
 30
0.0
 11
-3321.203639066031
 21
2158.608761562063
 31
0.0
  0
LINE
  5
3E90
330
35B6
100
AcDbEntity
  8
0
370
    -2
100
AcDbLine
 10
-3417.203639056931
 20
2156.608761562063
 30
0.0
 11
-3388.088359388903
 21
2156.608761562063
 31
0.0
  0
LINE
  5
3E91
330
35B6
100
AcDbEntity
  8
0
370
    -2
100
AcDbLine
 10
-3326.203639066032
 20
2156.608761562063
 30
0.0
 11
-3355.318918734059
 21
2156.608761562063
 31
0.0
  0
SOLID
  5
3E92
330
35B6
100
AcDbEntity
  8
0
100
AcDbTrace
 10
-3417.203639056931
 20
2157.442094895397
 30
0.0
 11
-3417.203639056931
 21
2155.77542822873
 31
0.0
 12
-3422.203639056931
 22
2156.608761562063
 32
0.0
 13
-3422.203639056931
 23
2156.608761562063
 33
0.0
  0
SOLID
  5
3E93
330
35B6
100
AcDbEntity
  8
0
100
AcDbTrace
 10
-3326.203639066032
 20
2157.442094895397
 30
0.0
 11
-3326.203639066032
 21
2155.77542822873
 31
0.0
 12
-3321.203639066031
 22
2156.608761562063
 32
0.0
 13
-3321.203639066031
 23
2156.608761562063
 33
0.0
  0
MTEXT
  5
3E94
330
35B6
100
AcDbEntity
  8
0
 62
     0
100
AcDbMText
 10
-3371.703639061482
 20
2156.608761562063
 30
0.0
 40
10.0
 41
0.0
 71
     5
 72
     1
  1
\A2;101.0
  7
ARIAL
 73
     1
 44
1.0
1001
ACAD
1000
MTEXTBEGIN
1070
    73
1070
     1
1070
    44
1040
1.0
1070
    74
1070
     0
1000
MTEXTEND
  0
POINT
  5
3E95
330
35B6
100
AcDbEntity
  8
Defpoints
 62
     0
100
AcDbPoint
 10
-3422.203639056931
 20
2132.781086931746
 30
0.0
  0
POINT
  5
3E96
330
35B6
100
AcDbEntity
  8
Defpoints
 62
     0
100
AcDbPoint
 10
-3321.203639066031
 20
2132.781086931746
 30
0.0
  0
POINT
  5
3E97
330
35B6
100
AcDbEntity
  8
Defpoints
 62
     0
100
AcDbPoint
 10
-3321.203639066031
 20
2156.608761562063
 30
0.0
  0
ENDBLK
  5
35B8
330
35B6
100
AcDbEntity
  8
0
100
AcDbBlockEnd
  0
BLOCK
  5
35C4
330
35C3
100
AcDbEntity
  8
0
100
AcDbBlockBegin
  2
*D27
 70
     1
 10
0.0
 20
0.0
 30
0.0
  3
*D27
  1

  0
LINE
  5
3E70
330
35C3
100
AcDbEntity
  8
0
370
    15
100
AcDbLine
 10
-3613.458289627637
 20
2303.678530634036
 30
0.0
 11
-3613.458289627637
 21
2307.678530634036
 31
0.0
  0
LINE
  5
3E71
330
35C3
100
AcDbEntity
  8
0
370
    15
100
AcDbLine
 10
-3508.458289627637
 20
2303.678530634036
 30
0.0
 11
-3508.458289627637
 21
2307.678530634036
 31
0.0
  0
LINE
  5
3E72
330
35C3
100
AcDbEntity
  8
0
370
    -2
100
AcDbLine
 10
-3608.458289627637
 20
2305.678530634036
 30
0.0
 11
-3577.343009955058
 21
2305.678530634036
 31
0.0
  0
LINE
  5
3E73
330
35C3
100
AcDbEntity
  8
0
370
    -2
100
AcDbLine
 10
-3513.458289627636
 20
2305.678530634036
 30
0.0
 11
-3544.573569300215
 21
2305.678530634036
 31
0.0
  0
SOLID
  5
3E74
330
35C3
100
AcDbEntity
  8
0
100
AcDbTrace
 10
-3608.458289627637
 20
2306.511863967369
 30
0.0
 11
-3608.458289627637
 21
2304.845197300702
 31
0.0
 12
-3613.458289627637
 22
2305.678530634036
 32
0.0
 13
-3613.458289627637
 23
2305.678530634036
 33
0.0
  0
SOLID
  5
3E75
330
35C3
100
AcDbEntity
  8
0
100
AcDbTrace
 10
-3513.458289627636
 20
2306.511863967369
 30
0.0
 11
-3513.458289627636
 21
2304.845197300702
 31
0.0
 12
-3508.458289627637
 22
2305.678530634036
 32
0.0
 13
-3508.458289627637
 23
2305.678530634036
 33
0.0
  0
MTEXT
  5
3E76
330
35C3
100
AcDbEntity
  8
0
 62
     0
100
AcDbMText
 10
-3560.958289627637
 20
2305.678530634036
 30
0.0
 40
10.0
 41
0.0
 71
     5
 72
     1
  1
\A2;105.0
  7
ARIAL
 73
     1
 44
1.0
1001
ACAD
1000
MTEXTBEGIN
1070
    73
1070
     1
1070
    44
1040
1.0
1070
    74
1070
     0
1000
MTEXTEND
  0
POINT
  5
3E77
330
35C3
100
AcDbEntity
  8
Defpoints
 62
     0
100
AcDbPoint
 10
-3613.458289627637
 20
2269.781086936097
 30
0.0
  0
POINT
  5
3E78
330
35C3
100
AcDbEntity
  8
Defpoints
 62
     0
100
AcDbPoint
 10
-3508.458289627637
 20
2269.781086936096
 30
0.0
  0
POINT
  5
3E79
330
35C3
100
AcDbEntity
  8
Defpoints
 62
     0
100
AcDbPoint
 10
-3508.458289627637
 20
2305.678530634036
 30
0.0
  0
ENDBLK
  5
35C5
330
35C3
100
AcDbEntity
  8
0
100
AcDbBlockEnd
  0
BLOCK
  5
35D1
330
35D0
100
AcDbEntity
  8
0
100
AcDbBlockBegin
  2
*D28
 70
     1
 10
0.0
 20
0.0
 30
0.0
  3
*D28
  1

  0
LINE
  5
3E7A
330
35D0
100
AcDbEntity
  8
0
370
    15
100
AcDbLine
 10
-3472.387883738547
 20
2269.781086936097
 30
0.0
 11
-3468.387883738546
 21
2269.781086936097
 31
0.0
  0
LINE
  5
3E7B
330
35D0
100
AcDbEntity
  8
0
370
    15
100
AcDbLine
 10
-3472.387883738547
 20
2119.781086936097
 30
0.0
 11
-3468.387883738546
 21
2119.781086936097
 31
0.0
  0
LINE
  5
3E7C
330
35D0
100
AcDbEntity
  8
0
370
    -2
100
AcDbLine
 10
-3470.387883738546
 20
2264.781086936097
 30
0.0
 11
-3470.387883738546
 21
2211.165807263519
 31
0.0
  0
LINE
  5
3E7D
330
35D0
100
AcDbEntity
  8
0
370
    -2
100
AcDbLine
 10
-3470.387883738546
 20
2124.781086936097
 30
0.0
 11
-3470.387883738546
 21
2178.396366608675
 31
0.0
  0
SOLID
  5
3E7E
330
35D0
100
AcDbEntity
  8
0
100
AcDbTrace
 10
-3471.221217071879
 20
2264.781086936097
 30
0.0
 11
-3469.554550405212
 21
2264.781086936097
 31
0.0
 12
-3470.387883738546
 22
2269.781086936097
 32
0.0
 13
-3470.387883738546
 23
2269.781086936097
 33
0.0
  0
SOLID
  5
3E7F
330
35D0
100
AcDbEntity
  8
0
100
AcDbTrace
 10
-3471.221217071879
 20
2124.781086936097
 30
0.0
 11
-3469.554550405212
 21
2124.781086936097
 31
0.0
 12
-3470.387883738546
 22
2119.781086936097
 32
0.0
 13
-3470.387883738546
 23
2119.781086936097
 33
0.0
  0
MTEXT
  5
3E80
330
35D0
100
AcDbEntity
  8
0
 62
     0
100
AcDbMText
 10
-3470.387883738544
 20
2194.781086936098
 30
0.0
 40
10.0
 41
0.0
 71
     5
 72
     1
  1
\A2;150.0
  7
ARIAL
 11
0.0000000000000001
 21
1.0
 31
0.0
 73
     1
 44
1.0
1001
ACAD
1000
MTEXTBEGIN
1070
    73
1070
     1
1070
    44
1040
1.0
1070
    74
1070
     0
1000
MTEXTEND
  0
POINT
  5
3E81
330
35D0
100
AcDbEntity
  8
Defpoints
 62
     0
100
AcDbPoint
 10
-3508.45828962764
 20
2269.781086936097
 30
0.0
  0
POINT
  5
3E82
330
35D0
100
AcDbEntity
  8
Defpoints
 62
     0
100
AcDbPoint
 10
-3508.45828962764
 20
2119.781086936097
 30
0.0
  0
POINT
  5
3E83
330
35D0
100
AcDbEntity
  8
Defpoints
 62
     0
100
AcDbPoint
 10
-3470.387883738546
 20
2119.781086936097
 30
0.0
  0
ENDBLK
  5
35D2
330
35D0
100
AcDbEntity
  8
0
100
AcDbBlockEnd
  0
BLOCK
  5
35DE
330
35DD
100
AcDbEntity
  8
0
100
AcDbBlockBegin
  2
*D29
 70
     1
 10
0.0
 20
0.0
 30
0.0
  3
*D29
  1

  0
LINE
  5
3E84
330
35DD
100
AcDbEntity
  8
0
370
    15
100
AcDbLine
 10
-3673.071675923962
 20
2269.781086936098
 30
0.0
 11
-3677.071675923964
 21
2269.781086936098
 31
0.0
  0
LINE
  5
3E85
330
35DD
100
AcDbEntity
  8
0
370
    15
100
AcDbLine
 10
-3673.071675923962
 20
1369.781086936096
 30
0.0
 11
-3677.071675923964
 21
1369.781086936096
 31
0.0
  0
LINE
  5
3E86
330
35DD
100
AcDbEntity
  8
0
370
    -2
100
AcDbLine
 10
-3675.071675923962
 20
2264.781086936098
 30
0.0
 11
-3675.071675923962
 21
1836.636475749194
 31
0.0
  0
LINE
  5
3E87
330
35DD
100
AcDbEntity
  8
0
370
    -2
100
AcDbLine
 10
-3675.071675923962
 20
1374.781086936096
 30
0.0
 11
-3675.071675923962
 21
1802.925698123
 31
0.0
  0
SOLID
  5
3E88
330
35DD
100
AcDbEntity
  8
0
100
AcDbTrace
 10
-3675.905009257296
 20
2264.781086936098
 30
0.0
 11
-3674.238342590629
 21
2264.781086936098
 31
0.0
 12
-3675.071675923962
 22
2269.781086936098
 32
0.0
 13
-3675.071675923962
 23
2269.781086936098
 33
0.0
  0
SOLID
  5
3E89
330
35DD
100
AcDbEntity
  8
0
100
AcDbTrace
 10
-3675.905009257296
 20
1374.781086936096
 30
0.0
 11
-3674.238342590629
 21
1374.781086936096
 31
0.0
 12
-3675.071675923962
 22
1369.781086936096
 32
0.0
 13
-3675.071675923962
 23
1369.781086936096
 33
0.0
  0
MTEXT
  5
3E8A
330
35DD
100
AcDbEntity
  8
0
 62
     0
100
AcDbMText
 10
-3675.071675923962
 20
1819.781086936098
 30
0.0
 40
10.0
 41
0.0
 71
     5
 72
     1
  1
\A2;900.0
  7
ARIAL
 11
0.0000000000000001
 21
1.0
 31
0.0
 73
     1
 44
1.0
1001
ACAD
1000
MTEXTBEGIN
1070
    73
1070
     1
1070
    44
1040
1.0
1070
    74
1070
     0
1000
MTEXTEND
  0
POINT
  5
3E8B
330
35DD
100
AcDbEntity
  8
Defpoints
 62
     0
100
AcDbPoint
 10
-3608.45828962764
 20
2269.781086936098
 30
0.0
  0
POINT
  5
3E8C
330
35DD
100
AcDbEntity
  8
Defpoints
 62
     0
100
AcDbPoint
 10
-3563.95828962764
 20
1369.781086936096
 30
0.0
  0
POINT
  5
3E8D
330
35DD
100
AcDbEntity
  8
Defpoints
 62
     0
100
AcDbPoint
 10
-3675.071675923962
 20
1369.781086936096
 30
0.0
  0
ENDBLK
  5
35DF
330
35DD
100
AcDbEntity
  8
0
100
AcDbBlockEnd
  0
BLOCK
  5
3759
330
3758
100
AcDbEntity
  8
0
100
AcDbBlockBegin
  2
*D30
 70
     1
 10
0.0
 20
0.0
 30
0.0
  3
*D30
  1

  0
LINE
  5
3E98
330
3758
100
AcDbEntity
  8
0
370
    15
100
AcDbLine
 10
-3176.453831105917
 20
2303.678530632964
 30
0.0
 11
-3176.453831105917
 21
2307.678530632964
 31
0.0
  0
LINE
  5
3E99
330
3758
100
AcDbEntity
  8
0
370
    15
100
AcDbLine
 10
-3051.453831105917
 20
2303.678530632964
 30
0.0
 11
-3051.453831105917
 21
2307.678530632964
 31
0.0
  0
LINE
  5
3E9A
330
3758
100
AcDbEntity
  8
0
370
    -2
100
AcDbLine
 10
-3171.453831105917
 20
2305.678530632964
 30
0.0
 11
-3130.338551433339
 21
2305.678530632964
 31
0.0
  0
LINE
  5
3E9B
330
3758
100
AcDbEntity
  8
0
370
    -2
100
AcDbLine
 10
-3056.453831105917
 20
2305.678530632964
 30
0.0
 11
-3097.569110778495
 21
2305.678530632964
 31
0.0
  0
SOLID
  5
3E9C
330
3758
100
AcDbEntity
  8
0
100
AcDbTrace
 10
-3171.453831105917
 20
2306.511863966298
 30
0.0
 11
-3171.453831105917
 21
2304.845197299631
 31
0.0
 12
-3176.453831105917
 22
2305.678530632964
 32
0.0
 13
-3176.453831105917
 23
2305.678530632964
 33
0.0
  0
SOLID
  5
3E9D
330
3758
100
AcDbEntity
  8
0
100
AcDbTrace
 10
-3056.453831105917
 20
2306.511863966298
 30
0.0
 11
-3056.453831105917
 21
2304.845197299631
 31
0.0
 12
-3051.453831105917
 22
2305.678530632964
 32
0.0
 13
-3051.453831105917
 23
2305.678530632964
 33
0.0
  0
MTEXT
  5
3E9E
330
3758
100
AcDbEntity
  8
0
 62
     0
100
AcDbMText
 10
-3113.953831105917
 20
2305.678530632964
 30
0.0
 40
10.0
 41
0.0
 71
     5
 72
     1
  1
\A2;125.0
  7
ARIAL
 73
     1
 44
1.0
1001
ACAD
1000
MTEXTBEGIN
1070
    73
1070
     1
1070
    44
1040
1.0
1070
    74
1070
     0
1000
MTEXTEND
  0
POINT
  5
3E9F
330
3758
100
AcDbEntity
  8
Defpoints
 62
     0
100
AcDbPoint
 10
-3176.453831105917
 20
2269.781086935025
 30
0.0
  0
POINT
  5
3EA0
330
3758
100
AcDbEntity
  8
Defpoints
 62
     0
100
AcDbPoint
 10
-3051.453831105917
 20
2269.781086935024
 30
0.0
  0
POINT
  5
3EA1
330
3758
100
AcDbEntity
  8
Defpoints
 62
     0
100
AcDbPoint
 10
-3051.453831105917
 20
2305.678530632964
 30
0.0
  0
ENDBLK
  5
375A
330
3758
100
AcDbEntity
  8
0
100
AcDbBlockEnd
  0
BLOCK
  5
3766
330
3765
100
AcDbEntity
  8
0
100
AcDbBlockBegin
  2
*D31
 70
     1
 10
0.0
 20
0.0
 30
0.0
  3
*D31
  1

  0
LINE
  5
3EA2
330
3765
100
AcDbEntity
  8
0
370
    15
100
AcDbLine
 10
-3025.383425216823
 20
2269.781086935025
 30
0.0
 11
-3021.383425216823
 21
2269.781086935025
 31
0.0
  0
LINE
  5
3EA3
330
3765
100
AcDbEntity
  8
0
370
    15
100
AcDbLine
 10
-3025.383425216823
 20
2119.781086935025
 30
0.0
 11
-3021.383425216823
 21
2119.781086935025
 31
0.0
  0
LINE
  5
3EA4
330
3765
100
AcDbEntity
  8
0
370
    -2
100
AcDbLine
 10
-3023.383425216823
 20
2264.781086935025
 30
0.0
 11
-3023.383425216823
 21
2211.165807262447
 31
0.0
  0
LINE
  5
3EA5
330
3765
100
AcDbEntity
  8
0
370
    -2
100
AcDbLine
 10
-3023.383425216823
 20
2124.781086935025
 30
0.0
 11
-3023.383425216823
 21
2178.396366607604
 31
0.0
  0
SOLID
  5
3EA6
330
3765
100
AcDbEntity
  8
0
100
AcDbTrace
 10
-3024.216758550157
 20
2264.781086935025
 30
0.0
 11
-3022.55009188349
 21
2264.781086935025
 31
0.0
 12
-3023.383425216823
 22
2269.781086935025
 32
0.0
 13
-3023.383425216823
 23
2269.781086935025
 33
0.0
  0
SOLID
  5
3EA7
330
3765
100
AcDbEntity
  8
0
100
AcDbTrace
 10
-3024.216758550157
 20
2124.781086935025
 30
0.0
 11
-3022.55009188349
 21
2124.781086935025
 31
0.0
 12
-3023.383425216823
 22
2119.781086935025
 32
0.0
 13
-3023.383425216823
 23
2119.781086935025
 33
0.0
  0
MTEXT
  5
3EA8
330
3765
100
AcDbEntity
  8
0
 62
     0
100
AcDbMText
 10
-3023.383425216823
 20
2194.781086935025
 30
0.0
 40
10.0
 41
0.0
 71
     5
 72
     1
  1
\A2;150.0
  7
ARIAL
 11
0.0000000000000001
 21
1.0
 31
0.0
 73
     1
 44
1.0
1001
ACAD
1000
MTEXTBEGIN
1070
    73
1070
     1
1070
    44
1040
1.0
1070
    74
1070
     0
1000
MTEXTEND
  0
POINT
  5
3EA9
330
3765
100
AcDbEntity
  8
Defpoints
 62
     0
100
AcDbPoint
 10
-3051.453831105918
 20
2269.781086935025
 30
0.0
  0
POINT
  5
3EAA
330
3765
100
AcDbEntity
  8
Defpoints
 62
     0
100
AcDbPoint
 10
-3051.453831105918
 20
2119.781086935025
 30
0.0
  0
POINT
  5
3EAB
330
3765
100
AcDbEntity
  8
Defpoints
 62
     0
100
AcDbPoint
 10
-3023.383425216823
 20
2119.781086935025
 30
0.0
  0
ENDBLK
  5
3767
330
3765
100
AcDbEntity
  8
0
100
AcDbBlockEnd
  0
BLOCK
  5
3773
330
3772
100
AcDbEntity
  8
0
100
AcDbBlockBegin
  2
*D32
 70
     1
 10
0.0
 20
0.0
 30
0.0
  3
*D32
  1

  0
LINE
  5
3EAC
330
3772
100
AcDbEntity
  8
0
370
    15
100
AcDbLine
 10
-3226.067217402248
 20
2269.781086935026
 30
0.0
 11
-3230.067217402248
 21
2269.781086935026
 31
0.0
  0
LINE
  5
3EAD
330
3772
100
AcDbEntity
  8
0
370
    15
100
AcDbLine
 10
-3226.067217402248
 20
1369.781086935024
 30
0.0
 11
-3230.067217402248
 21
1369.781086935024
 31
0.0
  0
LINE
  5
3EAE
330
3772
100
AcDbEntity
  8
0
370
    -2
100
AcDbLine
 10
-3228.067217402248
 20
2264.781086935026
 30
0.0
 11
-3228.067217402248
 21
1836.636475748122
 31
0.0
  0
LINE
  5
3EAF
330
3772
100
AcDbEntity
  8
0
370
    -2
100
AcDbLine
 10
-3228.067217402248
 20
1374.781086935024
 30
0.0
 11
-3228.067217402248
 21
1802.925698121928
 31
0.0
  0
SOLID
  5
3EB0
330
3772
100
AcDbEntity
  8
0
100
AcDbTrace
 10
-3228.900550735583
 20
2264.781086935026
 30
0.0
 11
-3227.233884068914
 21
2264.781086935026
 31
0.0
 12
-3228.067217402248
 22
2269.781086935026
 32
0.0
 13
-3228.067217402248
 23
2269.781086935026
 33
0.0
  0
SOLID
  5
3EB1
330
3772
100
AcDbEntity
  8
0
100
AcDbTrace
 10
-3228.900550735583
 20
1374.781086935024
 30
0.0
 11
-3227.233884068914
 21
1374.781086935024
 31
0.0
 12
-3228.067217402248
 22
1369.781086935024
 32
0.0
 13
-3228.067217402248
 23
1369.781086935024
 33
0.0
  0
MTEXT
  5
3EB2
330
3772
100
AcDbEntity
  8
0
 62
     0
100
AcDbMText
 10
-3228.067217402247
 20
1819.781086935026
 30
0.0
 40
10.0
 41
0.0
 71
     5
 72
     1
  1
\A2;900.0
  7
ARIAL
 11
0.0000000000000001
 21
1.0
 31
0.0
 73
     1
 44
1.0
1001
ACAD
1000
MTEXTBEGIN
1070
    73
1070
     1
1070
    44
1040
1.0
1070
    74
1070
     0
1000
MTEXTEND
  0
POINT
  5
3EB3
330
3772
100
AcDbEntity
  8
Defpoints
 62
     0
100
AcDbPoint
 10
-3171.453831105919
 20
2269.781086935026
 30
0.0
  0
POINT
  5
3EB4
330
3772
100
AcDbEntity
  8
Defpoints
 62
     0
100
AcDbPoint
 10
-3116.953831105919
 20
1369.781086935024
 30
0.0
  0
POINT
  5
3EB5
330
3772
100
AcDbEntity
  8
Defpoints
 62
     0
100
AcDbPoint
 10
-3228.067217402248
 20
1369.781086935024
 30
0.0
  0
ENDBLK
  5
3774
330
3772
100
AcDbEntity
  8
0
100
AcDbBlockEnd
  0
BLOCK
  5
3780
330
377F
100
AcDbEntity
  8
0
100
AcDbBlockBegin
  2
*D33
 70
     1
 10
0.0
 20
0.0
 30
0.0
  3
*D33
  1

  0
LINE
  5
3EB6
330
377F
100
AcDbEntity
  8
0
370
    15
100
AcDbLine
 10
-2985.199180525322
 20
2164.608761551101
 30
0.0
 11
-2985.199180525322
 21
2168.608761551101
 31
0.0
  0
LINE
  5
3EB7
330
377F
100
AcDbEntity
  8
0
370
    15
100
AcDbLine
 10
-2864.199180554225
 20
2164.608761551101
 30
0.0
 11
-2864.199180554225
 21
2168.608761551101
 31
0.0
  0
LINE
  5
3EB8
330
377F
100
AcDbEntity
  8
0
370
    -2
100
AcDbLine
 10
-2980.199180525323
 20
2166.608761551101
 30
0.0
 11
-2941.083900867196
 21
2166.608761551101
 31
0.0
  0
LINE
  5
3EB9
330
377F
100
AcDbEntity
  8
0
370
    -2
100
AcDbLine
 10
-2869.199180554225
 20
2166.608761551101
 30
0.0
 11
-2908.314460212352
 21
2166.608761551101
 31
0.0
  0
SOLID
  5
3EBA
330
377F
100
AcDbEntity
  8
0
100
AcDbTrace
 10
-2980.199180525323
 20
2167.442094884435
 30
0.0
 11
-2980.199180525323
 21
2165.775428217767
 31
0.0
 12
-2985.199180525322
 22
2166.608761551101
 32
0.0
 13
-2985.199180525322
 23
2166.608761551101
 33
0.0
  0
SOLID
  5
3EBB
330
377F
100
AcDbEntity
  8
0
100
AcDbTrace
 10
-2869.199180554225
 20
2167.442094884435
 30
0.0
 11
-2869.199180554225
 21
2165.775428217767
 31
0.0
 12
-2864.199180554225
 22
2166.608761551101
 32
0.0
 13
-2864.199180554225
 23
2166.608761551101
 33
0.0
  0
MTEXT
  5
3EBC
330
377F
100
AcDbEntity
  8
0
 62
     0
100
AcDbMText
 10
-2924.699180539775
 20
2166.608761551101
 30
0.0
 40
10.0
 41
0.0
 71
     5
 72
     1
  1
\A2;121.0
  7
ARIAL
 73
     1
 44
1.0
1001
ACAD
1000
MTEXTBEGIN
1070
    73
1070
     1
1070
    44
1040
1.0
1070
    74
1070
     0
1000
MTEXTEND
  0
POINT
  5
3EBD
330
377F
100
AcDbEntity
  8
Defpoints
 62
     0
100
AcDbPoint
 10
-2985.199180525322
 20
2142.781086920783
 30
0.0
  0
POINT
  5
3EBE
330
377F
100
AcDbEntity
  8
Defpoints
 62
     0
100
AcDbPoint
 10
-2864.199180554225
 20
2142.781086920783
 30
0.0
  0
POINT
  5
3EBF
330
377F
100
AcDbEntity
  8
Defpoints
 62
     0
100
AcDbPoint
 10
-2864.199180554225
 20
2166.608761551101
 30
0.0
  0
ENDBLK
  5
3781
330
377F
100
AcDbEntity
  8
0
100
AcDbBlockEnd
  0
BLOCK
  5
37D5
330
37D4
100
AcDbEntity
  8
0
100
AcDbBlockBegin
  2
*D34
 70
     1
 10
0.0
 20
0.0
 30
0.0
  3
*D34
  1

  0
LINE
  5
37E2
330
37D4
100
AcDbEntity
  8
0
370
    15
100
AcDbLine
 10
-2987.199180525323
 20
2216.233095156987
 30
0.0
 11
-2987.199180525323
 21
2220.233095156987
 31
0.0
  0
LINE
  5
37E3
330
37D4
100
AcDbEntity
  8
0
370
    15
100
AcDbLine
 10
-2862.199180554224
 20
2216.233095156987
 30
0.0
 11
-2862.199180554224
 21
2220.233095156987
 31
0.0
  0
LINE
  5
37E4
330
37D4
100
AcDbEntity
  8
0
370
    -2
100
AcDbLine
 10
-2982.199180525322
 20
2218.233095156987
 30
0.0
 11
-2941.083900867195
 21
2218.233095156987
 31
0.0
  0
LINE
  5
37E5
330
37D4
100
AcDbEntity
  8
0
370
    -2
100
AcDbLine
 10
-2867.199180554225
 20
2218.233095156987
 30
0.0
 11
-2908.314460212352
 21
2218.233095156987
 31
0.0
  0
SOLID
  5
37E6
330
37D4
100
AcDbEntity
  8
0
100
AcDbTrace
 10
-2982.199180525322
 20
2219.066428490321
 30
0.0
 11
-2982.199180525322
 21
2217.399761823654
 31
0.0
 12
-2987.199180525323
 22
2218.233095156987
 32
0.0
 13
-2987.199180525323
 23
2218.233095156987
 33
0.0
  0
SOLID
  5
37E7
330
37D4
100
AcDbEntity
  8
0
100
AcDbTrace
 10
-2867.199180554225
 20
2219.066428490321
 30
0.0
 11
-2867.199180554225
 21
2217.399761823654
 31
0.0
 12
-2862.199180554224
 22
2218.233095156987
 32
0.0
 13
-2862.199180554224
 23
2218.233095156987
 33
0.0
  0
MTEXT
  5
37E8
330
37D4
100
AcDbEntity
  8
0
 62
     0
100
AcDbMText
 10
-2924.699180539775
 20
2218.233095156987
 30
0.0
 40
10.0
 41
0.0
 71
     5
 72
     1
  1
\A2;125.0
  7
ARIAL
 73
     1
 44
1.0
1001
ACAD
1000
MTEXTBEGIN
1070
    73
1070
     1
1070
    44
1040
1.0
1070
    74
1070
     0
1000
MTEXTEND
  0
POINT
  5
37E9
330
37D4
100
AcDbEntity
  8
Defpoints
 62
     0
100
AcDbPoint
 10
-2987.199180525323
 20
2144.781086920783
 30
0.0
  0
POINT
  5
37EA
330
37D4
100
AcDbEntity
  8
Defpoints
 62
     0
100
AcDbPoint
 10
-2862.199180554224
 20
2144.781086920783
 30
0.0
  0
POINT
  5
37EB
330
37D4
100
AcDbEntity
  8
Defpoints
 62
     0
100
AcDbPoint
 10
-2862.199180554224
 20
2218.233095156987
 30
0.0
  0
ENDBLK
  5
37D6
330
37D4
100
AcDbEntity
  8
0
100
AcDbBlockEnd
  0
BLOCK
  5
3A2C
330
3A2B
100
AcDbEntity
  8
0
100
AcDbBlockBegin
  2
*D35
 70
     1
 10
0.0
 20
0.0
 30
0.0
  3
*D35
  1

  0
LINE
  5
3EC0
330
3A2B
100
AcDbEntity
  8
0
370
    15
100
AcDbLine
 10
-2729.449372584201
 20
2303.678530631883
 30
0.0
 11
-2729.449372584201
 21
2307.678530631883
 31
0.0
  0
LINE
  5
3EC1
330
3A2B
100
AcDbEntity
  8
0
370
    15
100
AcDbLine
 10
-2584.449372584201
 20
2303.678530631883
 30
0.0
 11
-2584.449372584201
 21
2307.678530631883
 31
0.0
  0
LINE
  5
3EC2
330
3A2B
100
AcDbEntity
  8
0
370
    -2
100
AcDbLine
 10
-2724.449372584202
 20
2305.678530631883
 30
0.0
 11
-2673.334092911623
 21
2305.678530631883
 31
0.0
  0
LINE
  5
3EC3
330
3A2B
100
AcDbEntity
  8
0
370
    -2
100
AcDbLine
 10
-2589.449372584201
 20
2305.678530631883
 30
0.0
 11
-2640.56465225678
 21
2305.678530631883
 31
0.0
  0
SOLID
  5
3EC4
330
3A2B
100
AcDbEntity
  8
0
100
AcDbTrace
 10
-2724.449372584202
 20
2306.511863965217
 30
0.0
 11
-2724.449372584202
 21
2304.84519729855
 31
0.0
 12
-2729.449372584201
 22
2305.678530631883
 32
0.0
 13
-2729.449372584201
 23
2305.678530631883
 33
0.0
  0
SOLID
  5
3EC5
330
3A2B
100
AcDbEntity
  8
0
100
AcDbTrace
 10
-2589.449372584201
 20
2306.511863965217
 30
0.0
 11
-2589.449372584201
 21
2304.84519729855
 31
0.0
 12
-2584.449372584201
 22
2305.678530631883
 32
0.0
 13
-2584.449372584201
 23
2305.678530631883
 33
0.0
  0
MTEXT
  5
3EC6
330
3A2B
100
AcDbEntity
  8
0
 62
     0
100
AcDbMText
 10
-2656.949372584201
 20
2305.678530631883
 30
0.0
 40
10.0
 41
0.0
 71
     5
 72
     1
  1
\A2;145.0
  7
ARIAL
 73
     1
 44
1.0
1001
ACAD
1000
MTEXTBEGIN
1070
    73
1070
     1
1070
    44
1040
1.0
1070
    74
1070
     0
1000
MTEXTEND
  0
POINT
  5
3EC7
330
3A2B
100
AcDbEntity
  8
Defpoints
 62
     0
100
AcDbPoint
 10
-2729.449372584201
 20
2269.781086933944
 30
0.0
  0
POINT
  5
3EC8
330
3A2B
100
AcDbEntity
  8
Defpoints
 62
     0
100
AcDbPoint
 10
-2584.449372584201
 20
2269.781086933944
 30
0.0
  0
POINT
  5
3EC9
330
3A2B
100
AcDbEntity
  8
Defpoints
 62
     0
100
AcDbPoint
 10
-2584.449372584201
 20
2305.678530631883
 30
0.0
  0
ENDBLK
  5
3A2D
330
3A2B
100
AcDbEntity
  8
0
100
AcDbBlockEnd
  0
BLOCK
  5
3A39
330
3A38
100
AcDbEntity
  8
0
100
AcDbBlockBegin
  2
*D36
 70
     1
 10
0.0
 20
0.0
 30
0.0
  3
*D36
  1

  0
LINE
  5
3ECA
330
3A38
100
AcDbEntity
  8
0
370
    15
100
AcDbLine
 10
-2558.378966695112
 20
2269.781086933945
 30
0.0
 11
-2554.378966695112
 21
2269.781086933945
 31
0.0
  0
LINE
  5
3ECB
330
3A38
100
AcDbEntity
  8
0
370
    15
100
AcDbLine
 10
-2558.378966695112
 20
2119.781086933945
 30
0.0
 11
-2554.378966695112
 21
2119.781086933945
 31
0.0
  0
LINE
  5
3ECC
330
3A38
100
AcDbEntity
  8
0
370
    -2
100
AcDbLine
 10
-2556.378966695112
 20
2264.781086933945
 30
0.0
 11
-2556.378966695112
 21
2211.165807261367
 31
0.0
  0
LINE
  5
3ECD
330
3A38
100
AcDbEntity
  8
0
370
    -2
100
AcDbLine
 10
-2556.378966695112
 20
2124.781086933945
 30
0.0
 11
-2556.378966695112
 21
2178.396366606524
 31
0.0
  0
SOLID
  5
3ECE
330
3A38
100
AcDbEntity
  8
0
100
AcDbTrace
 10
-2557.212300028446
 20
2264.781086933945
 30
0.0
 11
-2555.545633361779
 21
2264.781086933945
 31
0.0
 12
-2556.378966695112
 22
2269.781086933945
 32
0.0
 13
-2556.378966695112
 23
2269.781086933945
 33
0.0
  0
SOLID
  5
3ECF
330
3A38
100
AcDbEntity
  8
0
100
AcDbTrace
 10
-2557.212300028446
 20
2124.781086933945
 30
0.0
 11
-2555.545633361779
 21
2124.781086933945
 31
0.0
 12
-2556.378966695112
 22
2119.781086933945
 32
0.0
 13
-2556.378966695112
 23
2119.781086933945
 33
0.0
  0
MTEXT
  5
3ED0
330
3A38
100
AcDbEntity
  8
0
 62
     0
100
AcDbMText
 10
-2556.378966695111
 20
2194.781086933945
 30
0.0
 40
10.0
 41
0.0
 71
     5
 72
     1
  1
\A2;150.0
  7
ARIAL
 11
0.0000000000000001
 21
1.0
 31
0.0
 73
     1
 44
1.0
1001
ACAD
1000
MTEXTBEGIN
1070
    73
1070
     1
1070
    44
1040
1.0
1070
    74
1070
     0
1000
MTEXTEND
  0
POINT
  5
3ED1
330
3A38
100
AcDbEntity
  8
Defpoints
 62
     0
100
AcDbPoint
 10
-2584.449372584202
 20
2269.781086933945
 30
0.0
  0
POINT
  5
3ED2
330
3A38
100
AcDbEntity
  8
Defpoints
 62
     0
100
AcDbPoint
 10
-2584.449372584202
 20
2119.781086933945
 30
0.0
  0
POINT
  5
3ED3
330
3A38
100
AcDbEntity
  8
Defpoints
 62
     0
100
AcDbPoint
 10
-2556.378966695112
 20
2119.781086933945
 30
0.0
  0
ENDBLK
  5
3A3A
330
3A38
100
AcDbEntity
  8
0
100
AcDbBlockEnd
  0
BLOCK
  5
3A46
330
3A45
100
AcDbEntity
  8
0
100
AcDbBlockBegin
  2
*D37
 70
     1
 10
0.0
 20
0.0
 30
0.0
  3
*D37
  1

  0
LINE
  5
3ED4
330
3A45
100
AcDbEntity
  8
0
370
    15
100
AcDbLine
 10
-2769.062758880535
 20
2269.781086933945
 30
0.0
 11
-2773.062758880535
 21
2269.781086933945
 31
0.0
  0
LINE
  5
3ED5
330
3A45
100
AcDbEntity
  8
0
370
    15
100
AcDbLine
 10
-2769.062758880535
 20
1369.781086933943
 30
0.0
 11
-2773.062758880535
 21
1369.781086933943
 31
0.0
  0
LINE
  5
3ED6
330
3A45
100
AcDbEntity
  8
0
370
    -2
100
AcDbLine
 10
-2771.062758880535
 20
2264.781086933945
 30
0.0
 11
-2771.062758880535
 21
1836.636475747041
 31
0.0
  0
LINE
  5
3ED7
330
3A45
100
AcDbEntity
  8
0
370
    -2
100
AcDbLine
 10
-2771.062758880535
 20
1374.781086933943
 30
0.0
 11
-2771.062758880535
 21
1802.925698120847
 31
0.0
  0
SOLID
  5
3ED8
330
3A45
100
AcDbEntity
  8
0
100
AcDbTrace
 10
-2771.896092213868
 20
2264.781086933945
 30
0.0
 11
-2770.229425547201
 21
2264.781086933945
 31
0.0
 12
-2771.062758880535
 22
2269.781086933945
 32
0.0
 13
-2771.062758880535
 23
2269.781086933945
 33
0.0
  0
SOLID
  5
3ED9
330
3A45
100
AcDbEntity
  8
0
100
AcDbTrace
 10
-2771.896092213868
 20
1374.781086933943
 30
0.0
 11
-2770.229425547201
 21
1374.781086933943
 31
0.0
 12
-2771.062758880535
 22
1369.781086933943
 32
0.0
 13
-2771.062758880535
 23
1369.781086933943
 33
0.0
  0
MTEXT
  5
3EDA
330
3A45
100
AcDbEntity
  8
0
 62
     0
100
AcDbMText
 10
-2771.062758880534
 20
1819.781086933945
 30
0.0
 40
10.0
 41
0.0
 71
     5
 72
     1
  1
\A2;900.0
  7
ARIAL
 11
0.0000000000000001
 21
1.0
 31
0.0
 73
     1
 44
1.0
1001
ACAD
1000
MTEXTBEGIN
1070
    73
1070
     1
1070
    44
1040
1.0
1070
    74
1070
     0
1000
MTEXTEND
  0
POINT
  5
3EDB
330
3A45
100
AcDbEntity
  8
Defpoints
 62
     0
100
AcDbPoint
 10
-2724.449372584203
 20
2269.781086933945
 30
0.0
  0
POINT
  5
3EDC
330
3A45
100
AcDbEntity
  8
Defpoints
 62
     0
100
AcDbPoint
 10
-2659.949372584203
 20
1369.781086933943
 30
0.0
  0
POINT
  5
3EDD
330
3A45
100
AcDbEntity
  8
Defpoints
 62
     0
100
AcDbPoint
 10
-2771.062758880535
 20
1369.781086933943
 30
0.0
  0
ENDBLK
  5
3A47
330
3A45
100
AcDbEntity
  8
0
100
AcDbBlockEnd
  0
BLOCK
  5
3A53
330
3A52
100
AcDbEntity
  8
0
100
AcDbBlockBegin
  2
*D38
 70
     1
 10
0.0
 20
0.0
 30
0.0
  3
*D38
  1

  0
LINE
  5
3B9E
330
3A52
100
AcDbEntity
  8
0
370
    15
100
AcDbLine
 10
-2548.194721997846
 20
2164.608761550021
 30
0.0
 11
-2548.194721997846
 21
2168.608761550021
 31
0.0
  0
LINE
  5
3B9F
330
3A52
100
AcDbEntity
  8
0
370
    15
100
AcDbLine
 10
-2407.194722038785
 20
2164.608761550021
 30
0.0
 11
-2407.194722038785
 21
2168.608761550021
 31
0.0
  0
LINE
  5
3BA0
330
3A52
100
AcDbEntity
  8
0
370
    -2
100
AcDbLine
 10
-2543.194721997846
 20
2166.608761550021
 30
0.0
 11
-2494.079442345737
 21
2166.608761550021
 31
0.0
  0
LINE
  5
3BA1
330
3A52
100
AcDbEntity
  8
0
370
    -2
100
AcDbLine
 10
-2412.194722038786
 20
2166.608761550021
 30
0.0
 11
-2461.310001690894
 21
2166.608761550021
 31
0.0
  0
SOLID
  5
3BA2
330
3A52
100
AcDbEntity
  8
0
100
AcDbTrace
 10
-2543.194721997846
 20
2167.442094883354
 30
0.0
 11
-2543.194721997846
 21
2165.775428216687
 31
0.0
 12
-2548.194721997846
 22
2166.608761550021
 32
0.0
 13
-2548.194721997846
 23
2166.608761550021
 33
0.0
  0
SOLID
  5
3BA3
330
3A52
100
AcDbEntity
  8
0
100
AcDbTrace
 10
-2412.194722038786
 20
2167.442094883354
 30
0.0
 11
-2412.194722038786
 21
2165.775428216687
 31
0.0
 12
-2407.194722038785
 22
2166.608761550021
 32
0.0
 13
-2407.194722038785
 23
2166.608761550021
 33
0.0
  0
MTEXT
  5
3BA4
330
3A52
100
AcDbEntity
  8
0
 62
     0
100
AcDbMText
 10
-2477.694722018315
 20
2166.608761550021
 30
0.0
 40
10.0
 41
0.0
 71
     5
 72
     1
  1
\A2;141.0
  7
ARIAL
 73
     1
 44
1.0
1001
ACAD
1000
MTEXTBEGIN
1070
    73
1070
     1
1070
    44
1040
1.0
1070
    74
1070
     0
1000
MTEXTEND
  0
POINT
  5
3BA5
330
3A52
100
AcDbEntity
  8
Defpoints
 62
     0
100
AcDbPoint
 10
-2548.194721997846
 20
2152.781086913813
 30
0.0
  0
POINT
  5
3BA6
330
3A52
100
AcDbEntity
  8
Defpoints
 62
     0
100
AcDbPoint
 10
-2407.194722038785
 20
2152.781086913813
 30
0.0
  0
POINT
  5
3BA7
330
3A52
100
AcDbEntity
  8
Defpoints
 62
     0
100
AcDbPoint
 10
-2407.194722038785
 20
2166.608761550021
 30
0.0
  0
ENDBLK
  5
3A54
330
3A52
100
AcDbEntity
  8
0
100
AcDbBlockEnd
  0
BLOCK
  5
3A88
330
3A87
100
AcDbEntity
  8
0
100
AcDbBlockBegin
  2
*D39
 70
     1
 10
0.0
 20
0.0
 30
0.0
  3
*D39
  1

  0
LINE
  5
3A8A
330
3A87
100
AcDbEntity
  8
0
370
    15
100
AcDbLine
 10
-2540.194722003608
 20
2216.233095155907
 30
0.0
 11
-2540.194722003608
 21
2220.233095155907
 31
0.0
  0
LINE
  5
3A8B
330
3A87
100
AcDbEntity
  8
0
370
    15
100
AcDbLine
 10
-2415.194722032509
 20
2216.233095155907
 30
0.0
 11
-2415.194722032509
 21
2220.233095155907
 31
0.0
  0
LINE
  5
3A8C
330
3A87
100
AcDbEntity
  8
0
370
    -2
100
AcDbLine
 10
-2535.194722003608
 20
2218.233095155907
 30
0.0
 11
-2494.07944234548
 21
2218.233095155907
 31
0.0
  0
LINE
  5
3A8D
330
3A87
100
AcDbEntity
  8
0
370
    -2
100
AcDbLine
 10
-2420.194722032509
 20
2218.233095155907
 30
0.0
 11
-2461.310001690637
 21
2218.233095155907
 31
0.0
  0
SOLID
  5
3A8E
330
3A87
100
AcDbEntity
  8
0
100
AcDbTrace
 10
-2535.194722003608
 20
2219.066428489241
 30
0.0
 11
-2535.194722003608
 21
2217.399761822574
 31
0.0
 12
-2540.194722003608
 22
2218.233095155907
 32
0.0
 13
-2540.194722003608
 23
2218.233095155907
 33
0.0
  0
SOLID
  5
3A8F
330
3A87
100
AcDbEntity
  8
0
100
AcDbTrace
 10
-2420.194722032509
 20
2219.066428489241
 30
0.0
 11
-2420.194722032509
 21
2217.399761822574
 31
0.0
 12
-2415.194722032509
 22
2218.233095155907
 32
0.0
 13
-2415.194722032509
 23
2218.233095155907
 33
0.0
  0
MTEXT
  5
3A90
330
3A87
100
AcDbEntity
  8
0
 62
     0
100
AcDbMText
 10
-2477.694722018058
 20
2218.233095155907
 30
0.0
 40
10.0
 41
0.0
 71
     5
 72
     1
  1
\A2;125.0
  7
ARIAL
 73
     1
 44
1.0
1001
ACAD
1000
MTEXTBEGIN
1070
    73
1070
     1
1070
    44
1040
1.0
1070
    74
1070
     0
1000
MTEXTEND
  0
POINT
  5
3A91
330
3A87
100
AcDbEntity
  8
Defpoints
 62
     0
100
AcDbPoint
 10
-2540.194722003608
 20
2144.781086919703
 30
0.0
  0
POINT
  5
3A92
330
3A87
100
AcDbEntity
  8
Defpoints
 62
     0
100
AcDbPoint
 10
-2415.194722032509
 20
2144.781086919703
 30
0.0
  0
POINT
  5
3A93
330
3A87
100
AcDbEntity
  8
Defpoints
 62
     0
100
AcDbPoint
 10
-2415.194722032509
 20
2218.233095155907
 30
0.0
  0
ENDBLK
  5
3A89
330
3A87
100
AcDbEntity
  8
0
100
AcDbBlockEnd
  0
BLOCK
  5
3BAA
330
3BA9
100
AcDbEntity
  8
0
100
AcDbBlockBegin
  2
*D40
 70
     1
 10
0.0
 20
0.0
 30
0.0
  3
*D40
  1

  0
LINE
  5
3EDE
330
3BA9
100
AcDbEntity
  8
0
370
    15
100
AcDbLine
 10
-2528.194721997846
 20
2174.608761544132
 30
0.0
 11
-2528.194721997846
 21
2178.608761544132
 31
0.0
  0
LINE
  5
3EDF
330
3BA9
100
AcDbEntity
  8
0
370
    15
100
AcDbLine
 10
-2387.194722038785
 20
2174.608761544132
 30
0.0
 11
-2387.194722038785
 21
2178.608761544132
 31
0.0
  0
LINE
  5
3EE0
330
3BA9
100
AcDbEntity
  8
0
370
    -2
100
AcDbLine
 10
-2523.194721997847
 20
2176.608761544132
 30
0.0
 11
-2474.079442345737
 21
2176.608761544132
 31
0.0
  0
LINE
  5
3EE1
330
3BA9
100
AcDbEntity
  8
0
370
    -2
100
AcDbLine
 10
-2392.194722038786
 20
2176.608761544132
 30
0.0
 11
-2441.310001690894
 21
2176.608761544132
 31
0.0
  0
SOLID
  5
3EE2
330
3BA9
100
AcDbEntity
  8
0
100
AcDbTrace
 10
-2523.194721997847
 20
2177.442094877465
 30
0.0
 11
-2523.194721997847
 21
2175.775428210799
 31
0.0
 12
-2528.194721997846
 22
2176.608761544132
 32
0.0
 13
-2528.194721997846
 23
2176.608761544132
 33
0.0
  0
SOLID
  5
3EE3
330
3BA9
100
AcDbEntity
  8
0
100
AcDbTrace
 10
-2392.194722038786
 20
2177.442094877465
 30
0.0
 11
-2392.194722038786
 21
2175.775428210799
 31
0.0
 12
-2387.194722038785
 22
2176.608761544132
 32
0.0
 13
-2387.194722038785
 23
2176.608761544132
 33
0.0
  0
MTEXT
  5
3EE4
330
3BA9
100
AcDbEntity
  8
0
 62
     0
100
AcDbMText
 10
-2457.694722018316
 20
2176.608761544132
 30
0.0
 40
10.0
 41
0.0
 71
     5
 72
     1
  1
\A2;141.0
  7
ARIAL
 73
     1
 44
1.0
1001
ACAD
1000
MTEXTBEGIN
1070
    73
1070
     1
1070
    44
1040
1.0
1070
    74
1070
     0
1000
MTEXTEND
  0
POINT
  5
3EE5
330
3BA9
100
AcDbEntity
  8
Defpoints
 62
     0
100
AcDbPoint
 10
-2528.194721997846
 20
2152.781086913813
 30
0.0
  0
POINT
  5
3EE6
330
3BA9
100
AcDbEntity
  8
Defpoints
 62
     0
100
AcDbPoint
 10
-2387.194722038785
 20
2152.781086913813
 30
0.0
  0
POINT
  5
3EE7
330
3BA9
100
AcDbEntity
  8
Defpoints
 62
     0
100
AcDbPoint
 10
-2387.194722038785
 20
2176.608761544132
 30
0.0
  0
ENDBLK
  5
3BAB
330
3BA9
100
AcDbEntity
  8
0
100
AcDbBlockEnd
  0
BLOCK
  5
3F8A
330
3F89
100
AcDbEntity
  8
0
100
AcDbBlockBegin
  2
*D41
 70
     1
 10
0.0
 20
0.0
 30
0.0
  3
*D41
  1

  0
LINE
  5
3F8B
330
3F89
100
AcDbEntity
  8
0
370
    15
100
AcDbLine
 10
-3422.203639056931
 20
2154.608761562063
 30
0.0
 11
-3422.203639056931
 21
2158.608761562063
 31
0.0
  0
LINE
  5
3F8C
330
3F89
100
AcDbEntity
  8
0
370
    15
100
AcDbLine
 10
-3321.203639066031
 20
2154.608761562063
 30
0.0
 11
-3321.203639066031
 21
2158.608761562063
 31
0.0
  0
LINE
  5
3F8D
330
3F89
100
AcDbEntity
  8
0
370
    -2
100
AcDbLine
 10
-3417.203639056931
 20
2156.608761562063
 30
0.0
 11
-3388.088359388903
 21
2156.608761562063
 31
0.0
  0
LINE
  5
3F8E
330
3F89
100
AcDbEntity
  8
0
370
    -2
100
AcDbLine
 10
-3326.203639066032
 20
2156.608761562063
 30
0.0
 11
-3355.318918734059
 21
2156.608761562063
 31
0.0
  0
SOLID
  5
3F8F
330
3F89
100
AcDbEntity
  8
0
100
AcDbTrace
 10
-3417.203639056931
 20
2157.442094895397
 30
0.0
 11
-3417.203639056931
 21
2155.77542822873
 31
0.0
 12
-3422.203639056931
 22
2156.608761562063
 32
0.0
 13
-3422.203639056931
 23
2156.608761562063
 33
0.0
  0
SOLID
  5
3F90
330
3F89
100
AcDbEntity
  8
0
100
AcDbTrace
 10
-3326.203639066032
 20
2157.442094895397
 30
0.0
 11
-3326.203639066032
 21
2155.77542822873
 31
0.0
 12
-3321.203639066031
 22
2156.608761562063
 32
0.0
 13
-3321.203639066031
 23
2156.608761562063
 33
0.0
  0
MTEXT
  5
3F91
330
3F89
100
AcDbEntity
  8
0
 62
     0
100
AcDbMText
 10
-3371.703639061482
 20
2156.608761562063
 30
0.0
 40
10.0
 41
0.0
 71
     5
 72
     1
  1
\A2;101.0
  7
ARIAL
 73
     1
 44
1.0
1001
ACAD
1000
MTEXTBEGIN
1070
    73
1070
     1
1070
    44
1040
1.0
1070
    74
1070
     0
1000
MTEXTEND
  0
POINT
  5
3F92
330
3F89
100
AcDbEntity
  8
Defpoints
 62
     0
100
AcDbPoint
 10
-3422.203639056931
 20
2132.781086931746
 30
0.0
  0
POINT
  5
3F93
330
3F89
100
AcDbEntity
  8
Defpoints
 62
     0
100
AcDbPoint
 10
-3321.203639066031
 20
2132.781086931746
 30
0.0
  0
POINT
  5
3F94
330
3F89
100
AcDbEntity
  8
Defpoints
 62
     0
100
AcDbPoint
 10
-3321.203639066031
 20
2156.608761562063
 30
0.0
  0
ENDBLK
  5
3F95
330
3F89
100
AcDbEntity
  8
0
100
AcDbBlockEnd
  0
BLOCK
  5
3F97
330
3F96
100
AcDbEntity
  8
0
100
AcDbBlockBegin
  2
*D42
 70
     1
 10
0.0
 20
0.0
 30
0.0
  3
*D42
  1

  0
LINE
  5
3F98
330
3F96
100
AcDbEntity
  8
0
370
    15
100
AcDbLine
 10
-3613.458289627637
 20
2303.678530634036
 30
0.0
 11
-3613.458289627637
 21
2307.678530634036
 31
0.0
  0
LINE
  5
3F99
330
3F96
100
AcDbEntity
  8
0
370
    15
100
AcDbLine
 10
-3508.458289627637
 20
2303.678530634036
 30
0.0
 11
-3508.458289627637
 21
2307.678530634036
 31
0.0
  0
LINE
  5
3F9A
330
3F96
100
AcDbEntity
  8
0
370
    -2
100
AcDbLine
 10
-3608.458289627637
 20
2305.678530634036
 30
0.0
 11
-3577.343009955058
 21
2305.678530634036
 31
0.0
  0
LINE
  5
3F9B
330
3F96
100
AcDbEntity
  8
0
370
    -2
100
AcDbLine
 10
-3513.458289627636
 20
2305.678530634036
 30
0.0
 11
-3544.573569300215
 21
2305.678530634036
 31
0.0
  0
SOLID
  5
3F9C
330
3F96
100
AcDbEntity
  8
0
100
AcDbTrace
 10
-3608.458289627637
 20
2306.511863967369
 30
0.0
 11
-3608.458289627637
 21
2304.845197300702
 31
0.0
 12
-3613.458289627637
 22
2305.678530634036
 32
0.0
 13
-3613.458289627637
 23
2305.678530634036
 33
0.0
  0
SOLID
  5
3F9D
330
3F96
100
AcDbEntity
  8
0
100
AcDbTrace
 10
-3513.458289627636
 20
2306.511863967369
 30
0.0
 11
-3513.458289627636
 21
2304.845197300702
 31
0.0
 12
-3508.458289627637
 22
2305.678530634036
 32
0.0
 13
-3508.458289627637
 23
2305.678530634036
 33
0.0
  0
MTEXT
  5
3F9E
330
3F96
100
AcDbEntity
  8
0
 62
     0
100
AcDbMText
 10
-3560.958289627637
 20
2305.678530634036
 30
0.0
 40
10.0
 41
0.0
 71
     5
 72
     1
  1
\A2;105.0
  7
ARIAL
 73
     1
 44
1.0
1001
ACAD
1000
MTEXTBEGIN
1070
    73
1070
     1
1070
    44
1040
1.0
1070
    74
1070
     0
1000
MTEXTEND
  0
POINT
  5
3F9F
330
3F96
100
AcDbEntity
  8
Defpoints
 62
     0
100
AcDbPoint
 10
-3613.458289627637
 20
2269.781086936097
 30
0.0
  0
POINT
  5
3FA0
330
3F96
100
AcDbEntity
  8
Defpoints
 62
     0
100
AcDbPoint
 10
-3508.458289627637
 20
2269.781086936096
 30
0.0
  0
POINT
  5
3FA1
330
3F96
100
AcDbEntity
  8
Defpoints
 62
     0
100
AcDbPoint
 10
-3508.458289627637
 20
2305.678530634036
 30
0.0
  0
ENDBLK
  5
3FA2
330
3F96
100
AcDbEntity
  8
0
100
AcDbBlockEnd
  0
BLOCK
  5
3FA4
330
3FA3
100
AcDbEntity
  8
0
100
AcDbBlockBegin
  2
*D43
 70
     1
 10
0.0
 20
0.0
 30
0.0
  3
*D43
  1

  0
LINE
  5
3FA5
330
3FA3
100
AcDbEntity
  8
0
370
    15
100
AcDbLine
 10
-3472.387883738546
 20
2269.781086936097
 30
0.0
 11
-3468.387883738546
 21
2269.781086936097
 31
0.0
  0
LINE
  5
3FA6
330
3FA3
100
AcDbEntity
  8
0
370
    15
100
AcDbLine
 10
-3472.387883738546
 20
2119.781086936097
 30
0.0
 11
-3468.387883738546
 21
2119.781086936097
 31
0.0
  0
LINE
  5
3FA7
330
3FA3
100
AcDbEntity
  8
0
370
    -2
100
AcDbLine
 10
-3470.387883738546
 20
2264.781086936097
 30
0.0
 11
-3470.387883738546
 21
2211.165807263519
 31
0.0
  0
LINE
  5
3FA8
330
3FA3
100
AcDbEntity
  8
0
370
    -2
100
AcDbLine
 10
-3470.387883738546
 20
2124.781086936097
 30
0.0
 11
-3470.387883738546
 21
2178.396366608675
 31
0.0
  0
SOLID
  5
3FA9
330
3FA3
100
AcDbEntity
  8
0
100
AcDbTrace
 10
-3471.221217071879
 20
2264.781086936097
 30
0.0
 11
-3469.554550405212
 21
2264.781086936097
 31
0.0
 12
-3470.387883738546
 22
2269.781086936097
 32
0.0
 13
-3470.387883738546
 23
2269.781086936097
 33
0.0
  0
SOLID
  5
3FAA
330
3FA3
100
AcDbEntity
  8
0
100
AcDbTrace
 10
-3471.221217071879
 20
2124.781086936097
 30
0.0
 11
-3469.554550405212
 21
2124.781086936097
 31
0.0
 12
-3470.387883738546
 22
2119.781086936097
 32
0.0
 13
-3470.387883738546
 23
2119.781086936097
 33
0.0
  0
MTEXT
  5
3FAB
330
3FA3
100
AcDbEntity
  8
0
 62
     0
100
AcDbMText
 10
-3470.387883738544
 20
2194.781086936098
 30
0.0
 40
10.0
 41
0.0
 71
     5
 72
     1
  1
\A2;150.0
  7
ARIAL
 11
0.0000000000000001
 21
1.0
 31
0.0
 73
     1
 44
1.0
1001
ACAD
1000
MTEXTBEGIN
1070
    73
1070
     1
1070
    44
1040
1.0
1070
    74
1070
     0
1000
MTEXTEND
  0
POINT
  5
3FAC
330
3FA3
100
AcDbEntity
  8
Defpoints
 62
     0
100
AcDbPoint
 10
-3508.458289627639
 20
2269.781086936097
 30
0.0
  0
POINT
  5
3FAD
330
3FA3
100
AcDbEntity
  8
Defpoints
 62
     0
100
AcDbPoint
 10
-3508.458289627639
 20
2119.781086936097
 30
0.0
  0
POINT
  5
3FAE
330
3FA3
100
AcDbEntity
  8
Defpoints
 62
     0
100
AcDbPoint
 10
-3470.387883738546
 20
2119.781086936097
 30
0.0
  0
ENDBLK
  5
3FAF
330
3FA3
100
AcDbEntity
  8
0
100
AcDbBlockEnd
  0
BLOCK
  5
3FB1
330
3FB0
100
AcDbEntity
  8
0
100
AcDbBlockBegin
  2
*D44
 70
     1
 10
0.0
 20
0.0
 30
0.0
  3
*D44
  1

  0
LINE
  5
3FB2
330
3FB0
100
AcDbEntity
  8
0
370
    15
100
AcDbLine
 10
-3673.071675923962
 20
2269.781086936098
 30
0.0
 11
-3677.071675923963
 21
2269.781086936098
 31
0.0
  0
LINE
  5
3FB3
330
3FB0
100
AcDbEntity
  8
0
370
    15
100
AcDbLine
 10
-3673.071675923962
 20
1369.781086936096
 30
0.0
 11
-3677.071675923963
 21
1369.781086936096
 31
0.0
  0
LINE
  5
3FB4
330
3FB0
100
AcDbEntity
  8
0
370
    -2
100
AcDbLine
 10
-3675.071675923962
 20
2264.781086936098
 30
0.0
 11
-3675.071675923962
 21
1836.636475749194
 31
0.0
  0
LINE
  5
3FB5
330
3FB0
100
AcDbEntity
  8
0
370
    -2
100
AcDbLine
 10
-3675.071675923962
 20
1374.781086936096
 30
0.0
 11
-3675.071675923962
 21
1802.925698123
 31
0.0
  0
SOLID
  5
3FB6
330
3FB0
100
AcDbEntity
  8
0
100
AcDbTrace
 10
-3675.905009257296
 20
2264.781086936098
 30
0.0
 11
-3674.238342590629
 21
2264.781086936098
 31
0.0
 12
-3675.071675923962
 22
2269.781086936098
 32
0.0
 13
-3675.071675923962
 23
2269.781086936098
 33
0.0
  0
SOLID
  5
3FB7
330
3FB0
100
AcDbEntity
  8
0
100
AcDbTrace
 10
-3675.905009257296
 20
1374.781086936096
 30
0.0
 11
-3674.238342590629
 21
1374.781086936096
 31
0.0
 12
-3675.071675923962
 22
1369.781086936096
 32
0.0
 13
-3675.071675923962
 23
1369.781086936096
 33
0.0
  0
MTEXT
  5
3FB8
330
3FB0
100
AcDbEntity
  8
0
 62
     0
100
AcDbMText
 10
-3675.071675923961
 20
1819.781086936098
 30
0.0
 40
10.0
 41
0.0
 71
     5
 72
     1
  1
\A2;900.0
  7
ARIAL
 11
0.0000000000000001
 21
1.0
 31
0.0
 73
     1
 44
1.0
1001
ACAD
1000
MTEXTBEGIN
1070
    73
1070
     1
1070
    44
1040
1.0
1070
    74
1070
     0
1000
MTEXTEND
  0
POINT
  5
3FB9
330
3FB0
100
AcDbEntity
  8
Defpoints
 62
     0
100
AcDbPoint
 10
-3608.45828962764
 20
2269.781086936098
 30
0.0
  0
POINT
  5
3FBA
330
3FB0
100
AcDbEntity
  8
Defpoints
 62
     0
100
AcDbPoint
 10
-3563.958289627639
 20
1369.781086936096
 30
0.0
  0
POINT
  5
3FBB
330
3FB0
100
AcDbEntity
  8
Defpoints
 62
     0
100
AcDbPoint
 10
-3675.071675923962
 20
1369.781086936096
 30
0.0
  0
ENDBLK
  5
3FBC
330
3FB0
100
AcDbEntity
  8
0
100
AcDbBlockEnd
  0
BLOCK
  5
3FF8
330
3FF7
100
AcDbEntity
  8
0
100
AcDbBlockBegin
  2
*D46
 70
     1
 10
0.0
 20
0.0
 30
0.0
  3
*D46
  1

  0
LINE
  5
402B
330
3FF7
100
AcDbEntity
  8
0
370
    15
100
AcDbLine
 10
-17304.22233266282
 20
15270.49771587123
 30
0.0
 11
-17304.22233266282
 21
15274.49771587123
 31
0.0
  0
LINE
  5
402C
330
3FF7
100
AcDbEntity
  8
0
370
    15
100
AcDbLine
 10
-17199.22233266282
 20
15270.49771587123
 30
0.0
 11
-17199.22233266282
 21
15274.49771587123
 31
0.0
  0
LINE
  5
402D
330
3FF7
100
AcDbEntity
  8
0
370
    -2
100
AcDbLine
 10
-17299.22233266282
 20
15272.49771587123
 30
0.0
 11
-17268.10705299024
 21
15272.49771587123
 31
0.0
  0
LINE
  5
402E
330
3FF7
100
AcDbEntity
  8
0
370
    -2
100
AcDbLine
 10
-17204.22233266282
 20
15272.49771587123
 30
0.0
 11
-17235.3376123354
 21
15272.49771587123
 31
0.0
  0
SOLID
  5
402F
330
3FF7
100
AcDbEntity
  8
0
100
AcDbTrace
 10
-17299.22233266282
 20
15273.33104920456
 30
0.0
 11
-17299.22233266282
 21
15271.6643825379
 31
0.0
 12
-17304.22233266282
 22
15272.49771587123
 32
0.0
 13
-17304.22233266282
 23
15272.49771587123
 33
0.0
  0
SOLID
  5
4030
330
3FF7
100
AcDbEntity
  8
0
100
AcDbTrace
 10
-17204.22233266282
 20
15273.33104920456
 30
0.0
 11
-17204.22233266282
 21
15271.6643825379
 31
0.0
 12
-17199.22233266282
 22
15272.49771587123
 32
0.0
 13
-17199.22233266282
 23
15272.49771587123
 33
0.0
  0
MTEXT
  5
4031
330
3FF7
100
AcDbEntity
  8
0
 62
     0
100
AcDbMText
 10
-17251.72233266282
 20
15272.49771587123
 30
0.0
 40
10.0
 41
0.0
 71
     5
 72
     1
  1
\A2;105.0
  7
ARIAL
 73
     1
 44
1.0
1001
ACAD
1000
MTEXTBEGIN
1070
    73
1070
     1
1070
    44
1040
1.0
1070
    74
1070
     0
1000
MTEXTEND
  0
POINT
  5
4032
330
3FF7
100
AcDbEntity
  8
Defpoints
 62
     0
100
AcDbPoint
 10
-17304.22233266282
 20
15236.60027217329
 30
0.0
  0
POINT
  5
4033
330
3FF7
100
AcDbEntity
  8
Defpoints
 62
     0
100
AcDbPoint
 10
-17199.22233266282
 20
15236.60027217329
 30
0.0
  0
POINT
  5
4034
330
3FF7
100
AcDbEntity
  8
Defpoints
 62
     0
100
AcDbPoint
 10
-17199.22233266282
 20
15272.49771587123
 30
0.0
  0
ENDBLK
  5
3FF9
330
3FF7
100
AcDbEntity
  8
0
100
AcDbBlockEnd
  0
BLOCK
  5
4005
330
4004
100
AcDbEntity
  8
0
100
AcDbBlockBegin
  2
*D47
 70
     1
 10
0.0
 20
0.0
 30
0.0
  3
*D47
  1

  0
LINE
  5
4035
330
4004
100
AcDbEntity
  8
0
370
    15
100
AcDbLine
 10
-17163.15192677374
 20
15236.6002721733
 30
0.0
 11
-17159.15192677374
 21
15236.6002721733
 31
0.0
  0
LINE
  5
4036
330
4004
100
AcDbEntity
  8
0
370
    15
100
AcDbLine
 10
-17163.15192677374
 20
15086.6002721733
 30
0.0
 11
-17159.15192677374
 21
15086.6002721733
 31
0.0
  0
LINE
  5
4037
330
4004
100
AcDbEntity
  8
0
370
    -2
100
AcDbLine
 10
-17161.15192677374
 20
15231.6002721733
 30
0.0
 11
-17161.15192677374
 21
15177.98499250072
 31
0.0
  0
LINE
  5
4038
330
4004
100
AcDbEntity
  8
0
370
    -2
100
AcDbLine
 10
-17161.15192677374
 20
15091.6002721733
 30
0.0
 11
-17161.15192677374
 21
15145.21555184588
 31
0.0
  0
SOLID
  5
4039
330
4004
100
AcDbEntity
  8
0
100
AcDbTrace
 10
-17161.98526010707
 20
15231.6002721733
 30
0.0
 11
-17160.3185934404
 21
15231.6002721733
 31
0.0
 12
-17161.15192677374
 22
15236.6002721733
 32
0.0
 13
-17161.15192677374
 23
15236.6002721733
 33
0.0
  0
SOLID
  5
403A
330
4004
100
AcDbEntity
  8
0
100
AcDbTrace
 10
-17161.98526010707
 20
15091.6002721733
 30
0.0
 11
-17160.3185934404
 21
15091.6002721733
 31
0.0
 12
-17161.15192677374
 22
15086.6002721733
 32
0.0
 13
-17161.15192677374
 23
15086.6002721733
 33
0.0
  0
MTEXT
  5
403B
330
4004
100
AcDbEntity
  8
0
 62
     0
100
AcDbMText
 10
-17161.15192677373
 20
15161.6002721733
 30
0.0
 40
10.0
 41
0.0
 71
     5
 72
     1
  1
\A2;150.0
  7
ARIAL
 11
0.0000000000000001
 21
1.0
 31
0.0
 73
     1
 44
1.0
1001
ACAD
1000
MTEXTBEGIN
1070
    73
1070
     1
1070
    44
1040
1.0
1070
    74
1070
     0
1000
MTEXTEND
  0
POINT
  5
403C
330
4004
100
AcDbEntity
  8
Defpoints
 62
     0
100
AcDbPoint
 10
-17199.22233266283
 20
15236.6002721733
 30
0.0
  0
POINT
  5
403D
330
4004
100
AcDbEntity
  8
Defpoints
 62
     0
100
AcDbPoint
 10
-17199.22233266283
 20
15086.6002721733
 30
0.0
  0
POINT
  5
403E
330
4004
100
AcDbEntity
  8
Defpoints
 62
     0
100
AcDbPoint
 10
-17161.15192677374
 20
15086.6002721733
 30
0.0
  0
ENDBLK
  5
4006
330
4004
100
AcDbEntity
  8
0
100
AcDbBlockEnd
  0
BLOCK
  5
4012
330
4011
100
AcDbEntity
  8
0
100
AcDbBlockBegin
  2
*D48
 70
     1
 10
0.0
 20
0.0
 30
0.0
  3
*D48
  1

  0
LINE
  5
403F
330
4011
100
AcDbEntity
  8
0
370
    15
100
AcDbLine
 10
-17363.83571895915
 20
15236.6002721733
 30
0.0
 11
-17367.83571895915
 21
15236.6002721733
 31
0.0
  0
LINE
  5
4040
330
4011
100
AcDbEntity
  8
0
370
    15
100
AcDbLine
 10
-17363.83571895915
 20
14336.6002721733
 30
0.0
 11
-17367.83571895915
 21
14336.6002721733
 31
0.0
  0
LINE
  5
4041
330
4011
100
AcDbEntity
  8
0
370
    -2
100
AcDbLine
 10
-17365.83571895915
 20
15231.6002721733
 30
0.0
 11
-17365.83571895915
 21
14803.4556609864
 31
0.0
  0
LINE
  5
4042
330
4011
100
AcDbEntity
  8
0
370
    -2
100
AcDbLine
 10
-17365.83571895915
 20
14341.6002721733
 30
0.0
 11
-17365.83571895915
 21
14769.7448833602
 31
0.0
  0
SOLID
  5
4043
330
4011
100
AcDbEntity
  8
0
100
AcDbTrace
 10
-17366.66905229248
 20
15231.6002721733
 30
0.0
 11
-17365.00238562582
 21
15231.6002721733
 31
0.0
 12
-17365.83571895915
 22
15236.6002721733
 32
0.0
 13
-17365.83571895915
 23
15236.6002721733
 33
0.0
  0
SOLID
  5
4044
330
4011
100
AcDbEntity
  8
0
100
AcDbTrace
 10
-17366.66905229248
 20
14341.6002721733
 30
0.0
 11
-17365.00238562582
 21
14341.6002721733
 31
0.0
 12
-17365.83571895915
 22
14336.6002721733
 32
0.0
 13
-17365.83571895915
 23
14336.6002721733
 33
0.0
  0
MTEXT
  5
4045
330
4011
100
AcDbEntity
  8
0
 62
     0
100
AcDbMText
 10
-17365.83571895915
 20
14786.6002721733
 30
0.0
 40
10.0
 41
0.0
 71
     5
 72
     1
  1
\A2;900.0
  7
ARIAL
 11
0.0000000000000001
 21
1.0
 31
0.0
 73
     1
 44
1.0
1001
ACAD
1000
MTEXTBEGIN
1070
    73
1070
     1
1070
    44
1040
1.0
1070
    74
1070
     0
1000
MTEXTEND
  0
POINT
  5
4046
330
4011
100
AcDbEntity
  8
Defpoints
 62
     0
100
AcDbPoint
 10
-17299.22233266283
 20
15236.6002721733
 30
0.0
  0
POINT
  5
4047
330
4011
100
AcDbEntity
  8
Defpoints
 62
     0
100
AcDbPoint
 10
-17254.72233266283
 20
14336.6002721733
 30
0.0
  0
POINT
  5
4048
330
4011
100
AcDbEntity
  8
Defpoints
 62
     0
100
AcDbPoint
 10
-17365.83571895915
 20
14336.6002721733
 30
0.0
  0
ENDBLK
  5
4013
330
4011
100
AcDbEntity
  8
0
100
AcDbBlockEnd
  0
BLOCK
  5
401F
330
401E
100
AcDbEntity
  8
0
100
AcDbBlockBegin
  2
*D49
 70
     1
 10
0.0
 20
0.0
 30
0.0
  3
*D49
  1

  0
LINE
  5
4049
330
401E
100
AcDbEntity
  8
0
370
    15
100
AcDbLine
 10
-17112.96768209212
 20
15121.42794679926
 30
0.0
 11
-17112.96768209212
 21
15125.42794679926
 31
0.0
  0
LINE
  5
404A
330
401E
100
AcDbEntity
  8
0
370
    15
100
AcDbLine
 10
-17011.96768210122
 20
15121.42794679926
 30
0.0
 11
-17011.96768210122
 21
15125.42794679926
 31
0.0
  0
LINE
  5
404B
330
401E
100
AcDbEntity
  8
0
370
    -2
100
AcDbLine
 10
-17107.96768209212
 20
15123.42794679926
 30
0.0
 11
-17078.85240242409
 21
15123.42794679926
 31
0.0
  0
LINE
  5
404C
330
401E
100
AcDbEntity
  8
0
370
    -2
100
AcDbLine
 10
-17016.96768210122
 20
15123.42794679926
 30
0.0
 11
-17046.08296176925
 21
15123.42794679926
 31
0.0
  0
SOLID
  5
404D
330
401E
100
AcDbEntity
  8
0
100
AcDbTrace
 10
-17107.96768209212
 20
15124.26128013259
 30
0.0
 11
-17107.96768209212
 21
15122.59461346592
 31
0.0
 12
-17112.96768209212
 22
15123.42794679926
 32
0.0
 13
-17112.96768209212
 23
15123.42794679926
 33
0.0
  0
SOLID
  5
404E
330
401E
100
AcDbEntity
  8
0
100
AcDbTrace
 10
-17016.96768210122
 20
15124.26128013259
 30
0.0
 11
-17016.96768210122
 21
15122.59461346592
 31
0.0
 12
-17011.96768210122
 22
15123.42794679926
 32
0.0
 13
-17011.96768210122
 23
15123.42794679926
 33
0.0
  0
MTEXT
  5
404F
330
401E
100
AcDbEntity
  8
0
 62
     0
100
AcDbMText
 10
-17062.46768209667
 20
15123.42794679926
 30
0.0
 40
10.0
 41
0.0
 71
     5
 72
     1
  1
\A2;101.0
  7
ARIAL
 73
     1
 44
1.0
1001
ACAD
1000
MTEXTBEGIN
1070
    73
1070
     1
1070
    44
1040
1.0
1070
    74
1070
     0
1000
MTEXTEND
  0
POINT
  5
4050
330
401E
100
AcDbEntity
  8
Defpoints
 62
     0
100
AcDbPoint
 10
-17112.96768209212
 20
15099.60027216894
 30
0.0
  0
POINT
  5
4051
330
401E
100
AcDbEntity
  8
Defpoints
 62
     0
100
AcDbPoint
 10
-17011.96768210122
 20
15099.60027216894
 30
0.0
  0
POINT
  5
4052
330
401E
100
AcDbEntity
  8
Defpoints
 62
     0
100
AcDbPoint
 10
-17011.96768210122
 20
15123.42794679926
 30
0.0
  0
ENDBLK
  5
4020
330
401E
100
AcDbEntity
  8
0
100
AcDbBlockEnd
  0
BLOCK
  5
409B
330
409A
100
AcDbEntity
  8
0
100
AcDbBlockBegin
  2
*D50
 70
     1
 10
0.0
 20
0.0
 30
0.0
  3
*D50
  1

  0
LINE
  5
40A8
330
409A
100
AcDbEntity
  8
0
370
    15
100
AcDbLine
 10
-17199.22233266282
 20
15245.76977756761
 30
0.0
 11
-17199.22233266282
 21
15249.76977756761
 31
0.0
  0
LINE
  5
40A9
330
409A
100
AcDbEntity
  8
0
370
    15
100
AcDbLine
 10
-17304.22233266282
 20
15245.76977756761
 30
0.0
 11
-17304.22233266282
 21
15249.76977756761
 31
0.0
  0
LINE
  5
40AA
330
409A
100
AcDbEntity
  8
0
370
    -2
100
AcDbLine
 10
-17204.22233266282
 20
15247.76977756761
 30
0.0
 11
-17235.3376123354
 21
15247.76977756761
 31
0.0
  0
LINE
  5
40AB
330
409A
100
AcDbEntity
  8
0
370
    -2
100
AcDbLine
 10
-17299.22233266282
 20
15247.76977756761
 30
0.0
 11
-17268.10705299024
 21
15247.76977756761
 31
0.0
  0
SOLID
  5
40AC
330
409A
100
AcDbEntity
  8
0
100
AcDbTrace
 10
-17204.22233266282
 20
15248.60311090094
 30
0.0
 11
-17204.22233266282
 21
15246.93644423428
 31
0.0
 12
-17199.22233266282
 22
15247.76977756761
 32
0.0
 13
-17199.22233266282
 23
15247.76977756761
 33
0.0
  0
SOLID
  5
40AD
330
409A
100
AcDbEntity
  8
0
100
AcDbTrace
 10
-17299.22233266282
 20
15248.60311090094
 30
0.0
 11
-17299.22233266282
 21
15246.93644423428
 31
0.0
 12
-17304.22233266282
 22
15247.76977756761
 32
0.0
 13
-17304.22233266282
 23
15247.76977756761
 33
0.0
  0
MTEXT
  5
40AE
330
409A
100
AcDbEntity
  8
0
 62
     0
100
AcDbMText
 10
-17251.72233266282
 20
15247.76977756761
 30
0.0
 40
10.0
 41
0.0
 71
     5
 72
     1
  1
\A2;105.0
  7
ARIAL
 73
     1
 44
1.0
1001
ACAD
1000
MTEXTBEGIN
1070
    73
1070
     1
1070
    44
1040
1.0
1070
    74
1070
     0
1000
MTEXTEND
  0
POINT
  5
40AF
330
409A
100
AcDbEntity
  8
Defpoints
 62
     0
100
AcDbPoint
 10
-17199.22233266282
 20
15236.60027217329
 30
0.0
  0
POINT
  5
40B0
330
409A
100
AcDbEntity
  8
Defpoints
 62
     0
100
AcDbPoint
 10
-17304.22233266282
 20
15236.60027217329
 30
0.0
  0
POINT
  5
40B1
330
409A
100
AcDbEntity
  8
Defpoints
 62
     0
100
AcDbPoint
 10
-17304.22233266282
 20
15247.76977756761
 30
0.0
  0
ENDBLK
  5
409C
330
409A
100
AcDbEntity
  8
0
100
AcDbBlockEnd
  0
ENDSEC
  0
SECTION
  2
ENTITIES
  0
LWPOLYLINE
  5
3FDD
330
1F
100
AcDbEntity
  8
0
100
AcDbPolyline
 90
        4
 70
     1
 43
0.0
 10
-17011.96768210122
 20
15099.60027216894
 10
-17011.96768210122
 20
14998.60027217804
 10
-17112.96768209212
 20
14998.60027217804
 10
-17112.96768209212
 20
15099.60027216894
  0
LWPOLYLINE
  5
3FDE
330
1F
100
AcDbEntity
  8
0
100
AcDbPolyline
 90
        4
 70
     1
 43
0.0
 10
-17009.96768210122
 20
15101.60027216894
 10
-17009.96768210122
 20
14996.60027217804
 10
-17114.96768209212
 20
14996.60027217804
 10
-17114.96768209212
 20
15101.60027216894
  0
LWPOLYLINE
  5
3FDF
330
1F
100
AcDbEntity
  8
0
100
AcDbPolyline
 90
        4
 70
     1
 43
0.0
 10
-17087.46768209513
 20
15074.10027217272
 10
-17037.46768209513
 20
15074.10027217272
 10
-17037.46768209513
 20
15024.10027217272
 10
-17087.46768209513
 20
15024.10027217272
  0
LINE
  5
3FE0
330
1F
100
AcDbEntity
  8
0
100
AcDbLine
 10
-17037.46768209513
 20
15067.33303549475
 30
0.0
 11
-17055.70044541678
 21
15049.1002721731
 31
0.0
  0
LINE
  5
3FE1
330
1F
100
AcDbEntity
  8
0
100
AcDbLine
 10
-17062.46768209552
 20
15042.33303549436
 30
0.0
 11
-17080.70044541717
 21
15024.10027217272
 31
0.0
  0
LINE
  5
3FE2
330
1F
100
AcDbEntity
  8
0
100
AcDbLine
 10
-17044.23491877465
 20
15074.10027217272
 30
0.0
 11
-17062.46768209552
 21
15055.86750885185
 31
0.0
  0
LINE
  5
3FE3
330
1F
100
AcDbEntity
  8
0
100
AcDbLine
 10
-17069.23491877426
 20
15049.1002721731
 30
0.0
 11
-17087.46768209513
 21
15030.86750885224
 31
0.0
  0
LINE
  5
3FE4
330
1F
100
AcDbEntity
  8
0
100
AcDbLine
 10
-17080.70044541639
 20
15074.10027217272
 30
0.0
 11
-17062.46768209552
 21
15055.86750885185
 31
0.0
  0
LINE
  5
3FE5
330
1F
100
AcDbEntity
  8
0
100
AcDbLine
 10
-17055.70044541678
 20
15049.1002721731
 30
0.0
 11
-17037.46768209513
 21
15030.86750885145
 31
0.0
  0
LINE
  5
3FE6
330
1F
100
AcDbEntity
  8
0
100
AcDbLine
 10
-17087.46768209513
 20
15067.33303549397
 30
0.0
 11
-17069.23491877426
 21
15049.1002721731
 31
0.0
  0
LINE
  5
3FE7
330
1F
100
AcDbEntity
  8
0
100
AcDbLine
 10
-17062.46768209552
 20
15042.33303549436
 30
0.0
 11
-17044.23491877388
 21
15024.10027217272
 31
0.0
  0
LWPOLYLINE
  5
3FE8
330
1F
100
AcDbEntity
  8
0
100
AcDbPolyline
 90
        4
 70
     1
 43
0.0
 10
-17304.22233266282
 20
15086.60027217329
 10
-17199.22233266282
 20
15086.60027217329
 10
-17199.22233266282
 20
15236.60027217329
 10
-17304.22233266282
 20
15236.60027217329
  0
LINE
  5
3FE9
330
1F
100
AcDbEntity
  8
0
100
AcDbLine
 10
-17248.72233266282
 20
14336.60027217329
 30
0.0
 11
-17199.22233266282
 21
15086.60027217329
 31
0.0
  0
LINE
  5
3FEA
330
1F
100
AcDbEntity
  8
0
100
AcDbLine
 10
-17304.22233266282
 20
15086.60027217329
 30
0.0
 11
-17254.72233266282
 21
14336.60027217329
 31
0.0
  0
LINE
  5
3FEB
330
1F
100
AcDbEntity
  8
0
100
AcDbLine
 10
-17254.72233266282
 20
14336.60027217329
 30
0.0
 11
-17248.72233266282
 21
14336.60027217329
 31
0.0
  0
CIRCLE
  5
3FEC
330
1F
100
AcDbEntity
  8
0
100
AcDbCircle
 10
-17251.72233266282
 20
15206.60027217329
 30
0.0
 40
6.25
  0
CIRCLE
  5
3FED
330
1F
100
AcDbEntity
  8
0
100
AcDbCircle
 10
-17251.72233266282
 20
15156.60027217329
 30
0.0
 40
6.25
  0
LINE
  5
3FF2
330
1F
100
AcDbEntity
  8
0
100
AcDbLine
 10
-17112.96768209212
 20
15099.60027216894
 30
0.0
 11
-17087.46768209513
 21
15074.10027217272
 31
0.0
  0
LINE
  5
3FF3
330
1F
100
AcDbEntity
  8
0
100
AcDbLine
 10
-17011.96768210122
 20
15099.60027216894
 30
0.0
 11
-17037.46768209513
 21
15074.10027217272
 31
0.0
  0
LINE
  5
3FF4
330
1F
100
AcDbEntity
  8
0
100
AcDbLine
 10
-17087.46768209513
 20
15024.10027217272
 30
0.0
 11
-17112.96768209212
 21
14998.60027217804
 31
0.0
  0
LINE
  5
3FF5
330
1F
100
AcDbEntity
  8
0
100
AcDbLine
 10
-17037.46768209513
 20
15024.10027217272
 30
0.0
 11
-17011.96768210122
 21
14998.60027217804
 31
0.0
  0
LINE
  5
3FF6
330
1F
100
AcDbEntity
  8
0
100
AcDbLine
 10
-17251.72233266282
 20
15086.60027217329
 30
0.0
 11
-17251.72233266282
 21
14336.60027217329
 31
0.0
  0
ENDSEC
  0
SECTION
  2
OBJECTS
  0
DICTIONARY
  5
C
330
0
100
AcDbDictionary
281
     1
  3
ACAD_2007HEADERVARS_RT
350
40B6
  3
ACAD_BACKGROUND
350
373E
  3
ACAD_CIP_PREVIOUS_PRODUCT_INFO
350
1A5
  3
ACAD_COLOR
350
73
  3
ACAD_DETAILVIEWSTYLE
350
1AB
  3
ACAD_GROUP
350
D
  3
ACAD_IMAGE_DICT
350
112E
  3
ACAD_IMAGE_VARS
350
1132
  3
ACAD_LAYOUT
350
1A
  3
ACAD_MATERIAL
350
72
  3
ACAD_MLEADERSTYLE
350
D7
  3
ACAD_MLINESTYLE
350
17
  3
ACAD_PLOTSETTINGS
350
19
  3
ACAD_PLOTSTYLENAME
350
E
  3
ACAD_SCALELIST
350
B6
  3
ACAD_SECTIONVIEWSTYLE
350
1A8
  3
ACAD_TABLESTYLE
350
86
  3
ACAD_VISUALSTYLE
350
99
  3
ACDB_RECOMPOSE_DATA
350
40B4
  3
AcDbVariableDictionary
350
66
  3
DWGPROPS
350
40B5
  0
DICTIONARY
  5
18E
330
2
100
AcDbDictionary
280
     1
281
     1
  3
ACAD_LAYERSTATES
360
18F
  0
DICTIONARY
  5
E6
330
10
100
AcDbDictionary
280
     1
281
     1
  0
DICTIONARY
  5
5C2
330
5C1
100
AcDbDictionary
280
     1
281
     1
  0
DICTIONARY
  5
102A
330
1029
100
AcDbDictionary
280
     1
281
     1
  0
DICTIONARY
  5
15D
330
1F
100
AcDbDictionary
280
     1
281
     1
  3
ACAD_SORTENTS
360
3216
  0
DICTIONARY
  5
40B6
102
{ACAD_REACTORS
330
C
102
}
330
C
100
AcDbDictionary
281
     1
  3
DIMFXL
350
40B8
  3
DIMFXLON
350
40B7
  0
DICTIONARY
  5
373E
102
{ACAD_REACTORS
330
C
102
}
330
C
100
AcDbDictionary
281
     1
  0
XRECORD
  5
1A5
102
{ACAD_REACTORS
330
C
102
}
330
C
100
AcDbXrecord
280
     1
300
ACD
300
2017
300
ACD_F_S
  0
DICTIONARY
  5
73
102
{ACAD_REACTORS
330
C
102
}
330
C
100
AcDbDictionary
281
     1
  0
DICTIONARY
  5
1AB
102
{ACAD_REACTORS
330
C
102
}
330
C
100
AcDbDictionary
281
     1
  3
Imperial24
350
1AC
  3
Metric50
350
201
  0
DICTIONARY
  5
D
102
{ACAD_REACTORS
330
C
102
}
330
C
100
AcDbDictionary
281
     1
  0
DICTIONARY
  5
112E
102
{ACAD_REACTORS
330
C
102
}
330
C
100
AcDbDictionary
281
     1
  3
BorgaItalia-auto
350
112F
  0
RASTERVARIABLES
  5
1132
102
{ACAD_REACTORS
330
C
102
}
330
C
100
AcDbRasterVariables
 90
        0
 70
     1
 71
     1
 72
     5
  0
DICTIONARY
  5
1A
102
{ACAD_REACTORS
330
C
102
}
330
C
100
AcDbDictionary
281
     1
  3
Layout1
350
59
  3
Layout2
350
5E
  3
Model
350
22
  0
DICTIONARY
  5
72
102
{ACAD_REACTORS
330
C
102
}
330
C
100
AcDbDictionary
281
     1
  3
ByBlock
350
97
  3
ByLayer
350
96
  3
Global
350
98
  0
DICTIONARY
  5
D7
102
{ACAD_REACTORS
330
C
102
}
330
C
100
AcDbDictionary
281
     1
  3
Annotativa
350
E5
  3
Standard
350
D8
  0
DICTIONARY
  5
17
102
{ACAD_REACTORS
330
C
102
}
330
C
100
AcDbDictionary
281
     1
  3
Standard
350
18
  0
DICTIONARY
  5
19
102
{ACAD_REACTORS
330
C
102
}
330
C
100
AcDbDictionary
281
     1
  0
ACDBDICTIONARYWDFLT
  5
E
102
{ACAD_REACTORS
330
C
102
}
330
C
100
AcDbDictionary
281
     1
  3
Color_1
350
5C6
  3
Normal
350
F
100
AcDbDictionaryWithDefault
340
F
  0
DICTIONARY
  5
B6
102
{ACAD_REACTORS
330
C
102
}
330
C
100
AcDbDictionary
281
     1
  3
A0
350
B7
  3
A1
350
124
  3
A2
350
125
  3
A3
350
126
  3
A4
350
127
  3
A5
350
128
  3
A6
350
129
  3
A7
350
12A
  3
A8
350
12B
  3
A9
350
12C
  3
B0
350
12D
  3
B1
350
12E
  3
B2
350
12F
  3
B3
350
130
  3
B4
350
131
  3
B5
350
132
  3
B6
350
133
  3
B7
350
134
  3
B8
350
135
  3
B9
350
136
  3
C0
350
137
  3
C1
350
138
  3
C2
350
139
  3
C3
350
13A
  3
C4
350
13B
  3
C5
350
13C
  3
C6
350
13D
  3
C7
350
13E
  3
C8
350
13F
  3
C9
350
140
  3
D0
350
141
  3
D1
350
142
  3
D2
350
143
  0
DICTIONARY
  5
1A8
102
{ACAD_REACTORS
330
C
102
}
330
C
100
AcDbDictionary
281
     1
  3
Imperial24
350
1AA
  3
Metric50
350
200
  0
DICTIONARY
  5
86
102
{ACAD_REACTORS
330
C
102
}
330
C
100
AcDbDictionary
281
     1
  3
Standard
350
87
  0
DICTIONARY
  5
99
102
{ACAD_REACTORS
330
C
102
}
330
C
100
AcDbDictionary
281
     1
  3
2dWireframe
350
9F
  3
Basic
350
9E
  3
Brighten
350
A5
  3
ColorChange
350
A9
  3
Conceptual
350
A2
  3
Dim
350
A4
  3
EdgeColorOff
350
175
  3
Facepattern
350
A8
  3
Flat
350
9A
  3
FlatWithEdges
350
9B
  3
Gouraud
350
9C
  3
GouraudWithEdges
350
9D
  3
Hidden
350
A1
  3
JitterOff
350
173
  3
Linepattern
350
A7
  3
OverhangOff
350
174
  3
Realistic
350
A3
  3
Shaded
350
182
  3
Shaded with edges
350
181
  3
Shades of Gray
350
17E
  3
Sketchy
350
17F
  3
Thicken
350
A6
  3
Wireframe
350
A0
  3
X-Ray
350
180
  0
XRECORD
  5
40B4
102
{ACAD_REACTORS
330
C
102
}
330
C
100
AcDbXrecord
280
     1
 90
        1
330
87
  0
DICTIONARY
  5
66
102
{ACAD_REACTORS
330
C
102
}
330
C
100
AcDbDictionary
281
     1
  3
CANNOSCALE
350
F0
  3
CMLEADERSTYLE
350
EF
  3
CTABLESTYLE
350
89
  3
CVIEWDETAILSTYLE
350
1B7
  3
CVIEWSECTIONSTYLE
350
1B8
  3
DIMASSOC
350
67
  3
HIDETEXT
350
6B
  3
INDEXCTL
350
3132
  3
LAYEREVAL
350
14D
  3
LAYERNOTIFY
350
14E
  3
LIGHTINGUNITS
350
3130
  3
MSLTSCALE
350
312F
  3
SORTENTS
350
3131
  3
XCLIPFRAME
350
4053
  0
XRECORD
  5
40B5
102
{ACAD_REACTORS
330
C
102
}
330
C
100
AcDbXrecord
280
     1
  1
DWGPROPS COOKIE
  2

  3

  4

  6

  7

  8
utente
  9

300
=
301
=
302
=
303
=
304
=
305
=
306
=
307
=
308
=
309
=
 40
0.0235648148148148
 41
2459210.598877315
 42
2459223.357604167
  1

 90
        0
  0
DICTIONARY
  5
18F
102
{ACAD_REACTORS
330
18E
102
}
330
18E
100
AcDbDictionary
281
     1
  0
SORTENTSTABLE
  5
3216
102
{ACAD_REACTORS
330
15D
102
}
330
15D
100
AcDbSortentsTable
330
1F
  0
XRECORD
  5
40B8
102
{ACAD_REACTORS
330
40B6
102
}
330
40B6
100
AcDbXrecord
280
     1
 40
2.0
  0
XRECORD
  5
40B7
102
{ACAD_REACTORS
330
40B6
102
}
330
40B6
100
AcDbXrecord
280
     1
290
     1
  0
ACDBDETAILVIEWSTYLE
  5
1AC
102
{ACAD_XDICTIONARY
360
40F2
102
}
102
{ACAD_REACTORS
330
1AB
102
}
330
1AB
100
AcDbModelDocViewStyle
 70
     0
  3
Imperial24
290
     0
100
AcDbDetailViewStyle
 70
     0
 71
     0
 90
        3
 71
     1
340
11
 40
0.24
340
0
 40
0.24
300

 40
0.36
280
     3
 71
     2
340
16
 90
       25
 71
     3
340
11
 40
0.24
 90
        1
 40
0.75
 90
        1
300
%<\AcVar ViewType \f "%tc1">% %<\AcVar ViewDetailId>%\PSCALE %<\AcVar ViewScale \f "%sn">%
 71
     4
340
16
 90
       25
340
16
 90
       25
280
     0
  0
ACDBDETAILVIEWSTYLE
  5
201
102
{ACAD_XDICTIONARY
360
40F6
102
}
102
{ACAD_REACTORS
330
1AB
102
}
330
1AB
100
AcDbModelDocViewStyle
 70
     0
  3
Metric50
290
     0
100
AcDbDetailViewStyle
 70
     0
 71
     0
 90
        3
 71
     1
340
11
 40
5.0
340
0
 40
5.0
300

 40
0.0
280
     1
 71
     2
340
16
 90
       25
 71
     3
340
11
 40
5.0
 90
        0
 40
15.0
 90
        1
300
%<\AcVar ViewDetailId>% (%<\AcVar ViewScale \f "%sn">%)
 71
     4
340
16
 90
       25
340
16
 90
       25
280
     0
  0
IMAGEDEF
  5
112F
102
{ACAD_REACTORS
330
112E
102
}
330
112E
100
AcDbRasterImageDef
 90
        0
  1
C:\Users\utente\Documents\nuovi PORTAPILASTRI\BorgaItalia-auto.bmp
 10
481.0
 20
580.0
 11
0.0846883468834689
 21
0.0846883468834689
280
     1
281
     2
  0
LAYOUT
  5
59
102
{ACAD_XDICTIONARY
360
40BB
102
}
102
{ACAD_REACTORS
330
1A
102
}
330
1A
100
AcDbPlotSettings
  1

  2
None
  4

  6

 40
0.0
 41
0.0
 42
0.0
 43
0.0
 44
0.0
 45
0.0
 46
0.0
 47
0.0
 48
0.0
 49
0.0
140
0.0
141
0.0
142
1.0
143
1.0
 70
   688
 72
     0
 73
     0
 74
     5
  7

 75
    16
147
1.0
148
0.0
149
0.0
100
AcDbLayout
  1
Layout1
 70
     1
 71
     1
 10
0.0
 20
0.0
 11
12.0
 21
9.0
 12
0.0
 22
0.0
 32
0.0
 14
0.0
 24
0.0
 34
0.0
 15
0.0
 25
0.0
 35
0.0
146
0.0
 13
0.0
 23
0.0
 33
0.0
 16
1.0
 26
0.0
 36
0.0
 17
0.0
 27
1.0
 37
0.0
 76
     0
330
58
  0
LAYOUT
  5
5E
102
{ACAD_XDICTIONARY
360
40BD
102
}
102
{ACAD_REACTORS
330
1A
102
}
330
1A
100
AcDbPlotSettings
  1

  2
None
  4

  6

 40
0.0
 41
0.0
 42
0.0
 43
0.0
 44
0.0
 45
0.0
 46
0.0
 47
0.0
 48
0.0
 49
0.0
140
0.0
141
0.0
142
1.0
143
1.0
 70
   688
 72
     0
 73
     0
 74
     5
  7

 75
    16
147
1.0
148
0.0
149
0.0
100
AcDbLayout
  1
Layout2
 70
     1
 71
     2
 10
0.0
 20
0.0
 11
12.0
 21
9.0
 12
0.0
 22
0.0
 32
0.0
 14
0.0
 24
0.0
 34
0.0
 15
0.0
 25
0.0
 35
0.0
146
0.0
 13
0.0
 23
0.0
 33
0.0
 16
1.0
 26
0.0
 36
0.0
 17
0.0
 27
1.0
 37
0.0
 76
     0
330
5D
  0
LAYOUT
  5
22
102
{ACAD_XDICTIONARY
360
40B9
102
}
102
{ACAD_REACTORS
330
1A
102
}
330
1A
100
AcDbPlotSettings
  1

  2
none_device
  4
ANSI_A_(8.50_x_11.00_Inches)
  6

 40
6.349999904632567
 41
19.04999923706055
 42
6.350006103515625
 43
19.04998779296875
 44
215.8999938964844
 45
279.3999938964844
 46
0.0
 47
0.0
 48
0.0
 49
0.0
140
0.0
141
0.0
142
1.0
143
2.584895464708373
 70
 11952
 72
     0
 73
     1
 74
     0
  7

 75
     0
147
0.3868628397755418
148
0.0
149
0.0
100
AcDbLayout
  1
Model
 70
     1
 71
     0
 10
0.0
 20
0.0
 11
12.0
 21
9.0
 12
0.0
 22
0.0
 32
0.0
 14
0.0
 24
0.0
 34
0.0
 15
0.0
 25
0.0
 35
0.0
146
0.0
 13
0.0
 23
0.0
 33
0.0
 16
1.0
 26
0.0
 36
0.0
 17
0.0
 27
1.0
 37
0.0
 76
     0
330
1F
331
94
  0
MATERIAL
  5
97
102
{ACAD_XDICTIONARY
360
188
102
}
102
{ACAD_REACTORS
330
72
102
}
330
72
100
AcDbMaterial
  1
ByBlock
  0
MATERIAL
  5
96
102
{ACAD_XDICTIONARY
360
186
102
}
102
{ACAD_REACTORS
330
72
102
}
330
72
100
AcDbMaterial
  1
ByLayer
  0
MATERIAL
  5
98
102
{ACAD_XDICTIONARY
360
110
102
}
102
{ACAD_REACTORS
330
72
102
}
330
72
100
AcDbMaterial
  1
Global
 43
0.0208000000566244
 43
0.0
 43
0.0
 43
0.0
 43
0.0
 43
0.0208000000566244
 43
0.0
 43
0.0
 43
0.0
 43
0.0
 43
1.0
 43
0.0
 43
0.0
 43
0.0
 43
0.0
 43
1.0
 49
0.0208000000566244
 49
0.0
 49
0.0
 49
0.0
 49
0.0
 49
0.0208000000566244
 49
0.0
 49
0.0
 49
0.0
 49
0.0
 49
1.0
 49
0.0
 49
0.0
 49
0.0
 49
0.0
 49
1.0
142
0.0208000000566244
142
0.0
142
0.0
142
0.0
142
0.0
142
0.0208000000566244
142
0.0
142
0.0
142
0.0
142
0.0
142
1.0
142
0.0
142
0.0
142
0.0
142
0.0
142
1.0
144
0.0208000000566244
144
0.0
144
0.0
144
0.0
144
0.0
144
0.0208000000566244
144
0.0
144
0.0
144
0.0
144
0.0
144
1.0
144
0.0
144
0.0
144
0.0
144
0.0
144
1.0
1001
ACAD
1070
    -1
1070
     3
1070
     0
1000

1071
        0
1070
     0
  0
MLEADERSTYLE
  5
E5
102
{ACAD_REACTORS
330
D7
102
}
330
D7
100
AcDbMLeaderStyle
170
     2
171
     1
172
     0
 90
        2
 40
0.0
 41
0.0
173
     1
 91
-1056964608
340
14
 92
       -2
290
     1
 42
0.09
291
     1
 43
0.36
  3
Standard
 44
0.18
300

342
11
174
     1
178
     1
175
     1
176
     0
 93
-1056964608
 45
0.18
292
     0
297
     0
 46
0.18
 94
-1056964608
 47
1.0
 49
1.0
140
1.0
293
     1
141
0.0
294
     1
177
     0
142
1.0
295
     0
296
     1
143
0.125
1001
ACAD_MLEADERVER
1070
     2
  0
MLEADERSTYLE
  5
D8
102
{ACAD_REACTORS
330
D7
102
}
330
D7
100
AcDbMLeaderStyle
170
     2
171
     1
172
     0
 90
        2
 40
0.0
 41
0.0
173
     1
 91
-1056964608
340
14
 92
       -2
290
     1
 42
0.09
291
     1
 43
0.36
  3
Standard
 44
0.18
300

342
11
174
     1
178
     1
175
     1
176
     0
 93
-1056964608
 45
0.18
292
     0
297
     0
 46
0.18
 94
-1056964608
 47
1.0
 49
1.0
140
1.0
293
     1
141
0.0
294
     1
177
     0
142
1.0
295
     0
296
     0
143
0.125
1001
ACAD_MLEADERVER
1070
     2
  0
MLINESTYLE
  5
18
102
{ACAD_REACTORS
330
17
102
}
330
17
100
AcDbMlineStyle
  2
STANDARD
 70
     0
  3

 62
   256
 51
90.0
 52
90.0
 71
     2
 49
0.5
 62
   256
  6
BYLAYER
 49
-0.5
 62
   256
  6
BYLAYER
  0
ACDBPLACEHOLDER
  5
5C6
102
{ACAD_REACTORS
330
E
102
}
330
E
  0
ACDBPLACEHOLDER
  5
F
102
{ACAD_REACTORS
330
E
102
}
330
E
  0
SCALE
  5
B7
102
{ACAD_REACTORS
330
B6
102
}
330
B6
100
AcDbScale
 70
     0
300
1:1
140
1.0
141
1.0
290
     1
  0
SCALE
  5
124
102
{ACAD_REACTORS
330
B6
102
}
330
B6
100
AcDbScale
 70
     0
300
1:2
140
1.0
141
2.0
290
     0
  0
SCALE
  5
125
102
{ACAD_REACTORS
330
B6
102
}
330
B6
100
AcDbScale
 70
     0
300
1:4
140
1.0
141
4.0
290
     0
  0
SCALE
  5
126
102
{ACAD_REACTORS
330
B6
102
}
330
B6
100
AcDbScale
 70
     0
300
1:5
140
1.0
141
5.0
290
     0
  0
SCALE
  5
127
102
{ACAD_REACTORS
330
B6
102
}
330
B6
100
AcDbScale
 70
     0
300
1:8
140
1.0
141
8.0
290
     0
  0
SCALE
  5
128
102
{ACAD_REACTORS
330
B6
102
}
330
B6
100
AcDbScale
 70
     0
300
1:10
140
1.0
141
10.0
290
     0
  0
SCALE
  5
129
102
{ACAD_REACTORS
330
B6
102
}
330
B6
100
AcDbScale
 70
     0
300
1:16
140
1.0
141
16.0
290
     0
  0
SCALE
  5
12A
102
{ACAD_REACTORS
330
B6
102
}
330
B6
100
AcDbScale
 70
     0
300
1:20
140
1.0
141
20.0
290
     0
  0
SCALE
  5
12B
102
{ACAD_REACTORS
330
B6
102
}
330
B6
100
AcDbScale
 70
     0
300
1:30
140
1.0
141
30.0
290
     0
  0
SCALE
  5
12C
102
{ACAD_REACTORS
330
B6
102
}
330
B6
100
AcDbScale
 70
     0
300
1:40
140
1.0
141
40.0
290
     0
  0
SCALE
  5
12D
102
{ACAD_REACTORS
330
B6
102
}
330
B6
100
AcDbScale
 70
     0
300
1:50
140
1.0
141
50.0
290
     0
  0
SCALE
  5
12E
102
{ACAD_REACTORS
330
B6
102
}
330
B6
100
AcDbScale
 70
     0
300
1:100
140
1.0
141
100.0
290
     0
  0
SCALE
  5
12F
102
{ACAD_REACTORS
330
B6
102
}
330
B6
100
AcDbScale
 70
     0
300
2:1
140
2.0
141
1.0
290
     0
  0
SCALE
  5
130
102
{ACAD_REACTORS
330
B6
102
}
330
B6
100
AcDbScale
 70
     0
300
4:1
140
4.0
141
1.0
290
     0
  0
SCALE
  5
131
102
{ACAD_REACTORS
330
B6
102
}
330
B6
100
AcDbScale
 70
     0
300
8:1
140
8.0
141
1.0
290
     0
  0
SCALE
  5
132
102
{ACAD_REACTORS
330
B6
102
}
330
B6
100
AcDbScale
 70
     0
300
10:1
140
10.0
141
1.0
290
     0
  0
SCALE
  5
133
102
{ACAD_REACTORS
330
B6
102
}
330
B6
100
AcDbScale
 70
     0
300
100:1
140
100.0
141
1.0
290
     0
  0
SCALE
  5
134
102
{ACAD_REACTORS
330
B6
102
}
330
B6
100
AcDbScale
 70
     0
300
1/128" = 1'-0"
140
0.0078125
141
12.0
290
     0
  0
SCALE
  5
135
102
{ACAD_REACTORS
330
B6
102
}
330
B6
100
AcDbScale
 70
     0
300
1/64" = 1'-0"
140
0.015625
141
12.0
290
     0
  0
SCALE
  5
136
102
{ACAD_REACTORS
330
B6
102
}
330
B6
100
AcDbScale
 70
     0
300
1/32" = 1'-0"
140
0.03125
141
12.0
290
     0
  0
SCALE
  5
137
102
{ACAD_REACTORS
330
B6
102
}
330
B6
100
AcDbScale
 70
     0
300
1/16" = 1'-0"
140
0.0625
141
12.0
290
     0
  0
SCALE
  5
138
102
{ACAD_REACTORS
330
B6
102
}
330
B6
100
AcDbScale
 70
     0
300
3/32" = 1'-0"
140
0.09375
141
12.0
290
     0
  0
SCALE
  5
139
102
{ACAD_REACTORS
330
B6
102
}
330
B6
100
AcDbScale
 70
     0
300
1/8" = 1'-0"
140
0.125
141
12.0
290
     0
  0
SCALE
  5
13A
102
{ACAD_REACTORS
330
B6
102
}
330
B6
100
AcDbScale
 70
     0
300
3/16" = 1'-0"
140
0.1875
141
12.0
290
     0
  0
SCALE
  5
13B
102
{ACAD_REACTORS
330
B6
102
}
330
B6
100
AcDbScale
 70
     0
300
1/4" = 1'-0"
140
0.25
141
12.0
290
     0
  0
SCALE
  5
13C
102
{ACAD_REACTORS
330
B6
102
}
330
B6
100
AcDbScale
 70
     0
300
3/8" = 1'-0"
140
0.375
141
12.0
290
     0
  0
SCALE
  5
13D
102
{ACAD_REACTORS
330
B6
102
}
330
B6
100
AcDbScale
 70
     0
300
1/2" = 1'-0"
140
0.5
141
12.0
290
     0
  0
SCALE
  5
13E
102
{ACAD_REACTORS
330
B6
102
}
330
B6
100
AcDbScale
 70
     0
300
3/4" = 1'-0"
140
0.75
141
12.0
290
     0
  0
SCALE
  5
13F
102
{ACAD_REACTORS
330
B6
102
}
330
B6
100
AcDbScale
 70
     0
300
1" = 1'-0"
140
1.0
141
12.0
290
     0
  0
SCALE
  5
140
102
{ACAD_REACTORS
330
B6
102
}
330
B6
100
AcDbScale
 70
     0
300
1-1/2" = 1'-0"
140
1.5
141
12.0
290
     0
  0
SCALE
  5
141
102
{ACAD_REACTORS
330
B6
102
}
330
B6
100
AcDbScale
 70
     0
300
3" = 1'-0"
140
3.0
141
12.0
290
     0
  0
SCALE
  5
142
102
{ACAD_REACTORS
330
B6
102
}
330
B6
100
AcDbScale
 70
     0
300
6" = 1'-0"
140
6.0
141
12.0
290
     0
  0
SCALE
  5
143
102
{ACAD_REACTORS
330
B6
102
}
330
B6
100
AcDbScale
 70
     0
300
1'-0" = 1'-0"
140
12.0
141
12.0
290
     0
  0
ACDBSECTIONVIEWSTYLE
  5
1AA
102
{ACAD_XDICTIONARY
360
40F0
102
}
102
{ACAD_REACTORS
330
1A8
102
}
330
1A8
100
AcDbModelDocViewStyle
 70
     0
  3
Imperial24
290
     0
100
AcDbSectionViewStyle
 70
     0
 71
     0
 90
       78
 71
     1
340
11
 40
0.24
340
0
340
0
 40
0.24
300
I, O, Q, S, X, Z
 40
0.48
 90
        3
 40
0.18
 90
        1
 71
     2
340
16
 90
       25
340
16
 90
       50
 40
0.24
 40
0.0
 40
0.24
 71
     3
340
11
 40
0.24
 90
        1
 40
0.75
 90
        1
300
%<\AcVar ViewType \f "%tc1">% %<\AcVar ViewSectionStartId>%-%<\AcVar ViewSectionEndId>%\PSCALE %<\AcVar ViewScale \f "%sn">%
 71
     4
300
ANSI31
 40
1.0
 90
        0
290
     0
290
     0
 90
        6
 40
0.0
 40
1.570796326794896
 40
0.2617993877991494
 40
1.308996938995747
 40
-0.2617993877991494
 40
1.832595714594044
  0
ACDBSECTIONVIEWSTYLE
  5
200
102
{ACAD_XDICTIONARY
360
40F4
102
}
102
{ACAD_REACTORS
330
1A8
102
}
330
1A8
100
AcDbModelDocViewStyle
 70
     0
  3
Metric50
290
     0
100
AcDbSectionViewStyle
 70
     0
 71
     0
 90
      102
 71
     1
340
11
 40
5.0
340
0
340
0
 40
5.0
300
I, O, Q, S, X, Z
 40
10.0
 90
        0
 40
2.5
 90
        0
 71
     2
340
16
 90
       25
340
16
 90
       50
 40
5.0
 40
2.5
 40
5.0
 71
     3
340
11
 40
5.0
 90
        0
 40
15.0
 90
        1
300
%<\AcVar ViewSectionStartId>%-%<\AcVar ViewSectionEndId>% (%<\AcVar ViewScale \f "%sn">%)
 71
     4
300
ANSI31
 40
1.0
 90
        0
290
     0
290
     0
 90
        6
 40
0.0
 40
1.570796326794896
 40
0.2617993877991494
 40
1.308996938995747
 40
-0.2617993877991494
 40
1.832595714594044
  0
TABLESTYLE
  5
87
102
{ACAD_XDICTIONARY
360
104
102
}
102
{ACAD_REACTORS
330
86
102
}
330
86
100
AcDbTableStyle
  3
Standard
 70
     0
 71
     0
 40
0.06
 41
0.06
280
     0
281
     0
  7
Standard
140
0.18
170
     2
 62
     0
 63
     7
283
     0
274
    -2
284
     1
 64
     0
275
    -2
285
     1
 65
     0
276
    -2
286
     1
 66
     0
277
    -2
287
     1
 67
     0
278
    -2
288
     1
 68
     0
279
    -2
289
     1
 69
     0
  7
Standard
140
0.25
170
     5
 62
     0
 63
     7
283
     0
274
    -2
284
     1
 64
     0
275
    -2
285
     1
 65
     0
276
    -2
286
     1
 66
     0
277
    -2
287
     1
 67
     0
278
    -2
288
     1
 68
     0
279
    -2
289
     1
 69
     0
  7
Standard
140
0.18
170
     5
 62
     0
 63
     7
283
     0
274
    -2
284
     1
 64
     0
275
    -2
285
     1
 65
     0
276
    -2
286
     1
 66
     0
277
    -2
287
     1
 67
     0
278
    -2
288
     1
 68
     0
279
    -2
289
     1
 69
     0
  0
VISUALSTYLE
  5
9F
102
{ACAD_XDICTIONARY
360
40CA
102
}
102
{ACAD_REACTORS
330
99
102
}
330
99
100
AcDbVisualStyle
  2

 70
     4
 71
     0
 72
     2
 73
     1
 90
        0
 40
-0.6
 41
-30.0
 62
     5
 63
     7
 74
     1
 91
        4
 64
     7
 65
   257
 75
     1
175
     1
 42
1.0
 92
        0
 66
   257
 43
1.0
 76
     1
 77
     6
 78
     2
 67
     7
 79
     5
170
     0
171
     0
290
     0
174
     0
 93
        1
 44
0.0
173
     0
291
     0
 45
0.0
1001
ACAD
1000
AcDbSavedByObjectVersion
1070
     0
  0
VISUALSTYLE
  5
9E
102
{ACAD_XDICTIONARY
360
40C8
102
}
102
{ACAD_REACTORS
330
99
102
}
330
99
100
AcDbVisualStyle
  2

 70
     7
 71
     1
 72
     0
 73
     1
 90
        0
 40
-0.6
 41
-30.0
 62
     5
 63
     7
 74
     0
 91
        4
 64
     7
 65
   257
 75
     1
175
     1
 42
1.0
 92
        8
 66
     7
 43
1.0
 76
     1
 77
     6
 78
     2
 67
     7
 79
     5
170
     0
171
     0
290
     0
174
     0
 93
        1
 44
0.0
173
     0
291
     1
 45
0.0
1001
ACAD
1000
AcDbSavedByObjectVersion
1070
     0
  0
VISUALSTYLE
  5
A5
102
{ACAD_XDICTIONARY
360
40D6
102
}
102
{ACAD_REACTORS
330
99
102
}
330
99
100
AcDbVisualStyle
  2

 70
    12
 71
     2
 72
     2
 73
     1
 90
        0
 40
-0.6
 41
-30.0
 62
     5
 63
     7
 74
     1
 91
        4
 64
     7
 65
   257
 75
     1
175
     1
 42
1.0
 92
        8
 66
     7
 43
1.0
 76
     1
 77
     6
 78
     2
 67
     7
 79
     5
170
     0
171
     0
290
     0
174
     0
 93
        1
 44
50.0
173
     0
291
     1
 45
0.0
1001
ACAD
1000
AcDbSavedByObjectVersion
1070
     0
  0
VISUALSTYLE
  5
A9
102
{ACAD_XDICTIONARY
360
40DE
102
}
102
{ACAD_REACTORS
330
99
102
}
330
99
100
AcDbVisualStyle
  2

 70
    16
 71
     2
 72
     2
 73
     3
 90
        0
 40
-0.6
 41
-30.0
 62
     5
 63
     8
 74
     1
 91
        4
 64
     7
 65
   257
 75
     1
175
     1
 42
1.0
 92
        8
 66
     8
 43
1.0
 76
     1
 77
     6
 78
     2
 67
     7
 79
     5
170
     0
171
     0
290
     0
174
     0
 93
        1
 44
0.0
173
     0
291
     1
 45
0.0
1001
ACAD
1000
AcDbSavedByObjectVersion
1070
     0
  0
VISUALSTYLE
  5
A2
102
{ACAD_XDICTIONARY
360
40D0
102
}
102
{ACAD_REACTORS
330
99
102
}
330
99
100
AcDbVisualStyle
  2

 70
     9
 71
     3
 72
     2
 73
     1
 90
        0
 40
-0.6
 41
-30.0
 62
     5
 63
     7
 74
     2
 91
        2
 64
     7
 65
   257
 75
     1
175
     1
 42
40.0
 92
        8
 66
     7
 43
1.0
 76
     1
 77
     6
 78
     2
 67
     7
 79
     3
170
     0
171
     0
290
     0
174
     0
 93
        1
 44
0.0
173
     0
291
     0
 45
0.0
1001
ACAD
1000
AcDbSavedByObjectVersion
1070
     0
  0
VISUALSTYLE
  5
A4
102
{ACAD_XDICTIONARY
360
40D4
102
}
102
{ACAD_REACTORS
330
99
102
}
330
99
100
AcDbVisualStyle
  2

 70
    11
 71
     2
 72
     2
 73
     1
 90
        0
 40
-0.6
 41
-30.0
 62
     5
 63
     7
 74
     1
 91
        4
 64
     7
 65
   257
 75
     1
175
     1
 42
1.0
 92
        8
 66
     7
 43
1.0
 76
     1
 77
     6
 78
     2
 67
     7
 79
     5
170
     0
171
     0
290
     0
174
     0
 93
        1
 44
-50.0
173
     0
291
     1
 45
0.0
1001
ACAD
1000
AcDbSavedByObjectVersion
1070
     0
  0
VISUALSTYLE
  5
175
102
{ACAD_XDICTIONARY
360
40E4
102
}
102
{ACAD_REACTORS
330
99
102
}
330
99
100
AcDbVisualStyle
  2

 70
    22
 71
     2
 72
     2
 73
     0
 90
        0
 40
-0.6
 41
-30.0
 62
     5
 63
     7
 74
     1
 91
        4
 64
     7
 65
   257
 75
     1
175
     1
 42
1.0
 92
        8
 66
     7
 43
1.0
 76
     1
 77
     6
 78
     2
 67
     7
 79
     5
170
     0
171
     0
290
     0
174
     0
 93
        1
 44
0.0
173
     0
291
     1
 45
0.0
1001
ACAD
1000
AcDbSavedByObjectVersion
1070
     0
  0
VISUALSTYLE
  5
A8
102
{ACAD_XDICTIONARY
360
40DC
102
}
102
{ACAD_REACTORS
330
99
102
}
330
99
100
AcDbVisualStyle
  2

 70
    15
 71
     2
 72
     2
 73
     1
 90
        0
 40
-0.6
 41
-30.0
 62
     5
 63
     7
 74
     1
 91
        4
 64
     7
 65
   257
 75
     1
175
     1
 42
1.0
 92
        8
 66
     7
 43
1.0
 76
     1
 77
     6
 78
     2
 67
     7
 79
     5
170
     0
171
     0
290
     0
174
     0
 93
        1
 44
0.0
173
     0
291
     1
 45
0.0
1001
ACAD
1000
AcDbSavedByObjectVersion
1070
     0
  0
VISUALSTYLE
  5
9A
102
{ACAD_XDICTIONARY
360
40C0
102
}
102
{ACAD_REACTORS
330
99
102
}
330
99
100
AcDbVisualStyle
  2

 70
     0
 71
     2
 72
     1
 73
     1
 90
        2
 40
-0.6
 41
30.0
 62
     5
 63
     7
 74
     0
 91
        0
 64
     7
 65
   257
 75
     1
175
     1
 42
1.0
 92
        8
 66
     7
 43
1.0
 76
     1
 77
     6
 78
     2
 67
     7
 79
     5
170
     0
171
     0
290
     0
174
     0
 93
       13
 44
0.0
173
     0
291
     1
 45
0.0
1001
ACAD
1000
AcDbSavedByObjectVersion
1070
     0
  0
VISUALSTYLE
  5
9B
102
{ACAD_XDICTIONARY
360
40C2
102
}
102
{ACAD_REACTORS
330
99
102
}
330
99
100
AcDbVisualStyle
  2

 70
     1
 71
     2
 72
     1
 73
     1
 90
        2
 40
-0.6
 41
30.0
 62
     5
 63
     7
 74
     1
 91
        0
 64
     7
 65
   257
 75
     1
175
     1
 42
1.0
 92
        0
 66
   257
 43
1.0
 76
     1
 77
     6
 78
     2
 67
     7
 79
     5
170
     0
171
     0
290
     0
174
     0
 93
       13
 44
0.0
173
     0
291
     1
 45
0.0
1001
ACAD
1000
AcDbSavedByObjectVersion
1070
     0
  0
VISUALSTYLE
  5
9C
102
{ACAD_XDICTIONARY
360
40C4
102
}
102
{ACAD_REACTORS
330
99
102
}
330
99
100
AcDbVisualStyle
  2

 70
     2
 71
     2
 72
     2
 73
     1
 90
        2
 40
-0.6
 41
30.0
 62
     5
 63
     7
 74
     0
 91
        0
 64
     7
 65
   257
 75
     1
175
     1
 42
1.0
 92
        0
 66
     7
 43
1.0
 76
     1
 77
     6
 78
     2
 67
     7
 79
     5
170
     0
171
     0
290
     0
174
     0
 93
       13
 44
0.0
173
     0
291
     1
 45
0.0
1001
ACAD
1000
AcDbSavedByObjectVersion
1070
     0
  0
VISUALSTYLE
  5
9D
102
{ACAD_XDICTIONARY
360
40C6
102
}
102
{ACAD_REACTORS
330
99
102
}
330
99
100
AcDbVisualStyle
  2

 70
     3
 71
     2
 72
     2
 73
     1
 90
        2
 40
-0.6
 41
30.0
 62
     5
 63
     7
 74
     1
 91
        0
 64
     7
 65
   257
 75
     1
175
     1
 42
1.0
 92
        0
 66
   257
 43
1.0
 76
     1
 77
     6
 78
     2
 67
     7
 79
     5
170
     0
171
     0
290
     0
174
     0
 93
       13
 44
0.0
173
     0
291
     1
 45
0.0
1001
ACAD
1000
AcDbSavedByObjectVersion
1070
     0
  0
VISUALSTYLE
  5
A1
102
{ACAD_XDICTIONARY
360
40CE
102
}
102
{ACAD_REACTORS
330
99
102
}
330
99
100
AcDbVisualStyle
  2

 70
     6
 71
     1
 72
     2
 73
     2
 90
        0
 40
-0.6
 41
-30.0
 62
     5
 63
     7
 74
     2
 91
        2
 64
     7
 65
   257
 75
     2
175
     1
 42
40.0
 92
        0
 66
   257
 43
1.0
 76
     1
 77
     6
 78
     2
 67
     7
 79
     3
170
     0
171
     0
290
     0
174
     0
 93
        1
 44
0.0
173
     0
291
     0
 45
0.0
1001
ACAD
1000
AcDbSavedByObjectVersion
1070
     0
  0
VISUALSTYLE
  5
173
102
{ACAD_XDICTIONARY
360
40E0
102
}
102
{ACAD_REACTORS
330
99
102
}
330
99
100
AcDbVisualStyle
  2

 70
    20
 71
     2
 72
     2
 73
     0
 90
        0
 40
-0.6
 41
-30.0
 62
     5
 63
     7
 74
     1
 91
        4
 64
     7
 65
   257
 75
     1
175
     1
 42
1.0
 92
       10
 66
     7
 43
1.0
 76
     1
 77
     6
 78
     2
 67
     7
 79
     5
170
     0
171
     0
290
     0
174
     0
 93
        1
 44
0.0
173
     0
291
     1
 45
0.0
1001
ACAD
1000
AcDbSavedByObjectVersion
1070
     0
  0
VISUALSTYLE
  5
A7
102
{ACAD_XDICTIONARY
360
40DA
102
}
102
{ACAD_REACTORS
330
99
102
}
330
99
100
AcDbVisualStyle
  2

 70
    14
 71
     2
 72
     2
 73
     1
 90
        0
 40
-0.6
 41
-30.0
 62
     5
 63
     7
 74
     1
 91
        4
 64
     7
 65
   257
 75
     7
175
     7
 42
1.0
 92
        8
 66
     7
 43
1.0
 76
     1
 77
     6
 78
     2
 67
     7
 79
     5
170
     0
171
     0
290
     0
174
     0
 93
        1
 44
0.0
173
     0
291
     1
 45
0.0
1001
ACAD
1000
AcDbSavedByObjectVersion
1070
     0
  0
VISUALSTYLE
  5
174
102
{ACAD_XDICTIONARY
360
40E2
102
}
102
{ACAD_REACTORS
330
99
102
}
330
99
100
AcDbVisualStyle
  2

 70
    21
 71
     2
 72
     2
 73
     0
 90
        0
 40
-0.6
 41
-30.0
 62
     5
 63
     7
 74
     1
 91
        4
 64
     7
 65
   257
 75
     1
175
     1
 42
1.0
 92
        9
 66
     7
 43
1.0
 76
     1
 77
     6
 78
     2
 67
     7
 79
     5
170
     0
171
     0
290
     0
174
     0
 93
        1
 44
0.0
173
     0
291
     1
 45
0.0
1001
ACAD
1000
AcDbSavedByObjectVersion
1070
     0
  0
VISUALSTYLE
  5
A3
102
{ACAD_XDICTIONARY
360
40D2
102
}
102
{ACAD_REACTORS
330
99
102
}
330
99
100
AcDbVisualStyle
  2

 70
     8
 71
     2
 72
     3
 73
     0
 90
        2
 40
-0.6
 41
30.0
 62
     5
 63
     7
 74
     0
 91
        0
 64
     7
 65
   257
 75
     1
175
     1
 42
1.0
 92
        8
 66
   257
 43
1.0
 76
     1
 77
     6
 78
     2
 67
     7
 79
     3
170
     0
171
     0
290
     0
174
     0
 93
       13
 44
0.0
173
     0
291
     0
 45
0.0
1001
ACAD
1000
AcDbSavedByObjectVersion
1070
     0
  0
VISUALSTYLE
  5
182
102
{ACAD_XDICTIONARY
360
40EE
102
}
102
{ACAD_REACTORS
330
99
102
}
330
99
100
AcDbVisualStyle
  2

 70
    27
 71
     2
 72
     2
 73
     1
 90
        2
 40
-0.6
 41
30.0
 62
     5
 63
     7
 74
     0
 91
        4
 64
     7
 65
   257
 75
     1
175
     1
 42
1.0
 92
        8
 66
   257
 43
1.0
 76
     1
 77
     6
 78
     2
 67
     8
 79
     3
170
     0
171
     0
290
     0
174
     0
 93
        5
 44
0.0
173
     0
291
     0
 45
0.0
1001
ACAD
1000
AcDbSavedByObjectVersion
1070
     0
  0
VISUALSTYLE
  5
181
102
{ACAD_XDICTIONARY
360
40EC
102
}
102
{ACAD_REACTORS
330
99
102
}
330
99
100
AcDbVisualStyle
  2

 70
    26
 71
     2
 72
     2
 73
     1
 90
        2
 40
-0.6
 41
30.0
 62
     5
 63
     7
 74
     1
 91
        2
 64
     7
 65
   257
 75
     2
175
     1
 42
1.0
 92
        8
 66
   257
 43
1.0
 76
     1
 77
     6
 78
     2
 67
     7
 79
     3
170
     0
171
     0
290
     0
174
     0
 93
        5
 44
0.0
173
     0
291
     0
 45
0.0
1001
ACAD
1000
AcDbSavedByObjectVersion
1070
     0
  0
VISUALSTYLE
  5
17E
102
{ACAD_XDICTIONARY
360
40E6
102
}
102
{ACAD_REACTORS
330
99
102
}
330
99
100
AcDbVisualStyle
  2

 70
    23
 71
     2
 72
     2
 73
     3
 90
        0
 40
-0.6
 41
-30.0
 62
     5
 63
     7
 74
     2
 91
        2
 64
     7
 65
     7
 75
     1
175
     1
 42
40.0
 92
        8
 66
     7
 43
1.0
 76
     1
 77
     6
 78
     2
 67
     7
 79
     3
170
     0
171
     0
290
     0
174
     0
 93
        1
 44
0.0
173
     0
291
     0
 45
0.0
1001
ACAD
1000
AcDbSavedByObjectVersion
1070
     0
  0
VISUALSTYLE
  5
17F
102
{ACAD_XDICTIONARY
360
40E8
102
}
102
{ACAD_REACTORS
330
99
102
}
330
99
100
AcDbVisualStyle
  2

 70
    24
 71
     1
 72
     2
 73
     2
 90
        0
 40
-0.6
 41
-30.0
 62
     5
 63
     7
 74
     2
 91
        2
 64
     7
 65
     7
 75
     1
175
     1
 42
40.0
 92
       11
 66
     7
 43
1.0
 76
     1
 77
     6
 78
     2
 67
     7
 79
     6
170
     0
171
     0
290
     0
174
     0
 93
        1
 44
0.0
173
     0
291
     0
 45
0.0
1001
ACAD
1000
AcDbSavedByObjectVersion
1070
     0
  0
VISUALSTYLE
  5
A6
102
{ACAD_XDICTIONARY
360
40D8
102
}
102
{ACAD_REACTORS
330
99
102
}
330
99
100
AcDbVisualStyle
  2

 70
    13
 71
     2
 72
     2
 73
     1
 90
        0
 40
-0.6
 41
-30.0
 62
     5
 63
     7
 74
     1
 91
        4
 64
     7
 65
   257
 75
     1
175
     1
 42
1.0
 92
       12
 66
     7
 43
1.0
 76
     1
 77
     6
 78
     2
 67
     7
 79
     5
170
     0
171
     0
290
     0
174
     0
 93
        1
 44
0.0
173
     0
291
     1
 45
0.0
1001
ACAD
1000
AcDbSavedByObjectVersion
1070
     0
  0
VISUALSTYLE
  5
A0
102
{ACAD_XDICTIONARY
360
40CC
102
}
102
{ACAD_REACTORS
330
99
102
}
330
99
100
AcDbVisualStyle
  2

 70
     5
 71
     0
 72
     2
 73
     0
 90
        0
 40
-0.6
 41
-30.0
 62
     5
 63
     7
 74
     1
 91
        4
 64
     7
 65
   257
 75
     1
175
     1
 42
1.0
 92
        0
 66
   257
 43
1.0
 76
     1
 77
     6
 78
     2
 67
     7
 79
     3
170
     0
171
     0
290
     0
174
     0
 93
        1
 44
0.0
173
     0
291
     0
 45
0.0
1001
ACAD
1000
AcDbSavedByObjectVersion
1070
     0
  0
VISUALSTYLE
  5
180
102
{ACAD_XDICTIONARY
360
40EA
102
}
102
{ACAD_REACTORS
330
99
102
}
330
99
100
AcDbVisualStyle
  2

 70
    25
 71
     2
 72
     2
 73
     1
 90
        1
 40
0.5
 41
-30.0
 62
     5
 63
     7
 74
     1
 91
        0
 64
     7
 65
   257
 75
     1
175
     1
 42
1.0
 92
        8
 66
     7
 43
1.0
 76
     1
 77
     6
 78
     2
 67
     7
 79
     3
170
     0
171
     0
290
     0
174
     0
 93
       13
 44
0.0
173
     0
291
     0
 45
0.0
1001
ACAD
1000
AcDbSavedByObjectVersion
1070
     0
  0
DICTIONARYVAR
  5
F0
102
{ACAD_REACTORS
330
66
102
}
330
66
100
DictionaryVariables
280
     0
  1
1:1
  0
DICTIONARYVAR
  5
EF
102
{ACAD_REACTORS
330
66
102
}
330
66
100
DictionaryVariables
280
     0
  1
STANDARD
  0
DICTIONARYVAR
  5
89
102
{ACAD_REACTORS
330
66
102
}
330
66
100
DictionaryVariables
280
     0
  1
STANDARD
  0
DICTIONARYVAR
  5
1B7
102
{ACAD_REACTORS
330
66
102
}
330
66
100
DictionaryVariables
280
     0
  1
Imperial24
  0
DICTIONARYVAR
  5
1B8
102
{ACAD_REACTORS
330
66
102
}
330
66
100
DictionaryVariables
280
     0
  1
Imperial24
  0
DICTIONARYVAR
  5
67
102
{ACAD_REACTORS
330
66
102
}
330
66
100
DictionaryVariables
280
     0
  1
2
  0
DICTIONARYVAR
  5
6B
102
{ACAD_REACTORS
330
66
102
}
330
66
100
DictionaryVariables
280
     0
  1
1
  0
DICTIONARYVAR
  5
3132
102
{ACAD_REACTORS
330
66
102
}
330
66
100
DictionaryVariables
280
     0
  1
0
  0
DICTIONARYVAR
  5
14D
102
{ACAD_REACTORS
330
66
102
}
330
66
100
DictionaryVariables
280
     0
  1
0
  0
DICTIONARYVAR
  5
14E
102
{ACAD_REACTORS
330
66
102
}
330
66
100
DictionaryVariables
280
     0
  1
0
  0
DICTIONARYVAR
  5
3130
102
{ACAD_REACTORS
330
66
102
}
330
66
100
DictionaryVariables
280
     0
  1
2
  0
DICTIONARYVAR
  5
312F
102
{ACAD_REACTORS
330
66
102
}
330
66
100
DictionaryVariables
280
     0
  1
1
  0
DICTIONARYVAR
  5
3131
102
{ACAD_REACTORS
330
66
102
}
330
66
100
DictionaryVariables
280
     0
  1
127
  0
DICTIONARYVAR
  5
4053
102
{ACAD_REACTORS
330
66
102
}
330
66
100
DictionaryVariables
280
     0
  1
2
  0
DICTIONARY
  5
40F2
330
1AC
100
AcDbDictionary
280
     1
281
     1
  3
ACAD_XREC_ROUNDTRIP
360
40F3
  0
DICTIONARY
  5
40F6
330
201
100
AcDbDictionary
280
     1
281
     1
  3
ACAD_XREC_ROUNDTRIP
360
40F7
  0
DICTIONARY
  5
40BB
330
59
100
AcDbDictionary
280
     1
281
     1
  3
ACAD_XREC_ROUNDTRIP
360
40BC
  0
DICTIONARY
  5
40BD
330
5E
100
AcDbDictionary
280
     1
281
     1
  3
ACAD_XREC_ROUNDTRIP
360
40BE
  0
DICTIONARY
  5
40B9
330
22
100
AcDbDictionary
280
     1
281
     1
  3
ACAD_XREC_ROUNDTRIP
360
40BA
  0
DICTIONARY
  5
188
330
97
100
AcDbDictionary
280
     1
281
     1
  3
ACAD_XREC_ROUNDTRIP
360
3C3F
  3
FBXASSET
360
189
  0
DICTIONARY
  5
186
330
96
100
AcDbDictionary
280
     1
281
     1
  3
ACAD_XREC_ROUNDTRIP
360
3C3E
  3
FBXASSET
360
187
  0
DICTIONARY
  5
110
330
98
100
AcDbDictionary
280
     1
281
     1
  3
ACAD_XREC_ROUNDTRIP
360
3C40
  3
BUMPTILE
360
112
  3
DIFFUSETILE
360
111
  3
FBXASSET
360
18A
  3
OPACITYTILE
360
113
  3
REFLECTIONTILE
360
114
  0
DICTIONARY
  5
40F0
330
1AA
100
AcDbDictionary
280
     1
281
     1
  3
ACAD_XREC_ROUNDTRIP
360
40F1
  0
DICTIONARY
  5
40F4
330
200
100
AcDbDictionary
280
     1
281
     1
  3
ACAD_XREC_ROUNDTRIP
360
40F5
  0
DICTIONARY
  5
104
330
87
100
AcDbDictionary
280
     1
281
     1
  3
ACAD_ROUNDTRIP_2008_TABLESTYLE_CELLSTYLEMAP
360
40B3
  3
ACAD_XREC_ROUNDTRIP
360
40BF
  0
DICTIONARY
  5
40CA
330
9F
100
AcDbDictionary
280
     1
281
     1
  3
ACAD_XREC_ROUNDTRIP
360
40CB
  0
DICTIONARY
  5
40C8
330
9E
100
AcDbDictionary
280
     1
281
     1
  3
ACAD_XREC_ROUNDTRIP
360
40C9
  0
DICTIONARY
  5
40D6
330
A5
100
AcDbDictionary
280
     1
281
     1
  3
ACAD_XREC_ROUNDTRIP
360
40D7
  0
DICTIONARY
  5
40DE
330
A9
100
AcDbDictionary
280
     1
281
     1
  3
ACAD_XREC_ROUNDTRIP
360
40DF
  0
DICTIONARY
  5
40D0
330
A2
100
AcDbDictionary
280
     1
281
     1
  3
ACAD_XREC_ROUNDTRIP
360
40D1
  0
DICTIONARY
  5
40D4
330
A4
100
AcDbDictionary
280
     1
281
     1
  3
ACAD_XREC_ROUNDTRIP
360
40D5
  0
DICTIONARY
  5
40E4
330
175
100
AcDbDictionary
280
     1
281
     1
  3
ACAD_XREC_ROUNDTRIP
360
40E5
  0
DICTIONARY
  5
40DC
330
A8
100
AcDbDictionary
280
     1
281
     1
  3
ACAD_XREC_ROUNDTRIP
360
40DD
  0
DICTIONARY
  5
40C0
330
9A
100
AcDbDictionary
280
     1
281
     1
  3
ACAD_XREC_ROUNDTRIP
360
40C1
  0
DICTIONARY
  5
40C2
330
9B
100
AcDbDictionary
280
     1
281
     1
  3
ACAD_XREC_ROUNDTRIP
360
40C3
  0
DICTIONARY
  5
40C4
330
9C
100
AcDbDictionary
280
     1
281
     1
  3
ACAD_XREC_ROUNDTRIP
360
40C5
  0
DICTIONARY
  5
40C6
330
9D
100
AcDbDictionary
280
     1
281
     1
  3
ACAD_XREC_ROUNDTRIP
360
40C7
  0
DICTIONARY
  5
40CE
330
A1
100
AcDbDictionary
280
     1
281
     1
  3
ACAD_XREC_ROUNDTRIP
360
40CF
  0
DICTIONARY
  5
40E0
330
173
100
AcDbDictionary
280
     1
281
     1
  3
ACAD_XREC_ROUNDTRIP
360
40E1
  0
DICTIONARY
  5
40DA
330
A7
100
AcDbDictionary
280
     1
281
     1
  3
ACAD_XREC_ROUNDTRIP
360
40DB
  0
DICTIONARY
  5
40E2
330
174
100
AcDbDictionary
280
     1
281
     1
  3
ACAD_XREC_ROUNDTRIP
360
40E3
  0
DICTIONARY
  5
40D2
330
A3
100
AcDbDictionary
280
     1
281
     1
  3
ACAD_XREC_ROUNDTRIP
360
40D3
  0
DICTIONARY
  5
40EE
330
182
100
AcDbDictionary
280
     1
281
     1
  3
ACAD_XREC_ROUNDTRIP
360
40EF
  0
DICTIONARY
  5
40EC
330
181
100
AcDbDictionary
280
     1
281
     1
  3
ACAD_XREC_ROUNDTRIP
360
40ED
  0
DICTIONARY
  5
40E6
330
17E
100
AcDbDictionary
280
     1
281
     1
  3
ACAD_XREC_ROUNDTRIP
360
40E7
  0
DICTIONARY
  5
40E8
330
17F
100
AcDbDictionary
280
     1
281
     1
  3
ACAD_XREC_ROUNDTRIP
360
40E9
  0
DICTIONARY
  5
40D8
330
A6
100
AcDbDictionary
280
     1
281
     1
  3
ACAD_XREC_ROUNDTRIP
360
40D9
  0
DICTIONARY
  5
40CC
330
A0
100
AcDbDictionary
280
     1
281
     1
  3
ACAD_XREC_ROUNDTRIP
360
40CD
  0
DICTIONARY
  5
40EA
330
180
100
AcDbDictionary
280
     1
281
     1
  3
ACAD_XREC_ROUNDTRIP
360
40EB
  0
XRECORD
  5
40F3
102
{ACAD_REACTORS
330
40F2
102
}
330
40F2
100
AcDbXrecord
280
     1
102
DISPLAYNAME
  1
Imperial24
102
FLAGS
 90
        0
  0
XRECORD
  5
40F7
102
{ACAD_REACTORS
330
40F6
102
}
330
40F6
100
AcDbXrecord
280
     1
102
DISPLAYNAME
  1
Metric50
102
FLAGS
 90
        0
  0
XRECORD
  5
40BC
102
{ACAD_REACTORS
330
40BB
102
}
330
40BB
100
AcDbXrecord
280
     1
102
SHADEPLOT
 70
     0
102
SHADEPLOTRESLEVEL
 70
     2
102
SHADEPLOTCUSTOMDPI
 70
   300
  0
XRECORD
  5
40BE
102
{ACAD_REACTORS
330
40BD
102
}
330
40BD
100
AcDbXrecord
280
     1
102
SHADEPLOT
 70
     0
102
SHADEPLOTRESLEVEL
 70
     2
102
SHADEPLOTCUSTOMDPI
 70
   300
  0
XRECORD
  5
40BA
102
{ACAD_REACTORS
330
40B9
102
}
330
40B9
100
AcDbXrecord
280
     1
102
SHADEPLOT
 70
     0
102
SHADEPLOTRESLEVEL
 70
     2
102
SHADEPLOTCUSTOMDPI
 70
   300
  0
XRECORD
  5
3C3F
102
{ACAD_REACTORS
330
188
102
}
330
188
100
AcDbXrecord
280
     1
102
MATERIAL
148
0.0
149
0.0
149
0.0
 93
        0
 94
      127
282
     0
 72
     1
 77
     1
171
     1
175
     1
179
     1
273
     0
  0
XRECORD
  5
189
102
{ACAD_REACTORS
330
188
102
}
330
188
100
AcDbXrecord
280
     1
 70
     1
 90
429727718
  1
508B35C9-AEE7-456F-BE74-D52651303AC6
310
504B03040A0000080000B670623B3DEE336E79000000790000001B0000006175746F6465736B2D64657369676E2D7061636B6167652E786D6C3C3F786D6C2076657273696F6E3D22312E302220656E636F64696E673D227574662D3822203F3E3C666F726D6174733E3C666F726D61743E687474703A2F2F736368656D612E
310
6175746F6465736B2E636F6D2F64657369676E2D7061636B6167652F323030393C2F666F726D61743E3C2F666F726D6174733E504B0304140006080800B670623BD486FD9CA0000000F4000000130000005B436F6E74656E745F54797065735D2E786D6C7D8EC10E82300C865F65E91D8A1E8C310C0EEA1BF002731658846E
310
D98AC1B77784ABF1D8FE5FBFBF75BBCE937A534CCEB38643598122B6FEE978D0B0485F9C41B54DDD7D022595594E1A469170414C76A4D9A4D207E29CF43ECE46F218070CC6BECC4078ACAA135ACF422C856C0E68EA1BF5669944DDD7BCDE7B1F8E415D77AECB980613C2E4AC91FC167A2B244592486606FC29C8FD7F045B9A
310
EF7053A7E60B504B0304140006080800B670623B28ED286BEB0000007C01000008000000636F72652E786D6C8D90416EC3201045AF82665B6183218D6D61A254764FD00B204C5C94182C03558F5F9C3852BBEB6A467FFE9B197D71FA9E6FE8CBACC17AD7012D0820E3B41FAD9B3A48F1826B40272956EFE32F1B20A766D3C1
310
268314D3EAD3B24BDABB685CCCAAF3A3D94515828980F42D371D04FD696655A814B3235C8B45E9AB9A4C419F5D8653B2237A1CB163DE672FD6AC209BF3C08E0D1B30EB19C3FC9D72FCC6EB231EFA33EDE96BDD341517E5064B11EDFCBCAF57A3A2194156843498524CAA0FCA5B7268F9E185D42D21A2DCEC7FA0B48CFF8492
310
759155FBBB0F2C80A4F991FB408A72CB22977B50B96EB9C91F504B0304140006080800B670623B55019EA25F0000007C00000007000000636E782E786D6C4DCB3B0E80201045D1AD90E915ED2CF8AC45050C11660C8261F98AB1B07AC9C97D42D718D865D3E909258CFD00CCE24AC6E326A164D74DC0B4128928FF32603847
310
2BA13128B1252AC747C6BAB984FC68F0B87FE8960A5C09FE86CFB69FBA01504B0304140006080800B670623B7BC41AC871010000D40300000C0000006662782F636F72652E786D6CC553ED6E8320147D15C2DF4501B56B6D90A64BBB27D80B50A5CE54C120983EFEAE1F4DD7A56BBA5FF3879273EEE59E7310BE393735EA95
310
ED2AA333CC428A91D2B9292A5D66D8BB63B0C26823B835C67D2BC348CB46657880B1E0A535BE9DA1DC68A7B403549B42CDA0EC3AE530CA6B5864B8CB3F552343E91D5474A7B095F949962A6421D0502778E72C0840D390E18DC5F170E664C205F7BE2A66B62A605A75AC94C522DDEEE3651AEF837817C741F2CE92E02D592D
310
83FD6ECB76EC7595A651C2C9D02CB8AB9A8BBADC2AE954814544691A3016D0E883256BBA58278B17BA5A53CAC9507ED3E4DBE2C9265F691747B3DCA9ADC382819091F8E1162272A8933DE82182932144F88C09DF060D8140C84E1EEA8B8F1340BDCA9DB1093085F157AA97B557309586747CD0EF0B4EA64E983A6E0EAEEFCE
310
889E9EF17847386AA94B30211D2C0FDE0D3AF9A4610EAD5536E8DD1969631B593F67E381C33F5157F17725E5A636F6BF1491F980C8FC7B90E13E8A2F504B0304140006080800B670623B70102A487D0000009D0000000B0000006662782F636E782E786D6C4DCCD10A83201886E15B91FFDC95A5C30335ACCDFB886521330D
310
A76397BF1A1DECE883878F57749FD5A3B74D2F17830472A901D9F088930B8B849267CC01754AA418F3DF0D5018572BE160506249B16C274D761E8BCFBB7A179E27F65CB39A0F14D396184C9921B81F34C3ACA1B4B99ABB6E6F062A25AA5F69DF23ACBE504B0304140006080800B670623B3610CA3329010000120200003100
310
00006662782F42384135303843342D343331462D343546312D424341352D3532343432364645413344462F636F72652E786D6C8D515B6EC32010BC0AE22B55850D0E446E848992B43E412FE000495162B07854397EA176A4F62F3F2C9A9D991D58BEBB8F37F0AD7D30CE76905418026DA553C65E3A98E219B510EC04F7CEC5
310
3F3408EC30EA0E16180A7EF12E4D0B249D8DDAC68C5AA7F4020E21E80881BCE54B0783FCD2E3500D296646B856D320AFC34557A4CAEDCC133C449F0380794839A138B47B86DB2345744D7A44594FD0E1B867883594369BFE63BF7EEF793D0B054FC9A8456E548E63CE46FB674D8A58F068C6477CE9F510B582A2C1F80D1182
310
70F349E816B32D65AFB8DD62CCEB42FF274A937A52948C8DEB66893BCB021484D7734370E5D2E9F608A3EF93F3119479ABA0E50B14B8C298119A43CCC4FCFCECB8A18B6388CEE7EF5D5D4F994BD86CBBA182D76543B9FCAE2FD7B24DF103504B0304140006080800B670623B1B8617914E0100003303000030000000666278
310
2F42384135303843342D343331462D343546312D424341352D3532343432364645413344462F636E782E786D6CD593C16EC32010447F0571AD6CE3D489D20813A9877E410FBD62D82434182CC055F3F75D1292E692438FBD206B7698593D61BEFD1E2DF982108D773D6D6B460938E5B571FB9ECE6957AD29D90A1EBC4F7736
310
4A9C1CA1A759A682EF839FA72269D8C9D92654AD71C72206887E0E0A22CAF926B15E498B01E0AA19451807D01A34B919F16B070157417138917400F2F6FA41FCF0092A45DEE414C19BDC21783E4BD39D891265658C3D8DEA00A3ACE59CBC8678ACB54CB26EEB6BD7839D7E9348BE70AD9C8321B9BCA7F9A4A26C542347DEE0
310
50F09802D22BA6749A800A394DD62899107273365E3C82CFC6A55557BC06C10774B7ABE7AEC3B0F34CF06446280E154026D0542C187BA9DAB6628BF7B6DBB0E5A65B3EB1F58631DE64BBE083F7B65CC218087E22CABB042E51D1F2268F1FE12B3EA24D40D63E9CFE00120194D60B9D5BC67FE6D39CDF37E20AF817881F504B
310
0304140006080800B670623BBFEF2E3B690500003C100000340000006662782F42384135303843342D343331462D343546312D424341352D3532343432364645413344462F6F626A656374732E786D6CAD575D739B3814FD2B0CFB0C98D84E931D4227B6938EA793B6534F3BFB90198F0099B001899144EAECAFDF231018B0
310
D37A3FFC609090EEE7B94757C1FB7D915B2F54C88CB31BDB7727B64559CC938CA53776A576CE956DBD0F03C1B9EA2DB32D460A7A63EB693B0C52C1ABD24C257447AA5C8D66EF177F5832A68CDA569C13296F6C193FD182B8A4523CA1F2D94D88226EBADBBBBEDB2C1C8A4D05299F46424B222853B014F30C52ACC6287F389C
310
D85E1878FA7B18E87FB36AFAF62AAFF667A83F635211161F291B8999FAB3D5DDC5FCDA99CF6653677679E13B8BFBC5CAF1DF4D27CBCBE5F2FAF6EE1A8AA51290642C117467871F101B91C581D77CEA2C36869F3229E68CD1B8F61F1ED6361B89092D294B90C78C4A68EB793D190E7D1D9BDEE7A91E1B95FDE9F3BCEAEFE809
310
6A6D6F9F7D4B79F4275C90E7A04248AA51D5C4C738DAE06F72885AC4796EBE65D22A88A22223B995679120E2D50EB1542F098381188D4EA111AE3DB043FF20AF6F2B4AE3D7D83D65E5AECA730D4D3BAC91BD05FEA992B565D95F549CD6069B90AB2A63EACA38A45E4B6A87D781574F86817E4C2FCCC72690D62E2729520E37
310
9BAF234797BAF6D62B3BFC781FED37BA1E4F2B2F052FA9501A3E80569BB8F6A9A364D4FA67654E6F803383981F82F21591FF84F23D9882BC896C3FDBCF8C162508933B2E0AE4C69DD43F6BD2BE38DDDBF10BF86CB4FA784D37F3AF16075E67EC9030DECA1FC0A55373F5DFF3378C591FA9BDF485C10B0A8C8BA909E5262639
310
A8E72163488806A595734C81CB77D1DE0ED7604A303B76913CEC0272F412782FF88EFF4636D8AA56DF7B322474C4B767303F625997056C7B032C473C592B36CEBD15F3F9FF5233B7ABCDC74D257624A60F8658567497B14CE1EC3C80B76FD02011038F9EE9EB0F2E12387A9C844D3F09855125116D1D731DF8B43D2CF4E0A0
310
79A020C6BE946BCE0B7EA1E1219331CD73C228AF5A2DDD31A4B1DA918CE91350854D40A71723140BFA92E94E62B0626016CEFA5864A50E5977E8753CEDBEE1CBB7F52780D20E17AF0BA0F5F9B02A3AD07DCC732EB6D1EBB661421BE0C39E21BABF0FE16D22EA6929407C8DE596724C88B749B6DB5512BC7B228ADFD7CB7EA6
310
3A22397E690BA8D5D8D4E40CEC8CDA23C2C0B7D5898640101CEC9C6D331CE328CB93CAFBBAC70A642DF70DF95155945B52F08AA973C23469FD69ADEF84F7BB18F983A8F8C90E37F5D35980B2139A1C523540813E824EF83448CF7C72B598CE97D7CEEDDDDD3B6736BFBC771677EF66CE6A7E7139F7A793E9EDF2B2B3A8B624
310
0CDA13AA5F8388264EC4A0129909F3B7F5A16CEDF08128E97D680ACA4B9BE7B7B58BB638F0B00700EF36AE8B32A705658A68F83EE897FC2B41573190D1CCAF0B92D233A47CFEB019D9809933F67DD1A5467F8CF69AD9A5AE859342D45355448C64F968A371DC2D596ADC6E43D93D1B466F877A64E2893E54F23C4B40388995
310
525E5005DA3983ED45412510D3EFCA13737B3863F74BD30F2A12E5B4B5E489A025CE25500DB855B11ACE5BBFA185D35DD48D8DC3CE7DC69F2944DB42AA6F6CF09BCA622ADD08C7A36E7C6AE18000BAB08E040135C2D21C9D75B3A91B77BB746C403F38018DFE6EC939DD92F16B40BC05294B9CDA035AAD6D330AE27FE4786B
310
8E45145EA34A75BE1C263A676A35A8ACC6297337400BF16C54EF515F3F77CB77EB3583889C754FFA29081AA98E2222ADEF05DA3E63D2EDEA8B8756C05A7FB6CABC4A91CBF325398202CC952E70A008A830324BA200D5E5EF8F5F04C75DB4B0EE3340E071C98B823333B83577596BF3849B69F2085AA0FAFA212F26BEFF5877
310
FDE622B28D88A42E49E43326DA82D31E8CB006401E1DA726059ECEC168F97A6599036306A135688F9AD2E61A6EA178F4CD51974A9F2CCB9F36FE5EBD14601068D9C3BF01504B0304140006080000B670623B000000000000000000000000350000006662782F42384135303843342D343331462D343546312D424341352D35
310
32343432364645413344462F76657274696365732E62696E504B0304140006080800B670623BF270F1330600000004000000360000006662782F42384135303843342D343331462D343546312D424341352D3532343432364645413344462F747269616E676C65732E62696E636660600000504B0304140006080000B67062
310
3B000000000000000000000000370000006662782F42384135303843342D343331462D343546312D424341352D3532343432364645413344462F617474726962757465732E62696E504B0304140006080800B670623B08DA0BD19000000041010000360000006662782F42384135303843342D343331462D343546312D4243
310
41352D3532343432364645413344462F6469726563746F72792E786D6C858F410AC3201045AF22B36F53E9A60B35CBEEBAE80D244E44489C6234F4F835464A48035D0DF398FF9F8AF63D0E6CC63039F212F8F9020C7D47C6792B21C5FE7403D62A1188E2E60C98D7234A5830286103A55745067B9D86B8A3CF9C7F90C11DE6
310
07FB144396D7B6A82D282E9A152AD114D5EF2CB866EEE831B8EEA07A7BB5A8D7D61A2BAAEB7FD5F70921FF497D00504B0304140006080800B670623B3B4606F3FE000000A00100003B0000006662782F42384135303843342D343331462D343546312D424341352D3532343432364645413344462F7265736F75726365732F
310
636F72652E786D6C8D504B6E833010BD0A9A6D65B08134808CA354A427E8052C332156828DFCA97AFC9A40A576D7CDCCE87D344F8F9FBEE647F689CE6B6B7A6039850C8DB2A336530F315C4903D94970676DF82583CCC8197B5861107C72362E3BA4AC096842428D1D7107A5F71820538F74F4E0D50D6799CB1892C2DFF345
310
AABB9C306779A2934E701F5C0A906D4FD609C2A1B7D129F4BCD858C163D4E3AED163FAA9AF1A1D88F67CA98E6D35906AA82A52BFB39ABCD5CD915C86331BD86BD3B665CD8BD52C78D0F34F46E550061C419494B6843142CB0F5677F4D0D58717DA7494F26295FF31C565FCA7296A13AA728FBBD93C0896823C09C18BB5AFB4
310
9E65A6BD762BBE01504B010214000A0000080000B670623B3DEE336E79000000790000001B00000000000000000000000000000000006175746F6465736B2D64657369676E2D7061636B6167652E786D6C504B01021400140006080800B670623BD486FD9CA0000000F40000001300000000000000000000000000B2000000
310
5B436F6E74656E745F54797065735D2E786D6C504B01021400140006080800B670623B28ED286BEB0000007C010000080000000000000000000000000083010000636F72652E786D6C504B01021400140006080800B670623B55019EA25F0000007C000000070000000000000000000000000094020000636E782E786D6C50
310
4B01021400140006080800B670623B7BC41AC871010000D40300000C00000000000000000000000000180300006662782F636F72652E786D6C504B01021400140006080800B670623B70102A487D0000009D0000000B00000000000000000000000000B30400006662782F636E782E786D6C504B01021400140006080800B6
310
70623B3610CA3329010000120200003100000000000000000000000000590500006662782F42384135303843342D343331462D343546312D424341352D3532343432364645413344462F636F72652E786D6C504B01021400140006080800B670623B1B8617914E010000330300003000000000000000000000000000D10600
310
006662782F42384135303843342D343331462D343546312D424341352D3532343432364645413344462F636E782E786D6C504B01021400140006080800B670623BBFEF2E3B690500003C10000034000000000000000000000000006D0800006662782F42384135303843342D343331462D343546312D424341352D35323434
310
32364645413344462F6F626A656374732E786D6C504B01021400140006080000B670623B0000000000000000000000003500000000000000000000000000280E00006662782F42384135303843342D343331462D343546312D424341352D3532343432364645413344462F76657274696365732E62696E504B010214001400
310
06080800B670623BF270F133060000000400000036000000000000000000000000007B0E00006662782F42384135303843342D343331462D343546312D424341352D3532343432364645413344462F747269616E676C65732E62696E504B01021400140006080000B670623B00000000000000000000000037000000000000
310
00000000000000D50E00006662782F42384135303843342D343331462D343546312D424341352D3532343432364645413344462F617474726962757465732E62696E504B01021400140006080800B670623B08DA0BD1900000004101000036000000000000000000000000002A0F00006662782F42384135303843342D3433
310
31462D343546312D424341352D3532343432364645413344462F6469726563746F72792E786D6C504B01021400140006080800B670623B3B4606F3FE000000A00100003B000000000000000000000000000E1000006662782F42384135303843342D343331462D343546312D424341352D3532343432364645413344462F72
310
65736F75726365732F636F72652E786D6C504B0506000000000E000E0080040000651100000000
  0
XRECORD
  5
3C3E
102
{ACAD_REACTORS
330
186
102
}
330
186
100
AcDbXrecord
280
     1
102
MATERIAL
148
0.0
149
0.0
149
0.0
 93
        0
 94
      127
282
     0
 72
     1
 77
     1
171
     1
175
     1
179
     1
273
     0
  0
XRECORD
  5
187
102
{ACAD_REACTORS
330
186
102
}
330
186
100
AcDbXrecord
280
     1
 70
     1
 90
429727718
  1
887D55A9-D0DD-414E-B741-A7DCD4DA2B4C
310
504B03040A0000080000B670623B3DEE336E79000000790000001B0000006175746F6465736B2D64657369676E2D7061636B6167652E786D6C3C3F786D6C2076657273696F6E3D22312E302220656E636F64696E673D227574662D3822203F3E3C666F726D6174733E3C666F726D61743E687474703A2F2F736368656D612E
310
6175746F6465736B2E636F6D2F64657369676E2D7061636B6167652F323030393C2F666F726D61743E3C2F666F726D6174733E504B0304140006080800B670623BD486FD9CA0000000F4000000130000005B436F6E74656E745F54797065735D2E786D6C7D8EC10E82300C865F65E91D8A1E8C310C0EEA1BF002731658846E
310
D98AC1B77784ABF1D8FE5FBFBF75BBCE937A534CCEB38643598122B6FEE978D0B0485F9C41B54DDD7D022595594E1A469170414C76A4D9A4D207E29CF43ECE46F218070CC6BECC4078ACAA135ACF422C856C0E68EA1BF5669944DDD7BCDE7B1F8E415D77AECB980613C2E4AC91FC167A2B244592486606FC29C8FD7F045B9A
310
EF7053A7E60B504B0304140006080800B670623BBC1638F5EC0000007C01000008000000636F72652E786D6C8D90416EC3201045AF82665B61836BE2D8C24471DB9CA01740401C94182C03558F5F9C3852BBEB6A467FFE9B197D7EF89E6EE8CB2CC17AD7032D0820E394D7D68D3DA478C67B4007C117EFE32F1B202727D3C3
310
2A83E0E3E2D3BC49CABB685CCCAAF3DA6CA20CC14440EA969B1E82BA98491632C5EC08D76296EA2A4753D06797E194AC468F2356E77DF66CCD02825543D50CACC62D39ED70FDC68EB8FD68F6F8787A6784342D1DDA1D2F5758F068A7E77DB518198D065111D2624A31A93E69DD11D6D5EC85EC3B4278B9DAFF4069D6FF8492
310
75F1B5DADE7D600104CD8FDC0782976B16B9DC83CA75CD4DFC00504B0304140006080800B670623B55019EA25F0000007C00000007000000636E782E786D6C4DCB3B0E80201045D1AD90E915ED2CF8AC45050C11660C8261F98AB1B07AC9C97D42D718D865D3E909258CFD00CCE24AC6E326A164D74DC0B4128928FF326038
310
472BA13128B1252AC747C6BAB984FC68F0B87FE8960A5C09FE86CFB69FBA01504B0304140006080800B670623B3586FFB671010000D40300000C0000006662782F636F72652E786D6CC553ED6E8320147D15C2DF4541A76D6D90A6DDD627D80B50A4CE54C120983EFEAE1F4DD7A55BBA5FF3879273EEE59E7310B6393735EA
310
95ED2AA3731C851423A5A5292A5DE6D8BB63B0C268C39935C67D29C3488B46E578803167A535BE9D2169B453DA01AA4DA16650749D7218C91A1639EEE4876A4428BC838AEE14B6429E44A9C228041AEA38EB9C0501681A32BC313F1ECE8C4C3867DE57C5CC56054CAB8E95B298A7F12E5EEED224C8E87E11242FE936C8DE96
310
AB60BB7F4D295D66D12E5B30323473E6AAE6A24E5A259C2A308F29CD82280A68FC1E256B9AAE93F489AED694323294DF34F9B678B0C957DA3DC7B3DCA9ADC33C022123F1CD2D44E450277AD04338234388F01913BE0D1A0281909D38D4171F27807A259DB1093085F157AA17B557309586747CD0CF0B46A64E983A6E0EAEEF
310
CE881F9EF1FB8E70D44297604238581EBC1B74B249C31C5AAB6CD0BB33D2C636A27ECCC62F0EFF445DC5DF95244D6DEC7F2922F30191F9F720C37DE49F504B0304140006080800B670623B4220A0FF7D0000009D0000000B0000006662782F636E782E786D6C4DCCD10A83201886E15B91FFDCE542CB0335D0EC3E6259C84A
310
C3E9D8E5AF46073BFAE0E1E315DD675BD1DBA5978F41C2FD4600B9F088930F8B849267CC01754AA418F3DF0D50183727E164506249B1EC174D6E1ECB9A0F5D7D785E68DB8151CD286E5A5363CA6B8A39E90D36D40E96B086F55A43A544F52B1D7B86D517504B0304140006080800B670623B2FA3FEDE290100001202000031
310
0000006662782F45374635344235342D363743322D343832342D383044432D4334454645303536354442422F636F72652E786D6C8D515B6EC32010BC0AE22B55850D2E386E848994D7097A0117488A1283C5A3CAF10BB523B57FF961D1ECCCECC0F2ED7DBC816FED8371B687A4C210682B9D32F6D2C314CFA883602BB8772E
310
FEA141608751F7B0C050F08B77695A20E96CD43666D43AA5177008414708E42D5F7A18E4971E876A483133C2B59A06791D2EBA22556E679EE021FA1C00CC43CA09C5717D6274C7286AD7FB06D1AEA1A8C3873DDAD3E3E98859CB0EBB1DAF67A1E02919B5C88DCA71CCD968FFAC49110B1ECDF8882FBD1EA256503418BF2342
310
106E3E08DD60B6A1EC15771B8C795DE8FF4469524F8A92B1F1AD59E2CEB20005E1F5DC105CB9F4797B84D1F7C9F908CABC55D0F2050A5C61CC1AD2F27A26E6E767C7962E8E213A9FBF7775FDCC5CC266DB960A5E970DE5F2BBBE5CCB36C50F504B0304140006080800B670623B1B8617914E01000033030000300000006662
310
782F45374635344235342D363743322D343832342D383044432D4334454645303536354442422F636E782E786D6CD593C16EC32010447F0571AD6CE3D489D20813A9877E410FBD62D82434182CC055F3F75D1292E692438FBD206B7698593D61BEFD1E2DF982108D773D6D6B460938E5B571FB9ECE6957AD29D90A1EBC4F77
310
364A9C1CA1A759A682EF839FA72269D8C9D92654AD71C72206887E0E0A22CAF926B15E498B01E0AA19451807D01A34B919F16B070157417138917400F2F6FA41FCF0092A45DEE414C19BDC21783E4BD39D891265658C3D8DEA00A3ACE59CBC8678ACB54CB26EEB6BD7839D7E9348BE70AD9C8321B9BCA7F9A4A26C542347DE
310
E050F09802D22BA6749A800A394DD62899107273365E3C82CFC6A55557BC06C10774B7ABE7AEC3B0F34CF06446280E154026D0542C187BA9DAB6628BF7B6DBB0E5A65B3EB1F58631DE64BBE083F7B65CC218087E22CABB042E51D1F2268F1FE12B3EA24D40D63E9CFE00120194D60B9D5BC67FE6D39CDF37E20AF817881F50
310
4B0304140006080800B670623B29652116630500003C100000340000006662782F45374635344235342D363743322D343832342D383044432D4334454645303536354442422F6F626A656374732E786D6CAD575D739B3814FD2B0CFB0C989834C90EA1639B24E3E9A6EDD4D3CE3E64C623834CD8006224913AFDF57B040203
310
B65BEF871F0C12D2FD3CF7E8CA7FBFCB33E3957291B2E2D674ED8969D02262715A24B76625B7D6B569BC0F7CCE98EC2D338D82E4F4D654D366E0279C55A59E8AE99654991CCDDECFFF3444440B6A1A514684B83545F44C7362934AB2988A173B2692D8C97667BB76B3702836E1A47C1E092D09A78584A5982F20C5688C7287
310
C389E904BEA3BE07BEFAD7ABA6A75739B53F43FD69212429A20365233153D70BEF2E2E6FAC4BCF9B5ADEBB0BD79ADFCF43CBBD9A4E16EF168B9BD9DD0D140BC921495BC2E9D60C1E101B9E46BED37CEA2CD6861F3329624541A3DA7F7858DBAC25C6B4A4458C3CA654405BCFEBC970E8AAD8F43E4FD558ABEC4F9FE7557F47
310
4F506B7BFBEC5BCA367FC105710E2AB8A00A554D7CB4A30DFE26FBA86D18CBF4B75418399194A72433B274C3097F33032C554B027F2046A1932B842B0FCCC0DDCBEBDB8AD2F835768F59B9ADB24C41D30C6A64AF817F2A456D59FA83F2E3DA60137255A585BCD60EC9B7929AC18DEFD49381AF1ED30BFDB109A4B1CD488294
310
C3CDE6EBC8D185AABD6568061FEE37BB95AAC7E3CA4BCE4ACAA5820FA0D526AE7DAA2869B5EE5999531BE0CC20E6FBA07C41E43FA27CF7A6206F3CDD793B4F6B919C1462CB788EDCD893FA674CDA17AB7B3B7C019F8D561FAEE966FED562DFE98C1D12C6A9FC015C2A35D7FF3D7FC398F591DA4B5FE0BFA2C0189FEA50AE22
310
92817A1ED3020951A03432862970F976B33383259812CC8E5D240BBA801CBCF8CE2BBEE3BF910DB6AAD5F79E05123AE2DB33981FB1ACCB02B69D00CB014FD68AB573A7627EF9BFD4CC2C5C7D58557C4B22FAA88925A4DBB44825CECE3D78FB060D1231F0E885BE7D673C86A3874958F593906B5502D1563157814FDAC3420D
310
F69A070A22EC4B98E23CFF171A1E5311D12C23056555ABA53B8614563B92D17D02AAB009E8F46284624E5F53D5490C560CCCC2591FF1B45421EB0EBD8EA7ED13BE7C5D7E0428CD60FEF60779EB13E6664FF711CB185F6FDED60D139A001FF60CD1FD6D086F1D51474901E26B2CB794A343BC8ED3EDB612E0DD2351FCB65CF4
310
33D511C9E14B5B40ADC6A6263DB0336A8F700DDF56271A024E70B0B3629DE21847591E55DED73D56206AB927E46FAABC5C939C55853C274C93D69FD6FA4E78BF8B11DF898C9ECD60553FAD39283BA6F18984AA23E8884F83F45C5F5F859797B31B2B9C84A1E5B9DE9D35BFF25C6B76152E422F9C5DCC3D847F5801ED09D5AF
310
41441327A25FF15487F9EB725FB666F048A4701E9A827292E6F97569A32DF61DEC01C0BB8DCBBCCC684E0B49147C1FD54BF685A0AB18C868E6973949E819523E3DAC463660E68C7D9F55A9D1EFA3BD7A76A16AE1A810F95CE59B82A4D968A376DC2E8B44BBDD86B27B368CDE0ED548C7137DA860591A83706223A12CA712B4
310
7306DBF39C0A20A6DF95C7FAF670C6EED7A61F946493D1D6926782963813403548A78AE470DEF80D2D9CEAA26E4D1C76F60BFE74219A06527D6B82DF641A51616F703CAAC6A7160E08A00BEB4810A0274592A1B36E3675E36E978A0DE80727A0D6DF2D39A75BD27E0D8837276589537B40ABB56D5A41F48F1C6FCD3188C4EB
310
A6929D2FFB89CE995A4D00AE813BDD032DC48B56BD437DFDDC2DD7AED70C2272D63DE9A72068A45A92F0A4BE17A8A06B9366E16707AD80B1FC649459952097E74BB23805982B55E0401150A165964402AA8BDF9F3E7386BB686EDCA780C0D382E5392BF460A6EFB2C6EA1937D3F809B440D5F5435C4C5CF7A9EEFAF54564BD
310
2182DA24162F98680B4E7930C21A0079709CEAEB99A372305ABE0C0D7D6078105A83F6A0296DAEE1068A47DD1C55A9F4C9B2FC69E3EFD44B81028E963DF81B504B0304140006080000B670623B000000000000000000000000350000006662782F45374635344235342D363743322D343832342D383044432D433445464530
310
3536354442422F76657274696365732E62696E504B0304140006080800B670623BF270F1330600000004000000360000006662782F45374635344235342D363743322D343832342D383044432D4334454645303536354442422F747269616E676C65732E62696E636660600000504B0304140006080000B670623B00000000
310
0000000000000000370000006662782F45374635344235342D363743322D343832342D383044432D4334454645303536354442422F617474726962757465732E62696E504B0304140006080800B670623B08DA0BD19000000041010000360000006662782F45374635344235342D363743322D343832342D383044432D4334
310
454645303536354442422F6469726563746F72792E786D6C858F410AC3201045AF22B36F53E9A60B35CBEEBAE80D244E44489C6234F4F835464A48035D0DF398FF9F8AF63D0E6CC63039F212F8F9020C7D47C6792B21C5FE7403D62A1188E2E60C98D7234A5830286103A55745067B9D86B8A3CF9C7F90C11DE607FB144396
310
D7B6A82D282E9A152AD114D5EF2CB866EEE831B8EEA07A7BB5A8D7D61A2BAAEB7FD5F70921FF497D00504B0304140006080800B670623B6378F24DFF000000A00100003B0000006662782F45374635344235342D363743322D343832342D383044432D4334454645303536354442422F7265736F75726365732F636F72652E
310
786D6C8D504B6E833010BD0A9A6D65B0094E42641C85B639412F6099496225D8C89FAAC7AF09546A77DDCC8CDE47F3F4C4F16B7C149FE88371B603565228D06A37187BED20C50BD9437194C23B177FC9A0B06AC40E6618A4B87A97A615D2CE46B431A3D60DB8822A048C50E8473E3A08FA86A32A558A5911EEE5A4F45D5DB1
310
6465A6B34E8A107D0E502C4FE609D26370C96B0CA25A58295232C3AA3143FE692E063D485EF7F5AEE71BD2D2F39634AFFC44DAF7DD9E9CCE6F9CD25DCBFA762BAAD92C4534E34F46ED51451C40D694B6843142EB0FD61C283F34FC85EE0F948A6A96FF31A569F8A729191B37F51A77B105902C0779125254735F793DCBCC7B
310
EE567E03504B010214000A0000080000B670623B3DEE336E79000000790000001B00000000000000000000000000000000006175746F6465736B2D64657369676E2D7061636B6167652E786D6C504B01021400140006080800B670623BD486FD9CA0000000F40000001300000000000000000000000000B20000005B436F6E
310
74656E745F54797065735D2E786D6C504B01021400140006080800B670623BBC1638F5EC0000007C010000080000000000000000000000000083010000636F72652E786D6C504B01021400140006080800B670623B55019EA25F0000007C000000070000000000000000000000000095020000636E782E786D6C504B010214
310
00140006080800B670623B3586FFB671010000D40300000C00000000000000000000000000190300006662782F636F72652E786D6C504B01021400140006080800B670623B4220A0FF7D0000009D0000000B00000000000000000000000000B40400006662782F636E782E786D6C504B01021400140006080800B670623B2F
310
A3FEDE290100001202000031000000000000000000000000005A0500006662782F45374635344235342D363743322D343832342D383044432D4334454645303536354442422F636F72652E786D6C504B01021400140006080800B670623B1B8617914E010000330300003000000000000000000000000000D2060000666278
310
2F45374635344235342D363743322D343832342D383044432D4334454645303536354442422F636E782E786D6C504B01021400140006080800B670623B29652116630500003C10000034000000000000000000000000006E0800006662782F45374635344235342D363743322D343832342D383044432D4334454645303536
310
354442422F6F626A656374732E786D6C504B01021400140006080000B670623B0000000000000000000000003500000000000000000000000000230E00006662782F45374635344235342D363743322D343832342D383044432D4334454645303536354442422F76657274696365732E62696E504B01021400140006080800
310
B670623BF270F13306000000040000003600000000000000000000000000760E00006662782F45374635344235342D363743322D343832342D383044432D4334454645303536354442422F747269616E676C65732E62696E504B01021400140006080000B670623B0000000000000000000000003700000000000000000000
310
000000D00E00006662782F45374635344235342D363743322D343832342D383044432D4334454645303536354442422F617474726962757465732E62696E504B01021400140006080800B670623B08DA0BD190000000410100003600000000000000000000000000250F00006662782F45374635344235342D363743322D34
310
3832342D383044432D4334454645303536354442422F6469726563746F72792E786D6C504B01021400140006080800B670623B6378F24DFF000000A00100003B00000000000000000000000000091000006662782F45374635344235342D363743322D343832342D383044432D4334454645303536354442422F7265736F75
310
726365732F636F72652E786D6C504B0506000000000E000E0080040000611100000000
  0
XRECORD
  5
3C40
102
{ACAD_REACTORS
330
110
102
}
330
110
100
AcDbXrecord
280
     1
102
MATERIAL
148
0.0
149
0.0
149
0.0
 93
        0
 94
      127
282
     0
 72
     1
 77
     1
171
     1
175
     1
179
     1
273
     0
  0
XRECORD
  5
112
102
{ACAD_REACTORS
330
110
102
}
330
110
100
AcDbXrecord
280
     1
270
     1
271
     1
  0
XRECORD
  5
111
102
{ACAD_REACTORS
330
110
102
}
330
110
100
AcDbXrecord
280
     1
270
     1
271
     1
  0
XRECORD
  5
18A
102
{ACAD_REACTORS
330
110
102
}
330
110
100
AcDbXrecord
280
     1
 70
     0
 90
1778669749
  1
9BF507EE-FAF7-4A99-A33D-4EE51894BC40
310
504B03040A0000080000B670623B3DEE336E79000000790000001B0000006175746F6465736B2D64657369676E2D7061636B6167652E786D6C3C3F786D6C2076657273696F6E3D22312E302220656E636F64696E673D227574662D3822203F3E3C666F726D6174733E3C666F726D61743E687474703A2F2F736368656D612E
310
6175746F6465736B2E636F6D2F64657369676E2D7061636B6167652F323030393C2F666F726D61743E3C2F666F726D6174733E504B0304140006080800B670623BD486FD9CA0000000F4000000130000005B436F6E74656E745F54797065735D2E786D6C7D8EC10E82300C865F65E91D8A1E8C310C0EEA1BF002731658846E
310
D98AC1B77784ABF1D8FE5FBFBF75BBCE937A534CCEB38643598122B6FEE978D0B0485F9C41B54DDD7D022595594E1A469170414C76A4D9A4D207E29CF43ECE46F218070CC6BECC4078ACAA135ACF422C856C0E68EA1BF5669944DDD7BCDE7B1F8E415D77AECB980613C2E4AC91FC167A2B244592486606FC29C8FD7F045B9A
310
EF7053A7E60B504B0304140006080800B670623BCA089DFFEC0000007C01000008000000636F72652E786D6C8D90416E83301045AF62CDB632D8402020E32882F604BD80653BC44AB011B6AB1EBF262152BBEB6A467FFE9B197D76FA9EEFE84BAFDE38DB03CD08206DA553C64E3DC470C1474027CE56E7C22F1B202B66DDC3
310
260367D3EAE2B24BD2D9A06D48AA754AEFA2F05E0740F29E9A1EBCBCEA59642286E4F0B76C11F226269DD15797E0188D42CF2346A57DE662F40ABCAEC77628C6120F654571D50C04B7F5B9C1E3997CD4F550BE3745C3F20DE62C98F9755FAE5A04AD801784B498524C8A4F5A75E4D055873772EC0861F966FF03C545FD138A
310
C686B2D8DF7D621E384D8F3C069CE55B16A93C824A75CB8DFF00504B0304140006080800B670623B55019EA25F0000007C00000007000000636E782E786D6C4DCB3B0E80201045D1AD90E915ED2CF8AC45050C11660C8261F98AB1B07AC9C97D42D718D865D3E909258CFD00CCE24AC6E326A164D74DC0B4128928FF326038
310
472BA13128B1252AC747C6BAB984FC68F0B87FE8960A5C09FE86CFB69FBA01504B0304140006080800B670623B68FC0B7272010000D40300000C0000006662782F636F72652E786D6CC5535B6E833010BC8AE5DF0A6C1E8124328E22D29EA01770C0A128602363A31CBFCB234A53A555FA553EC09AD9F5CE8C31DB5DDA060D
310
D2F4B556190E7C8A9154852E6B5565D8D993B7C668C799D1DA7E29C3488956667884316795D1AE5BA0422B2B950554E9522EA0E87B69312A1A5864B82F3E642B7CE12C54F467BF13C55954D20F7CA0A18EB3DE1A1080E621E31BF3D3F1C2C88C73E65C5D2E6C5DC2B4FA544B8379921C36797888BC3C8A032F4E73EA6D927D
310
EA1DF6F42D49F2E8350D5346C666CE6CDD5ED515460A2B4BCC434A375E1078347C0FE22D5D6DE3D50B5D6F2965642CBF6B725DF96493AB958DC245EEDCD6631E809089F8E61622B2A81703E8219C913144F84C09DF070D8140C8561C9BAB8F3340832CAC363130A576376A108D933095FA747AD0CF0B46E64E983A6D0EAE1F
310
CE089F9EF1FB8E70D44255604258581E9D1D75B259C3125A278D37D80B52DAB4A279CEC62F0EFF44DDC43F9454E8469BFF5244960322CBEF41C6FBC83F01504B0304140006080800B670623B0F71DDB67E0000009D0000000B0000006662782F636E782E786D6C4DCCD10A83201886E15B91FFDCA54DB73F502386BB8F5816
310
32D3703976F9ABD1C18E3E78F87855FB990379BBFCF2296AE02706C4C5471A7C9C349475A408A4352AA7B4FEDD80C47E761A7606A3A69CCA72D0E0C6BE8475D3E0E3F3409428EA6B27A84079A782899AA2EC1A7AE3ECCC2FD858CB2D544655BFD2B67BD87C01504B0304140006080800B670623BE134B4FB28010000120200
310
00310000006662782F38353834323741342D343835462D343034322D383541392D4331303331363839454531452F636F72652E786D6C8D515B6EC32010BC0AE22B55850D0EA424C24451959EA0172086A42831583CAA1CBF503B52FB971F16CDCECC0EACD8DFC71BF836215AEF7A481A0C817183D7D65D7A98D3197108F652
310
04EFD31F1A044E8DA6871586525C82CFD3020DDE25E352419DD76601558C264130DCCAA58771F832A36A544E8511AFCDA486ABBA988634A55D7852C4144A00300FA927949C71DABD1D28A29C7D208A6987383B6CD13BC16BB2E1DBE3911C453B0BA5C8D9EA456E758963CFD684674DAA588A64C747FC2118958C86B2C3788B
310
0841B8FB247487D98EB257CC77188BB6D2FF89F2A49F1465EBD2BA5BE2CEB2082511EDDC9042FB7CBA3DC298FBE4430275DE2A9AE1054ADC60CC08E3A29D89E5F9C5714317C7987C28DFBBBA9E0A97B0D97643A568EB864AF95D5FA9759BF207504B0304140006080800B670623B1B8617914E010000330300003000000066
310
62782F38353834323741342D343835462D343034322D383541392D4331303331363839454531452F636E782E786D6CD593C16EC32010447F0571AD6CE3D489D20813A9877E410FBD62D82434182CC055F3F75D1292E692438FBD206B7698593D61BEFD1E2DF982108D773D6D6B460938E5B571FB9ECE6957AD29D90A1EBC4F
310
77364A9C1CA1A759A682EF839FA72269D8C9D92654AD71C72206887E0E0A22CAF926B15E498B01E0AA19451807D01A34B919F16B070157417138917400F2F6FA41FCF0092A45DEE414C19BDC21783E4BD39D891265658C3D8DEA00A3ACE59CBC8678ACB54CB26EEB6BD7839D7E9348BE70AD9C8321B9BCA7F9A4A26C542347
310
DEE050F09802D22BA6749A800A394DD62899107273365E3C82CFC6A55557BC06C10774B7ABE7AEC3B0F34CF06446280E154026D0542C187BA9DAB6628BF7B6DBB0E5A65B3EB1F58631DE64BBE083F7B65CC218087E22CABB042E51D1F2268F1FE12B3EA24D40D63E9CFE00120194D60B9D5BC67FE6D39CDF37E20AF817881F
310
504B0304140006080800B670623B5933D422630500003B100000340000006662782F38353834323741342D343835462D343034322D383541392D4331303331363839454531452F6F626A656374732E786D6CAD575B6FA33814FE2B887D0642934E9B156594264D158D3A534DD4D13E548A0C38942D60649B4EBABF7E3F8321
310
40924EF6928780CDF1B97EE762EFF32E4B8D37CA45C2F21BD3B547A641F39045491EDF98A5DC5AD7A6F1D9F73863B243661A39C9E88DA9B64DDF8B392B0BBD15D12D295339D85DDEFE618890E6D434C2940871638AF08566C426A5641115AF764424B1E3EDCE76ED9AB0CF36E6A47819302D08A7B984A6D8CFC1C5A89572FB
310
CB91E9F89EA3BEFB9EFAD754E3D3544E654F5F7E920B49F2F040D880CDD89D2CEE2E2EA7D6E56432B6269F2E5CEB7679BBB0DCABF168FE693E9FCEEEA6102C240727AD09A75BD3BF876F78127A4EFDA9D5582B7E4CA590E5390D2BFB6161A5B3E618D182E611E2985001691DAB47FDA5AB7CD3F93C566B2DB2BB7D9E55DD13
310
1D468DEECDB3AB290BFE8409E21C54704115AA6AFF68436BFC8DF65E0B184BF5B74418199194272435D224E084BF9B3E481589EFF5D828747285706581E9BB7B7E5D5D911ABFC6EE312DB7659A2A689A7E85EC0DF04FA5A8344BFEA2FCB834E8845895492EAFB541F2BDA0A63FF59C6AD3F7D4637CA13FD68E34B629891172
310
98597F1D183A57B9B75A98FE9765B05BAB7C3C2EBCE0ACA05C2AF8005A4DE09AA7F29216EB9E15397500C6F47CBE77CA7778FE2BD277AF0AE2C693DD6437D1522427B9D8329E2136F6A8FA19A3E6C56ADF0E5F50CF06D48734EDCEBF22F69C56D97EC138153F804B85E6FABFC7AFEFB32E523BE1F3BD372418E363EDCA7548
310
52949E8724474014288D94610BB57C1BEC4C7F854A89CA8E5324F55B871CBC78CE1BBEE3BFE68D6A5589EF3C730474506FCFA8FCF0659516D0ED04580EEA6425581B77CAE797FF4BCECC16EB2FEB926F49481F746159D06D922712BD730FDEAE42BD40F42C7AA5EF3F198F60E86110D6DD20645A9480B795CF95E3E3A659A8
310
C55E724F408873315335CFFB8584874484344D494E59D94869DB90C26A5B64F49C802CAC1D3ABE18A098D3B7444D123D8A9E5AE8F5214F0AE5B2B6E9B575DA3E61CBD3EA2B4009FA940524DD1305FB6A1FB294F14DF0BEA90BA109ECE1481FDC3FFAE8D60E75141700BE82725371B4873751B2DD960265F788137FACE6DD40
310
B575E4F0A5C99F46629D92131467A41EE11ABD8D4CCC039CA0AFB37C93A08B232B8F0AEFCA1E0A1015DF13FC83322B362463652ECF71D3A8B1A7D1BE65DE1D62C44F22C317D35F574FEB16153BA2D13E543D10A80E74C4A65E78A6B7CBCBD1D5DD9DB59C2DAFACC96C3AB566E3F1C29ADCDD5DBAD7D3C9ED7C822ED74F80A6
310
41755310DE4443F44A9E68373FADF6596BFA0F440AE7BECE2727AE9F4F2B1B53B1E7E00CF0DD1E5C65454A339A4BA2D0FBA05ED2EF0443458F47BDBFCA484CCFE0F2ED7E3DD0013B679C7B5499467F0ECEEADDB9CA85A34CE44B99053949D2C1416DB85DE4B136BB7165FBAC0B7AB3542BED4F8CA182A549847A1319316519
310
95A83A67147B9E5101C47487F2485F1ECE38FD568F839204296D3479219888530154036E6528FBFBC66F98E0D4107563A2D7D9AFF8D389681A08F58D89F22693900A3B407754734FC51C10C010D6D640809EE4718AC1BA3ED4AEDB53CA37283F68805A7E4B72CEB0A4EDEAD5DD8C14059A76AFAA56BA6901E13F32BC51C720
310
12AF41295B5BF61BAD3195181FB506E6B40F4C10AF5AF40EF9F5B159AE5DD1F43C72D635E94310D45C2D49785C5D0B94D3B54AB3C5A38349C0587D338AB48C11CBF339599C02CCA54A70A008A8D03C0B2201D5F9EFCF8F9CE12A9A19CB0410789EB32C63B95ECCF455D658BFE0621A3DA32C5075FB101723D77DAE867E7D0F
310
D90444509B44E2151B4DC2290B065803200FBAA9BE9D392A0603F2D5C2D00D6302A615680F66D2FA166E2079D4C551A54AB758161FCEFD4E450A14704CECFEDF504B0304140006080000B670623B000000000000000000000000350000006662782F38353834323741342D343835462D343034322D383541392D4331303331
310
363839454531452F76657274696365732E62696E504B0304140006080800B670623BF270F1330600000004000000360000006662782F38353834323741342D343835462D343034322D383541392D4331303331363839454531452F747269616E676C65732E62696E636660600000504B0304140006080000B670623B000000
310
000000000000000000370000006662782F38353834323741342D343835462D343034322D383541392D4331303331363839454531452F617474726962757465732E62696E504B0304140006080800B670623B08DA0BD19000000041010000360000006662782F38353834323741342D343835462D343034322D383541392D43
310
31303331363839454531452F6469726563746F72792E786D6C858F410AC3201045AF22B36F53E9A60B35CBEEBAE80D244E44489C6234F4F835464A48035D0DF398FF9F8AF63D0E6CC63039F212F8F9020C7D47C6792B21C5FE7403D62A1188E2E60C98D7234A5830286103A55745067B9D86B8A3CF9C7F90C11DE607FB1443
310
96D7B6A82D282E9A152AD114D5EF2CB866EEE831B8EEA07A7BB5A8D7D61A2BAAEB7FD5F70921FF497D00504B0304140006080800B670623BD9A3B367FE000000A00100003B0000006662782F38353834323741342D343835462D343034322D383541392D4331303331363839454531452F7265736F75726365732F636F7265
310
2E786D6C8D504B6E833010BD0A9A6D65B01D0201194711694FD00B586642AD043BF2A7EAF16B122AB5BB6E6646EFA3797AE2F8B5DC8A4FF4C1383B002B291468B59B8C9D0748F1420E501CA5F0CEC55F3228AC5A708015062966EFD27D83B4B3116DCCA875136EA00A012314FA968F0182FEC045952AC5AC08D7F2AEF455CD
310
58B232D3592745883E07289E4FD609D26370C96B0CA27AB252A464A64D63A6FCD35C0C7A904D73EE467EE664DCD58CD4ED4849D79C5A723ED1B7A61977AF2D6F45B59AA58866F9C9A83DAA8813484E6947182394BFB3BAA7FBBEDEBFD0434FA9A856F91F53BA4FFF342563E38E6F719FB60092E5200F428A6AED2BAF479979
310
AFDDCA6F504B010214000A0000080000B670623B3DEE336E79000000790000001B00000000000000000000000000000000006175746F6465736B2D64657369676E2D7061636B6167652E786D6C504B01021400140006080800B670623BD486FD9CA0000000F40000001300000000000000000000000000B20000005B436F6E
310
74656E745F54797065735D2E786D6C504B01021400140006080800B670623BCA089DFFEC0000007C010000080000000000000000000000000083010000636F72652E786D6C504B01021400140006080800B670623B55019EA25F0000007C000000070000000000000000000000000095020000636E782E786D6C504B010214
310
00140006080800B670623B68FC0B7272010000D40300000C00000000000000000000000000190300006662782F636F72652E786D6C504B01021400140006080800B670623B0F71DDB67E0000009D0000000B00000000000000000000000000B50400006662782F636E782E786D6C504B01021400140006080800B670623BE1
310
34B4FB280100001202000031000000000000000000000000005C0500006662782F38353834323741342D343835462D343034322D383541392D4331303331363839454531452F636F72652E786D6C504B01021400140006080800B670623B1B8617914E010000330300003000000000000000000000000000D3060000666278
310
2F38353834323741342D343835462D343034322D383541392D4331303331363839454531452F636E782E786D6C504B01021400140006080800B670623B5933D422630500003B10000034000000000000000000000000006F0800006662782F38353834323741342D343835462D343034322D383541392D4331303331363839
310
454531452F6F626A656374732E786D6C504B01021400140006080000B670623B0000000000000000000000003500000000000000000000000000240E00006662782F38353834323741342D343835462D343034322D383541392D4331303331363839454531452F76657274696365732E62696E504B01021400140006080800
310
B670623BF270F13306000000040000003600000000000000000000000000770E00006662782F38353834323741342D343835462D343034322D383541392D4331303331363839454531452F747269616E676C65732E62696E504B01021400140006080000B670623B0000000000000000000000003700000000000000000000
310
000000D10E00006662782F38353834323741342D343835462D343034322D383541392D4331303331363839454531452F617474726962757465732E62696E504B01021400140006080800B670623B08DA0BD190000000410100003600000000000000000000000000260F00006662782F38353834323741342D343835462D34
310
3034322D383541392D4331303331363839454531452F6469726563746F72792E786D6C504B01021400140006080800B670623BD9A3B367FE000000A00100003B000000000000000000000000000A1000006662782F38353834323741342D343835462D343034322D383541392D4331303331363839454531452F7265736F75
310
726365732F636F72652E786D6C504B0506000000000E000E0080040000611100000000
  0
XRECORD
  5
113
102
{ACAD_REACTORS
330
110
102
}
330
110
100
AcDbXrecord
280
     1
270
     1
271
     1
  0
XRECORD
  5
114
102
{ACAD_REACTORS
330
110
102
}
330
110
100
AcDbXrecord
280
     1
270
     1
271
     1
  0
XRECORD
  5
40F1
102
{ACAD_REACTORS
330
40F0
102
}
330
40F0
100
AcDbXrecord
280
     1
102
DISPLAYNAME
  1
Imperial24
102
FLAGS
 90
        0
  0
XRECORD
  5
40F5
102
{ACAD_REACTORS
330
40F4
102
}
330
40F4
100
AcDbXrecord
280
     1
102
DISPLAYNAME
  1
Metric50
102
FLAGS
 90
        0
  0
CELLSTYLEMAP
  5
40B3
102
{ACAD_REACTORS
330
104
102
}
330
104
100
AcDbCellStyleMap
 90
        3
300
CELLSTYLE
  1
TABLEFORMAT_BEGIN
 90
        5
170
     1
 91
        0
 92
    32768
 62
   257
 93
        1
300
CONTENTFORMAT
  1
CONTENTFORMAT_BEGIN
 90
        0
 91
        0
 92
      512
 93
        0
300

 40
0.0
140
1.0
 94
        5
 62
     0
340
11
144
0.25
309
CONTENTFORMAT_END
171
     1
301
MARGIN
  1
CELLMARGIN_BEGIN
 40
0.06
 40
0.06
 40
0.06
 40
0.06
 40
0.18
 40
0.18
309
CELLMARGIN_END
 94
        6
 95
        1
302
GRIDFORMAT
  1
GRIDFORMAT_BEGIN
 90
        0
 91
        1
 62
     0
 92
       -2
340
0
 93
        0
 40
0.045
309
GRIDFORMAT_END
 95
        2
302
GRIDFORMAT
  1
GRIDFORMAT_BEGIN
 90
        0
 91
        1
 62
     0
 92
       -2
340
0
 93
        0
 40
0.045
309
GRIDFORMAT_END
 95
        4
302
GRIDFORMAT
  1
GRIDFORMAT_BEGIN
 90
        0
 91
        1
 62
     0
 92
       -2
340
0
 93
        0
 40
0.045
309
GRIDFORMAT_END
 95
        8
302
GRIDFORMAT
  1
GRIDFORMAT_BEGIN
 90
        0
 91
        1
 62
     0
 92
       -2
340
0
 93
        0
 40
0.045
309
GRIDFORMAT_END
 95
       16
302
GRIDFORMAT
  1
GRIDFORMAT_BEGIN
 90
        0
 91
        1
 62
     0
 92
       -2
340
0
 93
        0
 40
0.045
309
GRIDFORMAT_END
 95
       32
302
GRIDFORMAT
  1
GRIDFORMAT_BEGIN
 90
        0
 91
        1
 62
     0
 92
       -2
340
0
 93
        0
 40
0.045
309
GRIDFORMAT_END
309
TABLEFORMAT_END
  1
CELLSTYLE_BEGIN
 90
        1
 91
        1
300
_TITLE
309
CELLSTYLE_END
300
CELLSTYLE
  1
TABLEFORMAT_BEGIN
 90
        5
170
     1
 91
        0
 92
        0
 62
   257
 93
        1
300
CONTENTFORMAT
  1
CONTENTFORMAT_BEGIN
 90
        0
 91
        0
 92
      512
 93
        0
300

 40
0.0
140
1.0
 94
        5
 62
     0
340
11
144
0.18
309
CONTENTFORMAT_END
171
     1
301
MARGIN
  1
CELLMARGIN_BEGIN
 40
0.06
 40
0.06
 40
0.06
 40
0.06
 40
0.18
 40
0.18
309
CELLMARGIN_END
 94
        6
 95
        1
302
GRIDFORMAT
  1
GRIDFORMAT_BEGIN
 90
        0
 91
        1
 62
     0
 92
       -2
340
0
 93
        0
 40
0.045
309
GRIDFORMAT_END
 95
        2
302
GRIDFORMAT
  1
GRIDFORMAT_BEGIN
 90
        0
 91
        1
 62
     0
 92
       -2
340
0
 93
        0
 40
0.045
309
GRIDFORMAT_END
 95
        4
302
GRIDFORMAT
  1
GRIDFORMAT_BEGIN
 90
        0
 91
        1
 62
     0
 92
       -2
340
0
 93
        0
 40
0.045
309
GRIDFORMAT_END
 95
        8
302
GRIDFORMAT
  1
GRIDFORMAT_BEGIN
 90
        0
 91
        1
 62
     0
 92
       -2
340
0
 93
        0
 40
0.045
309
GRIDFORMAT_END
 95
       16
302
GRIDFORMAT
  1
GRIDFORMAT_BEGIN
 90
        0
 91
        1
 62
     0
 92
       -2
340
0
 93
        0
 40
0.045
309
GRIDFORMAT_END
 95
       32
302
GRIDFORMAT
  1
GRIDFORMAT_BEGIN
 90
        0
 91
        1
 62
     0
 92
       -2
340
0
 93
        0
 40
0.045
309
GRIDFORMAT_END
309
TABLEFORMAT_END
  1
CELLSTYLE_BEGIN
 90
        2
 91
        1
300
_HEADER
309
CELLSTYLE_END
300
CELLSTYLE
  1
TABLEFORMAT_BEGIN
 90
        5
170
     1
 91
        0
 92
        0
 62
   257
 93
        1
300
CONTENTFORMAT
  1
CONTENTFORMAT_BEGIN
 90
        0
 91
        0
 92
      512
 93
        0
300

 40
0.0
140
1.0
 94
        2
 62
     0
340
11
144
0.18
309
CONTENTFORMAT_END
171
     1
301
MARGIN
  1
CELLMARGIN_BEGIN
 40
0.06
 40
0.06
 40
0.06
 40
0.06
 40
0.18
 40
0.18
309
CELLMARGIN_END
 94
        6
 95
        1
302
GRIDFORMAT
  1
GRIDFORMAT_BEGIN
 90
        0
 91
        1
 62
     0
 92
       -2
340
0
 93
        0
 40
0.045
309
GRIDFORMAT_END
 95
        2
302
GRIDFORMAT
  1
GRIDFORMAT_BEGIN
 90
        0
 91
        1
 62
     0
 92
       -2
340
0
 93
        0
 40
0.045
309
GRIDFORMAT_END
 95
        4
302
GRIDFORMAT
  1
GRIDFORMAT_BEGIN
 90
        0
 91
        1
 62
     0
 92
       -2
340
0
 93
        0
 40
0.045
309
GRIDFORMAT_END
 95
        8
302
GRIDFORMAT
  1
GRIDFORMAT_BEGIN
 90
        0
 91
        1
 62
     0
 92
       -2
340
0
 93
        0
 40
0.045
309
GRIDFORMAT_END
 95
       16
302
GRIDFORMAT
  1
GRIDFORMAT_BEGIN
 90
        0
 91
        1
 62
     0
 92
       -2
340
0
 93
        0
 40
0.045
309
GRIDFORMAT_END
 95
       32
302
GRIDFORMAT
  1
GRIDFORMAT_BEGIN
 90
        0
 91
        1
 62
     0
 92
       -2
340
0
 93
        0
 40
0.045
309
GRIDFORMAT_END
309
TABLEFORMAT_END
  1
CELLSTYLE_BEGIN
 90
        3
 91
        2
300
_DATA
309
CELLSTYLE_END
  0
XRECORD
  5
40BF
102
{ACAD_REACTORS
330
104
102
}
330
104
100
AcDbXrecord
280
     1
102
ACAD_ROUNDTRIP_PRE2007_TABLESTYLE
 90
      512
 91
        0
  1

 92
      512
 93
        0
  2

 94
      512
 95
        0
  3

  0
XRECORD
  5
40CB
102
{ACAD_REACTORS
330
40CA
102
}
330
40CA
100
AcDbXrecord
280
     1
102
RTVSPost2010Prop28
280
     1
102
RTVSPost2010PropOp28
 70
     1
102
RTVSPost2010Prop29
280
     1
102
RTVSPost2010PropOp29
 70
     1
102
RTVSPost2010Prop30
280
     0
102
RTVSPost2010PropOp30
 70
     1
102
RTVSPost2010Prop31
280
     0
102
RTVSPost2010PropOp31
 70
     1
102
RTVSPost2010Prop32
280
     0
102
RTVSPost2010PropOp32
 70
     1
102
RTVSPost2010Prop33
280
     0
102
RTVSPost2010PropOp33
 70
     1
102
RTVSPost2010Prop34
280
     0
102
RTVSPost2010PropOp34
 70
     1
102
RTVSPost2010Prop35
280
     0
102
RTVSPost2010PropOp35
 70
     1
102
RTVSPost2010Prop36
280
     0
102
RTVSPost2010PropOp36
 70
     1
102
RTVSPost2010Prop37
 90
       50
102
RTVSPost2010PropOp37
 70
     1
102
RTVSPost2010Prop38
140
0.0
102
RTVSPost2010PropOp38
 70
     1
102
RTVSPost2010Prop39
140
1.0
102
RTVSPost2010PropOp39
 70
     1
102
RTVSPost2010Prop40
 90
        0
102
RTVSPost2010PropOp40
 70
     1
102
RTVSPost2010Prop41ColorIndex
 90
       18
102
RTVSPost2010Prop41ColorRGB
 90
        0
102
RTVSPost2010PropOp41
 70
     1
102
RTVSPost2010Prop42
 90
       50
102
RTVSPost2010PropOp42
 70
     1
102
RTVSPost2010Prop43
 90
        3
102
RTVSPost2010PropOp43
 70
     1
102
RTVSPost2010Prop44ColorIndex
 90
        5
102
RTVSPost2010Prop44ColorRGB
 90
      255
102
RTVSPost2010PropOp44
 70
     1
102
RTVSPost2010Prop45
280
     0
102
RTVSPost2010PropOp45
 70
     1
102
RTVSPost2010Prop46
 90
       50
102
RTVSPost2010PropOp46
 70
     1
102
RTVSPost2010Prop47
 90
       50
102
RTVSPost2010PropOp47
 70
     1
102
RTVSPost2010Prop48
 90
       50
102
RTVSPost2010PropOp48
 70
     1
102
RTVSPost2010Prop49
280
     0
102
RTVSPost2010PropOp49
 70
     1
102
RTVSPost2010Prop50
 90
       50
102
RTVSPost2010PropOp50
 70
     1
102
RTVSPost2010Prop51ColorIndex
 90
      256
102
RTVSPost2010Prop51ColorRGB
 90
-16777216
102
RTVSPost2010PropOp51
 70
     0
102
RTVSPost2010Prop52
140
1.0
102
RTVSPost2010PropOp52
 70
     0
102
RTVSPost2010Prop53
 90
        2
102
RTVSPost2010PropOp53
 70
     1
102
RTVSPost2010Prop54
  1
strokes_ogs.tif
102
RTVSPost2010PropOp54
 70
     1
102
RTVSPost2010Prop55
280
     0
102
RTVSPost2010PropOp55
 70
     1
102
RTVSPost2010Prop56
140
1.0
102
RTVSPost2010PropOp56
 70
     1
102
RTVSPost2010Prop57
140
1.0
102
RTVSPost2010PropOp57
 70
     1
102
RTVSPropertyOp0
 70
     1
102
RTVSPropertyOp1
 70
     1
102
RTVSPropertyOp2
 70
     1
102
RTVSPropertyOp3
 70
     1
102
RTVSPropertyOp4
 70
     1
102
RTVSPropertyOp5
 70
     1
102
RTVSPropertyOp6
 70
     1
102
RTVSPropertyOp7
 70
     1
102
RTVSPropertyOp8
 70
     1
102
RTVSPropertyOp9
 70
     1
102
RTVSPropertyOp10
 70
     1
102
RTVSPropertyOp11
 70
     1
102
RTVSPropertyOp12
 70
     1
102
RTVSPropertyOp13
 70
     1
102
RTVSPropertyOp14
 70
     1
102
RTVSPropertyOp15
 70
     1
102
RTVSPropertyOp16
 70
     1
102
RTVSPropertyOp17
 70
     1
102
RTVSPropertyOp18
 70
     1
102
RTVSPropertyOp19
 70
     1
102
RTVSPropertyOp20
 70
     1
102
RTVSPropertyOp21
 70
     1
102
RTVSPropertyOp22
 70
     1
102
RTVSPropertyOp23
 70
     1
102
RTVSPropertyOp24
 70
     1
102
RTVSPropertyOp25
 70
     1
102
RTVSPropertyOp26
 70
     1
102
RTVSPropertyOp27
 70
     1
102
RTVSPropertyOp28
 70
     1
102
RTVSPropertyOp29
 70
     1
102
RTVSPropertyOp30
 70
     1
102
RTVSPropertyOp31
 70
     1
102
RTVSPropertyOp32
 70
     1
102
RTVSPropertyOp33
 70
     1
102
RTVSPropertyOp34
 70
     1
102
RTVSPropertyOp35
 70
     1
102
RTVSPropertyOp36
 70
     1
102
RTVSPropertyOp37
 70
     1
102
RTVSPropertyOp38
 70
     1
102
RTVSPropertyOp39
 70
     1
102
RTVSPropertyOp40
 70
     1
102
RTVSPropertyOp41
 70
     1
102
RTVSPropertyOp42
 70
     1
102
RTVSPropertyOp43
 70
     1
102
RTVSPropertyOp44
 70
     1
102
RTVSPropertyOp45
 70
     1
102
RTVSPropertyOp46
 70
     1
102
RTVSPropertyOp47
 70
     1
102
RTVSPropertyOp48
 70
     1
102
RTVSPropertyOp49
 70
     1
102
RTVSPropertyOp50
 70
     1
102
RTVSPropertyOp51
 70
     0
102
RTVSPropertyOp52
 70
     0
102
RTVSPropertyOp53
 70
     1
102
RTVSPropertyOp54
 70
     1
102
RTVSPropertyOp55
 70
     1
102
RTVSPropertyOp56
 70
     1
102
RTVSPropertyOp57
 70
     1
102
RTVSPropertyOp58
 70
     1
102
RTVSPropertyOp59
 70
     1
102
RTVSPropertyOp60
 70
     1
102
RTVSPropertyOp61
 70
     1
102
RTVSPropertyOp62
 70
     1
  0
XRECORD
  5
40C9
102
{ACAD_REACTORS
330
40C8
102
}
330
40C8
100
AcDbXrecord
280
     1
102
RTVSPost2010Prop28
280
     0
102
RTVSPost2010PropOp28
 70
     1
102
RTVSPost2010Prop29
280
     1
102
RTVSPost2010PropOp29
 70
     1
102
RTVSPost2010Prop30
280
     1
102
RTVSPost2010PropOp30
 70
     1
102
RTVSPost2010Prop31
280
     0
102
RTVSPost2010PropOp31
 70
     1
102
RTVSPost2010Prop32
280
     0
102
RTVSPost2010PropOp32
 70
     1
102
RTVSPost2010Prop33
280
     0
102
RTVSPost2010PropOp33
 70
     1
102
RTVSPost2010Prop34
280
     0
102
RTVSPost2010PropOp34
 70
     1
102
RTVSPost2010Prop35
280
     0
102
RTVSPost2010PropOp35
 70
     1
102
RTVSPost2010Prop36
280
     0
102
RTVSPost2010PropOp36
 70
     1
102
RTVSPost2010Prop37
 90
       50
102
RTVSPost2010PropOp37
 70
     1
102
RTVSPost2010Prop38
140
0.0
102
RTVSPost2010PropOp38
 70
     1
102
RTVSPost2010Prop39
140
1.0
102
RTVSPost2010PropOp39
 70
     1
102
RTVSPost2010Prop40
 90
        0
102
RTVSPost2010PropOp40
 70
     1
102
RTVSPost2010Prop41ColorIndex
 90
       18
102
RTVSPost2010Prop41ColorRGB
 90
        0
102
RTVSPost2010PropOp41
 70
     1
102
RTVSPost2010Prop42
 90
       50
102
RTVSPost2010PropOp42
 70
     1
102
RTVSPost2010Prop43
 90
        3
102
RTVSPost2010PropOp43
 70
     1
102
RTVSPost2010Prop44ColorIndex
 90
        5
102
RTVSPost2010Prop44ColorRGB
 90
      255
102
RTVSPost2010PropOp44
 70
     1
102
RTVSPost2010Prop45
280
     0
102
RTVSPost2010PropOp45
 70
     1
102
RTVSPost2010Prop46
 90
       50
102
RTVSPost2010PropOp46
 70
     1
102
RTVSPost2010Prop47
 90
       50
102
RTVSPost2010PropOp47
 70
     1
102
RTVSPost2010Prop48
 90
       50
102
RTVSPost2010PropOp48
 70
     1
102
RTVSPost2010Prop49
280
     0
102
RTVSPost2010PropOp49
 70
     1
102
RTVSPost2010Prop50
 90
       50
102
RTVSPost2010PropOp50
 70
     1
102
RTVSPost2010Prop51ColorIndex
 90
      256
102
RTVSPost2010Prop51ColorRGB
 90
-16777216
102
RTVSPost2010PropOp51
 70
     0
102
RTVSPost2010Prop52
140
1.0
102
RTVSPost2010PropOp52
 70
     0
102
RTVSPost2010Prop53
 90
        2
102
RTVSPost2010PropOp53
 70
     1
102
RTVSPost2010Prop54
  1
strokes_ogs.tif
102
RTVSPost2010PropOp54
 70
     1
102
RTVSPost2010Prop55
280
     0
102
RTVSPost2010PropOp55
 70
     1
102
RTVSPost2010Prop56
140
1.0
102
RTVSPost2010PropOp56
 70
     1
102
RTVSPost2010Prop57
140
1.0
102
RTVSPost2010PropOp57
 70
     1
102
RTVSPropertyOp0
 70
     1
102
RTVSPropertyOp1
 70
     1
102
RTVSPropertyOp2
 70
     1
102
RTVSPropertyOp3
 70
     1
102
RTVSPropertyOp4
 70
     1
102
RTVSPropertyOp5
 70
     1
102
RTVSPropertyOp6
 70
     1
102
RTVSPropertyOp7
 70
     1
102
RTVSPropertyOp8
 70
     1
102
RTVSPropertyOp9
 70
     1
102
RTVSPropertyOp10
 70
     1
102
RTVSPropertyOp11
 70
     1
102
RTVSPropertyOp12
 70
     1
102
RTVSPropertyOp13
 70
     1
102
RTVSPropertyOp14
 70
     1
102
RTVSPropertyOp15
 70
     1
102
RTVSPropertyOp16
 70
     1
102
RTVSPropertyOp17
 70
     1
102
RTVSPropertyOp18
 70
     1
102
RTVSPropertyOp19
 70
     1
102
RTVSPropertyOp20
 70
     1
102
RTVSPropertyOp21
 70
     1
102
RTVSPropertyOp22
 70
     1
102
RTVSPropertyOp23
 70
     1
102
RTVSPropertyOp24
 70
     1
102
RTVSPropertyOp25
 70
     1
102
RTVSPropertyOp26
 70
     1
102
RTVSPropertyOp27
 70
     1
102
RTVSPropertyOp28
 70
     1
102
RTVSPropertyOp29
 70
     1
102
RTVSPropertyOp30
 70
     1
102
RTVSPropertyOp31
 70
     1
102
RTVSPropertyOp32
 70
     1
102
RTVSPropertyOp33
 70
     1
102
RTVSPropertyOp34
 70
     1
102
RTVSPropertyOp35
 70
     1
102
RTVSPropertyOp36
 70
     1
102
RTVSPropertyOp37
 70
     1
102
RTVSPropertyOp38
 70
     1
102
RTVSPropertyOp39
 70
     1
102
RTVSPropertyOp40
 70
     1
102
RTVSPropertyOp41
 70
     1
102
RTVSPropertyOp42
 70
     1
102
RTVSPropertyOp43
 70
     1
102
RTVSPropertyOp44
 70
     1
102
RTVSPropertyOp45
 70
     1
102
RTVSPropertyOp46
 70
     1
102
RTVSPropertyOp47
 70
     1
102
RTVSPropertyOp48
 70
     1
102
RTVSPropertyOp49
 70
     1
102
RTVSPropertyOp50
 70
     1
102
RTVSPropertyOp51
 70
     0
102
RTVSPropertyOp52
 70
     0
102
RTVSPropertyOp53
 70
     1
102
RTVSPropertyOp54
 70
     1
102
RTVSPropertyOp55
 70
     1
102
RTVSPropertyOp56
 70
     1
102
RTVSPropertyOp57
 70
     1
102
RTVSPropertyOp58
 70
     1
102
RTVSPropertyOp59
 70
     1
102
RTVSPropertyOp60
 70
     1
102
RTVSPropertyOp61
 70
     1
102
RTVSPropertyOp62
 70
     1
  0
XRECORD
  5
40D7
102
{ACAD_REACTORS
330
40D6
102
}
330
40D6
100
AcDbXrecord
280
     1
102
RTVSPost2010Prop28
280
     0
102
RTVSPost2010PropOp28
 70
     1
102
RTVSPost2010Prop29
280
     1
102
RTVSPost2010PropOp29
 70
     1
102
RTVSPost2010Prop30
280
     1
102
RTVSPost2010PropOp30
 70
     1
102
RTVSPost2010Prop31
280
     0
102
RTVSPost2010PropOp31
 70
     1
102
RTVSPost2010Prop32
280
     0
102
RTVSPost2010PropOp32
 70
     1
102
RTVSPost2010Prop33
280
     0
102
RTVSPost2010PropOp33
 70
     1
102
RTVSPost2010Prop34
280
     0
102
RTVSPost2010PropOp34
 70
     1
102
RTVSPost2010Prop35
280
     0
102
RTVSPost2010PropOp35
 70
     1
102
RTVSPost2010Prop36
280
     0
102
RTVSPost2010PropOp36
 70
     1
102
RTVSPost2010Prop37
 90
       50
102
RTVSPost2010PropOp37
 70
     1
102
RTVSPost2010Prop38
140
0.0
102
RTVSPost2010PropOp38
 70
     1
102
RTVSPost2010Prop39
140
1.0
102
RTVSPost2010PropOp39
 70
     1
102
RTVSPost2010Prop40
 90
        0
102
RTVSPost2010PropOp40
 70
     1
102
RTVSPost2010Prop41ColorIndex
 90
       18
102
RTVSPost2010Prop41ColorRGB
 90
        0
102
RTVSPost2010PropOp41
 70
     1
102
RTVSPost2010Prop42
 90
       50
102
RTVSPost2010PropOp42
 70
     1
102
RTVSPost2010Prop43
 90
        3
102
RTVSPost2010PropOp43
 70
     1
102
RTVSPost2010Prop44ColorIndex
 90
        5
102
RTVSPost2010Prop44ColorRGB
 90
      255
102
RTVSPost2010PropOp44
 70
     1
102
RTVSPost2010Prop45
280
     0
102
RTVSPost2010PropOp45
 70
     1
102
RTVSPost2010Prop46
 90
       50
102
RTVSPost2010PropOp46
 70
     1
102
RTVSPost2010Prop47
 90
       50
102
RTVSPost2010PropOp47
 70
     1
102
RTVSPost2010Prop48
 90
       50
102
RTVSPost2010PropOp48
 70
     1
102
RTVSPost2010Prop49
280
     0
102
RTVSPost2010PropOp49
 70
     1
102
RTVSPost2010Prop50
 90
       50
102
RTVSPost2010PropOp50
 70
     1
102
RTVSPost2010Prop51ColorIndex
 90
      256
102
RTVSPost2010Prop51ColorRGB
 90
-16777216
102
RTVSPost2010PropOp51
 70
     0
102
RTVSPost2010Prop52
140
1.0
102
RTVSPost2010PropOp52
 70
     0
102
RTVSPost2010Prop53
 90
        2
102
RTVSPost2010PropOp53
 70
     1
102
RTVSPost2010Prop54
  1
strokes_ogs.tif
102
RTVSPost2010PropOp54
 70
     1
102
RTVSPost2010Prop55
280
     0
102
RTVSPost2010PropOp55
 70
     1
102
RTVSPost2010Prop56
140
1.0
102
RTVSPost2010PropOp56
 70
     1
102
RTVSPost2010Prop57
140
1.0
102
RTVSPost2010PropOp57
 70
     1
102
RTVSPropertyOp0
 70
     1
102
RTVSPropertyOp1
 70
     1
102
RTVSPropertyOp2
 70
     1
102
RTVSPropertyOp3
 70
     1
102
RTVSPropertyOp4
 70
     1
102
RTVSPropertyOp5
 70
     1
102
RTVSPropertyOp6
 70
     1
102
RTVSPropertyOp7
 70
     1
102
RTVSPropertyOp8
 70
     1
102
RTVSPropertyOp9
 70
     1
102
RTVSPropertyOp10
 70
     1
102
RTVSPropertyOp11
 70
     1
102
RTVSPropertyOp12
 70
     1
102
RTVSPropertyOp13
 70
     1
102
RTVSPropertyOp14
 70
     1
102
RTVSPropertyOp15
 70
     1
102
RTVSPropertyOp16
 70
     1
102
RTVSPropertyOp17
 70
     1
102
RTVSPropertyOp18
 70
     1
102
RTVSPropertyOp19
 70
     1
102
RTVSPropertyOp20
 70
     1
102
RTVSPropertyOp21
 70
     1
102
RTVSPropertyOp22
 70
     1
102
RTVSPropertyOp23
 70
     1
102
RTVSPropertyOp24
 70
     1
102
RTVSPropertyOp25
 70
     1
102
RTVSPropertyOp26
 70
     1
102
RTVSPropertyOp27
 70
     1
102
RTVSPropertyOp28
 70
     1
102
RTVSPropertyOp29
 70
     1
102
RTVSPropertyOp30
 70
     1
102
RTVSPropertyOp31
 70
     1
102
RTVSPropertyOp32
 70
     1
102
RTVSPropertyOp33
 70
     1
102
RTVSPropertyOp34
 70
     1
102
RTVSPropertyOp35
 70
     1
102
RTVSPropertyOp36
 70
     1
102
RTVSPropertyOp37
 70
     1
102
RTVSPropertyOp38
 70
     1
102
RTVSPropertyOp39
 70
     1
102
RTVSPropertyOp40
 70
     1
102
RTVSPropertyOp41
 70
     1
102
RTVSPropertyOp42
 70
     1
102
RTVSPropertyOp43
 70
     1
102
RTVSPropertyOp44
 70
     1
102
RTVSPropertyOp45
 70
     1
102
RTVSPropertyOp46
 70
     1
102
RTVSPropertyOp47
 70
     1
102
RTVSPropertyOp48
 70
     1
102
RTVSPropertyOp49
 70
     1
102
RTVSPropertyOp50
 70
     1
102
RTVSPropertyOp51
 70
     0
102
RTVSPropertyOp52
 70
     0
102
RTVSPropertyOp53
 70
     1
102
RTVSPropertyOp54
 70
     1
102
RTVSPropertyOp55
 70
     1
102
RTVSPropertyOp56
 70
     1
102
RTVSPropertyOp57
 70
     1
102
RTVSPropertyOp58
 70
     1
102
RTVSPropertyOp59
 70
     1
102
RTVSPropertyOp60
 70
     1
102
RTVSPropertyOp61
 70
     1
102
RTVSPropertyOp62
 70
     1
  0
XRECORD
  5
40DF
102
{ACAD_REACTORS
330
40DE
102
}
330
40DE
100
AcDbXrecord
280
     1
102
RTVSPost2010Prop28
280
     0
102
RTVSPost2010PropOp28
 70
     1
102
RTVSPost2010Prop29
280
     1
102
RTVSPost2010PropOp29
 70
     1
102
RTVSPost2010Prop30
280
     1
102
RTVSPost2010PropOp30
 70
     1
102
RTVSPost2010Prop31
280
     0
102
RTVSPost2010PropOp31
 70
     1
102
RTVSPost2010Prop32
280
     0
102
RTVSPost2010PropOp32
 70
     1
102
RTVSPost2010Prop33
280
     0
102
RTVSPost2010PropOp33
 70
     1
102
RTVSPost2010Prop34
280
     0
102
RTVSPost2010PropOp34
 70
     1
102
RTVSPost2010Prop35
280
     0
102
RTVSPost2010PropOp35
 70
     1
102
RTVSPost2010Prop36
280
     0
102
RTVSPost2010PropOp36
 70
     1
102
RTVSPost2010Prop37
 90
       50
102
RTVSPost2010PropOp37
 70
     1
102
RTVSPost2010Prop38
140
0.0
102
RTVSPost2010PropOp38
 70
     1
102
RTVSPost2010Prop39
140
1.0
102
RTVSPost2010PropOp39
 70
     1
102
RTVSPost2010Prop40
 90
        0
102
RTVSPost2010PropOp40
 70
     1
102
RTVSPost2010Prop41ColorIndex
 90
       18
102
RTVSPost2010Prop41ColorRGB
 90
        0
102
RTVSPost2010PropOp41
 70
     1
102
RTVSPost2010Prop42
 90
       50
102
RTVSPost2010PropOp42
 70
     1
102
RTVSPost2010Prop43
 90
        3
102
RTVSPost2010PropOp43
 70
     1
102
RTVSPost2010Prop44ColorIndex
 90
        5
102
RTVSPost2010Prop44ColorRGB
 90
      255
102
RTVSPost2010PropOp44
 70
     1
102
RTVSPost2010Prop45
280
     0
102
RTVSPost2010PropOp45
 70
     1
102
RTVSPost2010Prop46
 90
       50
102
RTVSPost2010PropOp46
 70
     1
102
RTVSPost2010Prop47
 90
       50
102
RTVSPost2010PropOp47
 70
     1
102
RTVSPost2010Prop48
 90
       50
102
RTVSPost2010PropOp48
 70
     1
102
RTVSPost2010Prop49
280
     0
102
RTVSPost2010PropOp49
 70
     1
102
RTVSPost2010Prop50
 90
       50
102
RTVSPost2010PropOp50
 70
     1
102
RTVSPost2010Prop51ColorIndex
 90
      256
102
RTVSPost2010Prop51ColorRGB
 90
-16777216
102
RTVSPost2010PropOp51
 70
     0
102
RTVSPost2010Prop52
140
1.0
102
RTVSPost2010PropOp52
 70
     0
102
RTVSPost2010Prop53
 90
        2
102
RTVSPost2010PropOp53
 70
     1
102
RTVSPost2010Prop54
  1
strokes_ogs.tif
102
RTVSPost2010PropOp54
 70
     1
102
RTVSPost2010Prop55
280
     0
102
RTVSPost2010PropOp55
 70
     1
102
RTVSPost2010Prop56
140
1.0
102
RTVSPost2010PropOp56
 70
     1
102
RTVSPost2010Prop57
140
1.0
102
RTVSPost2010PropOp57
 70
     1
102
RTVSPropertyOp0
 70
     1
102
RTVSPropertyOp1
 70
     1
102
RTVSPropertyOp2
 70
     1
102
RTVSPropertyOp3
 70
     1
102
RTVSPropertyOp4
 70
     1
102
RTVSPropertyOp5
 70
     1
102
RTVSPropertyOp6
 70
     1
102
RTVSPropertyOp7
 70
     1
102
RTVSPropertyOp8
 70
     1
102
RTVSPropertyOp9
 70
     1
102
RTVSPropertyOp10
 70
     1
102
RTVSPropertyOp11
 70
     1
102
RTVSPropertyOp12
 70
     1
102
RTVSPropertyOp13
 70
     1
102
RTVSPropertyOp14
 70
     1
102
RTVSPropertyOp15
 70
     1
102
RTVSPropertyOp16
 70
     1
102
RTVSPropertyOp17
 70
     1
102
RTVSPropertyOp18
 70
     1
102
RTVSPropertyOp19
 70
     1
102
RTVSPropertyOp20
 70
     1
102
RTVSPropertyOp21
 70
     1
102
RTVSPropertyOp22
 70
     1
102
RTVSPropertyOp23
 70
     1
102
RTVSPropertyOp24
 70
     1
102
RTVSPropertyOp25
 70
     1
102
RTVSPropertyOp26
 70
     1
102
RTVSPropertyOp27
 70
     1
102
RTVSPropertyOp28
 70
     1
102
RTVSPropertyOp29
 70
     1
102
RTVSPropertyOp30
 70
     1
102
RTVSPropertyOp31
 70
     1
102
RTVSPropertyOp32
 70
     1
102
RTVSPropertyOp33
 70
     1
102
RTVSPropertyOp34
 70
     1
102
RTVSPropertyOp35
 70
     1
102
RTVSPropertyOp36
 70
     1
102
RTVSPropertyOp37
 70
     1
102
RTVSPropertyOp38
 70
     1
102
RTVSPropertyOp39
 70
     1
102
RTVSPropertyOp40
 70
     1
102
RTVSPropertyOp41
 70
     1
102
RTVSPropertyOp42
 70
     1
102
RTVSPropertyOp43
 70
     1
102
RTVSPropertyOp44
 70
     1
102
RTVSPropertyOp45
 70
     1
102
RTVSPropertyOp46
 70
     1
102
RTVSPropertyOp47
 70
     1
102
RTVSPropertyOp48
 70
     1
102
RTVSPropertyOp49
 70
     1
102
RTVSPropertyOp50
 70
     1
102
RTVSPropertyOp51
 70
     0
102
RTVSPropertyOp52
 70
     0
102
RTVSPropertyOp53
 70
     1
102
RTVSPropertyOp54
 70
     1
102
RTVSPropertyOp55
 70
     1
102
RTVSPropertyOp56
 70
     1
102
RTVSPropertyOp57
 70
     1
102
RTVSPropertyOp58
 70
     1
102
RTVSPropertyOp59
 70
     1
102
RTVSPropertyOp60
 70
     1
102
RTVSPropertyOp61
 70
     1
102
RTVSPropertyOp62
 70
     1
  0
XRECORD
  5
40D1
102
{ACAD_REACTORS
330
40D0
102
}
330
40D0
100
AcDbXrecord
280
     1
102
RTVSPost2010Prop28
280
     0
102
RTVSPost2010PropOp28
 70
     1
102
RTVSPost2010Prop29
280
     1
102
RTVSPost2010PropOp29
 70
     1
102
RTVSPost2010Prop30
280
     1
102
RTVSPost2010PropOp30
 70
     1
102
RTVSPost2010Prop31
280
     0
102
RTVSPost2010PropOp31
 70
     1
102
RTVSPost2010Prop32
280
     0
102
RTVSPost2010PropOp32
 70
     1
102
RTVSPost2010Prop33
280
     0
102
RTVSPost2010PropOp33
 70
     1
102
RTVSPost2010Prop34
280
     0
102
RTVSPost2010PropOp34
 70
     1
102
RTVSPost2010Prop35
280
     0
102
RTVSPost2010PropOp35
 70
     1
102
RTVSPost2010Prop36
280
     0
102
RTVSPost2010PropOp36
 70
     1
102
RTVSPost2010Prop37
 90
       50
102
RTVSPost2010PropOp37
 70
     1
102
RTVSPost2010Prop38
140
0.0
102
RTVSPost2010PropOp38
 70
     1
102
RTVSPost2010Prop39
140
1.0
102
RTVSPost2010PropOp39
 70
     1
102
RTVSPost2010Prop40
 90
        0
102
RTVSPost2010PropOp40
 70
     1
102
RTVSPost2010Prop41ColorIndex
 90
       18
102
RTVSPost2010Prop41ColorRGB
 90
        0
102
RTVSPost2010PropOp41
 70
     1
102
RTVSPost2010Prop42
 90
       50
102
RTVSPost2010PropOp42
 70
     1
102
RTVSPost2010Prop43
 90
        3
102
RTVSPost2010PropOp43
 70
     1
102
RTVSPost2010Prop44ColorIndex
 90
        5
102
RTVSPost2010Prop44ColorRGB
 90
      255
102
RTVSPost2010PropOp44
 70
     1
102
RTVSPost2010Prop45
280
     0
102
RTVSPost2010PropOp45
 70
     1
102
RTVSPost2010Prop46
 90
       50
102
RTVSPost2010PropOp46
 70
     1
102
RTVSPost2010Prop47
 90
       50
102
RTVSPost2010PropOp47
 70
     1
102
RTVSPost2010Prop48
 90
       50
102
RTVSPost2010PropOp48
 70
     1
102
RTVSPost2010Prop49
280
     0
102
RTVSPost2010PropOp49
 70
     1
102
RTVSPost2010Prop50
 90
       50
102
RTVSPost2010PropOp50
 70
     1
102
RTVSPost2010Prop51ColorIndex
 90
      256
102
RTVSPost2010Prop51ColorRGB
 90
-16777216
102
RTVSPost2010PropOp51
 70
     0
102
RTVSPost2010Prop52
140
1.0
102
RTVSPost2010PropOp52
 70
     0
102
RTVSPost2010Prop53
 90
        2
102
RTVSPost2010PropOp53
 70
     1
102
RTVSPost2010Prop54
  1
strokes_ogs.tif
102
RTVSPost2010PropOp54
 70
     1
102
RTVSPost2010Prop55
280
     0
102
RTVSPost2010PropOp55
 70
     1
102
RTVSPost2010Prop56
140
1.0
102
RTVSPost2010PropOp56
 70
     1
102
RTVSPost2010Prop57
140
1.0
102
RTVSPost2010PropOp57
 70
     1
102
RTVSPropertyOp0
 70
     1
102
RTVSPropertyOp1
 70
     1
102
RTVSPropertyOp2
 70
     1
102
RTVSPropertyOp3
 70
     1
102
RTVSPropertyOp4
 70
     1
102
RTVSPropertyOp5
 70
     1
102
RTVSPropertyOp6
 70
     1
102
RTVSPropertyOp7
 70
     1
102
RTVSPropertyOp8
 70
     1
102
RTVSPropertyOp9
 70
     1
102
RTVSPropertyOp10
 70
     1
102
RTVSPropertyOp11
 70
     1
102
RTVSPropertyOp12
 70
     1
102
RTVSPropertyOp13
 70
     1
102
RTVSPropertyOp14
 70
     1
102
RTVSPropertyOp15
 70
     1
102
RTVSPropertyOp16
 70
     1
102
RTVSPropertyOp17
 70
     1
102
RTVSPropertyOp18
 70
     1
102
RTVSPropertyOp19
 70
     1
102
RTVSPropertyOp20
 70
     1
102
RTVSPropertyOp21
 70
     1
102
RTVSPropertyOp22
 70
     1
102
RTVSPropertyOp23
 70
     1
102
RTVSPropertyOp24
 70
     1
102
RTVSPropertyOp25
 70
     1
102
RTVSPropertyOp26
 70
     1
102
RTVSPropertyOp27
 70
     1
102
RTVSPropertyOp28
 70
     1
102
RTVSPropertyOp29
 70
     1
102
RTVSPropertyOp30
 70
     1
102
RTVSPropertyOp31
 70
     1
102
RTVSPropertyOp32
 70
     1
102
RTVSPropertyOp33
 70
     1
102
RTVSPropertyOp34
 70
     1
102
RTVSPropertyOp35
 70
     1
102
RTVSPropertyOp36
 70
     1
102
RTVSPropertyOp37
 70
     1
102
RTVSPropertyOp38
 70
     1
102
RTVSPropertyOp39
 70
     1
102
RTVSPropertyOp40
 70
     1
102
RTVSPropertyOp41
 70
     1
102
RTVSPropertyOp42
 70
     1
102
RTVSPropertyOp43
 70
     1
102
RTVSPropertyOp44
 70
     1
102
RTVSPropertyOp45
 70
     1
102
RTVSPropertyOp46
 70
     1
102
RTVSPropertyOp47
 70
     1
102
RTVSPropertyOp48
 70
     1
102
RTVSPropertyOp49
 70
     1
102
RTVSPropertyOp50
 70
     1
102
RTVSPropertyOp51
 70
     0
102
RTVSPropertyOp52
 70
     0
102
RTVSPropertyOp53
 70
     1
102
RTVSPropertyOp54
 70
     1
102
RTVSPropertyOp55
 70
     1
102
RTVSPropertyOp56
 70
     1
102
RTVSPropertyOp57
 70
     1
102
RTVSPropertyOp58
 70
     1
102
RTVSPropertyOp59
 70
     1
102
RTVSPropertyOp60
 70
     1
102
RTVSPropertyOp61
 70
     1
102
RTVSPropertyOp62
 70
     1
  0
XRECORD
  5
40D5
102
{ACAD_REACTORS
330
40D4
102
}
330
40D4
100
AcDbXrecord
280
     1
102
RTVSPost2010Prop28
280
     0
102
RTVSPost2010PropOp28
 70
     1
102
RTVSPost2010Prop29
280
     1
102
RTVSPost2010PropOp29
 70
     1
102
RTVSPost2010Prop30
280
     1
102
RTVSPost2010PropOp30
 70
     1
102
RTVSPost2010Prop31
280
     0
102
RTVSPost2010PropOp31
 70
     1
102
RTVSPost2010Prop32
280
     0
102
RTVSPost2010PropOp32
 70
     1
102
RTVSPost2010Prop33
280
     0
102
RTVSPost2010PropOp33
 70
     1
102
RTVSPost2010Prop34
280
     0
102
RTVSPost2010PropOp34
 70
     1
102
RTVSPost2010Prop35
280
     0
102
RTVSPost2010PropOp35
 70
     1
102
RTVSPost2010Prop36
280
     0
102
RTVSPost2010PropOp36
 70
     1
102
RTVSPost2010Prop37
 90
       50
102
RTVSPost2010PropOp37
 70
     1
102
RTVSPost2010Prop38
140
0.0
102
RTVSPost2010PropOp38
 70
     1
102
RTVSPost2010Prop39
140
1.0
102
RTVSPost2010PropOp39
 70
     1
102
RTVSPost2010Prop40
 90
        0
102
RTVSPost2010PropOp40
 70
     1
102
RTVSPost2010Prop41ColorIndex
 90
       18
102
RTVSPost2010Prop41ColorRGB
 90
        0
102
RTVSPost2010PropOp41
 70
     1
102
RTVSPost2010Prop42
 90
       50
102
RTVSPost2010PropOp42
 70
     1
102
RTVSPost2010Prop43
 90
        3
102
RTVSPost2010PropOp43
 70
     1
102
RTVSPost2010Prop44ColorIndex
 90
        5
102
RTVSPost2010Prop44ColorRGB
 90
      255
102
RTVSPost2010PropOp44
 70
     1
102
RTVSPost2010Prop45
280
     0
102
RTVSPost2010PropOp45
 70
     1
102
RTVSPost2010Prop46
 90
       50
102
RTVSPost2010PropOp46
 70
     1
102
RTVSPost2010Prop47
 90
       50
102
RTVSPost2010PropOp47
 70
     1
102
RTVSPost2010Prop48
 90
       50
102
RTVSPost2010PropOp48
 70
     1
102
RTVSPost2010Prop49
280
     0
102
RTVSPost2010PropOp49
 70
     1
102
RTVSPost2010Prop50
 90
       50
102
RTVSPost2010PropOp50
 70
     1
102
RTVSPost2010Prop51ColorIndex
 90
      256
102
RTVSPost2010Prop51ColorRGB
 90
-16777216
102
RTVSPost2010PropOp51
 70
     0
102
RTVSPost2010Prop52
140
1.0
102
RTVSPost2010PropOp52
 70
     0
102
RTVSPost2010Prop53
 90
        2
102
RTVSPost2010PropOp53
 70
     1
102
RTVSPost2010Prop54
  1
strokes_ogs.tif
102
RTVSPost2010PropOp54
 70
     1
102
RTVSPost2010Prop55
280
     0
102
RTVSPost2010PropOp55
 70
     1
102
RTVSPost2010Prop56
140
1.0
102
RTVSPost2010PropOp56
 70
     1
102
RTVSPost2010Prop57
140
1.0
102
RTVSPost2010PropOp57
 70
     1
102
RTVSPropertyOp0
 70
     1
102
RTVSPropertyOp1
 70
     1
102
RTVSPropertyOp2
 70
     1
102
RTVSPropertyOp3
 70
     1
102
RTVSPropertyOp4
 70
     1
102
RTVSPropertyOp5
 70
     1
102
RTVSPropertyOp6
 70
     1
102
RTVSPropertyOp7
 70
     1
102
RTVSPropertyOp8
 70
     1
102
RTVSPropertyOp9
 70
     1
102
RTVSPropertyOp10
 70
     1
102
RTVSPropertyOp11
 70
     1
102
RTVSPropertyOp12
 70
     1
102
RTVSPropertyOp13
 70
     1
102
RTVSPropertyOp14
 70
     1
102
RTVSPropertyOp15
 70
     1
102
RTVSPropertyOp16
 70
     1
102
RTVSPropertyOp17
 70
     1
102
RTVSPropertyOp18
 70
     1
102
RTVSPropertyOp19
 70
     1
102
RTVSPropertyOp20
 70
     1
102
RTVSPropertyOp21
 70
     1
102
RTVSPropertyOp22
 70
     1
102
RTVSPropertyOp23
 70
     1
102
RTVSPropertyOp24
 70
     1
102
RTVSPropertyOp25
 70
     1
102
RTVSPropertyOp26
 70
     1
102
RTVSPropertyOp27
 70
     1
102
RTVSPropertyOp28
 70
     1
102
RTVSPropertyOp29
 70
     1
102
RTVSPropertyOp30
 70
     1
102
RTVSPropertyOp31
 70
     1
102
RTVSPropertyOp32
 70
     1
102
RTVSPropertyOp33
 70
     1
102
RTVSPropertyOp34
 70
     1
102
RTVSPropertyOp35
 70
     1
102
RTVSPropertyOp36
 70
     1
102
RTVSPropertyOp37
 70
     1
102
RTVSPropertyOp38
 70
     1
102
RTVSPropertyOp39
 70
     1
102
RTVSPropertyOp40
 70
     1
102
RTVSPropertyOp41
 70
     1
102
RTVSPropertyOp42
 70
     1
102
RTVSPropertyOp43
 70
     1
102
RTVSPropertyOp44
 70
     1
102
RTVSPropertyOp45
 70
     1
102
RTVSPropertyOp46
 70
     1
102
RTVSPropertyOp47
 70
     1
102
RTVSPropertyOp48
 70
     1
102
RTVSPropertyOp49
 70
     1
102
RTVSPropertyOp50
 70
     1
102
RTVSPropertyOp51
 70
     0
102
RTVSPropertyOp52
 70
     0
102
RTVSPropertyOp53
 70
     1
102
RTVSPropertyOp54
 70
     1
102
RTVSPropertyOp55
 70
     1
102
RTVSPropertyOp56
 70
     1
102
RTVSPropertyOp57
 70
     1
102
RTVSPropertyOp58
 70
     1
102
RTVSPropertyOp59
 70
     1
102
RTVSPropertyOp60
 70
     1
102
RTVSPropertyOp61
 70
     1
102
RTVSPropertyOp62
 70
     1
  0
XRECORD
  5
40E5
102
{ACAD_REACTORS
330
40E4
102
}
330
40E4
100
AcDbXrecord
280
     1
102
RTVSPost2010Prop28
280
     0
102
RTVSPost2010PropOp28
 70
     1
102
RTVSPost2010Prop29
280
     1
102
RTVSPost2010PropOp29
 70
     1
102
RTVSPost2010Prop30
280
     1
102
RTVSPost2010PropOp30
 70
     1
102
RTVSPost2010Prop31
280
     0
102
RTVSPost2010PropOp31
 70
     1
102
RTVSPost2010Prop32
280
     0
102
RTVSPost2010PropOp32
 70
     1
102
RTVSPost2010Prop33
280
     0
102
RTVSPost2010PropOp33
 70
     1
102
RTVSPost2010Prop34
280
     0
102
RTVSPost2010PropOp34
 70
     1
102
RTVSPost2010Prop35
280
     0
102
RTVSPost2010PropOp35
 70
     1
102
RTVSPost2010Prop36
280
     0
102
RTVSPost2010PropOp36
 70
     1
102
RTVSPost2010Prop37
 90
       50
102
RTVSPost2010PropOp37
 70
     1
102
RTVSPost2010Prop38
140
0.0
102
RTVSPost2010PropOp38
 70
     1
102
RTVSPost2010Prop39
140
1.0
102
RTVSPost2010PropOp39
 70
     1
102
RTVSPost2010Prop40
 90
        0
102
RTVSPost2010PropOp40
 70
     1
102
RTVSPost2010Prop41ColorIndex
 90
       18
102
RTVSPost2010Prop41ColorRGB
 90
        0
102
RTVSPost2010PropOp41
 70
     1
102
RTVSPost2010Prop42
 90
       50
102
RTVSPost2010PropOp42
 70
     1
102
RTVSPost2010Prop43
 90
        3
102
RTVSPost2010PropOp43
 70
     1
102
RTVSPost2010Prop44ColorIndex
 90
        5
102
RTVSPost2010Prop44ColorRGB
 90
      255
102
RTVSPost2010PropOp44
 70
     1
102
RTVSPost2010Prop45
280
     0
102
RTVSPost2010PropOp45
 70
     1
102
RTVSPost2010Prop46
 90
       50
102
RTVSPost2010PropOp46
 70
     1
102
RTVSPost2010Prop47
 90
       50
102
RTVSPost2010PropOp47
 70
     1
102
RTVSPost2010Prop48
 90
       50
102
RTVSPost2010PropOp48
 70
     1
102
RTVSPost2010Prop49
280
     0
102
RTVSPost2010PropOp49
 70
     1
102
RTVSPost2010Prop50
 90
       50
102
RTVSPost2010PropOp50
 70
     1
102
RTVSPost2010Prop51ColorIndex
 90
      256
102
RTVSPost2010Prop51ColorRGB
 90
-16777216
102
RTVSPost2010PropOp51
 70
     0
102
RTVSPost2010Prop52
140
1.0
102
RTVSPost2010PropOp52
 70
     0
102
RTVSPost2010Prop53
 90
        2
102
RTVSPost2010PropOp53
 70
     1
102
RTVSPost2010Prop54
  1
strokes_ogs.tif
102
RTVSPost2010PropOp54
 70
     1
102
RTVSPost2010Prop55
280
     0
102
RTVSPost2010PropOp55
 70
     1
102
RTVSPost2010Prop56
140
1.0
102
RTVSPost2010PropOp56
 70
     1
102
RTVSPost2010Prop57
140
1.0
102
RTVSPost2010PropOp57
 70
     1
102
RTVSPropertyOp0
 70
     0
102
RTVSPropertyOp1
 70
     0
102
RTVSPropertyOp2
 70
     0
102
RTVSPropertyOp3
 70
     0
102
RTVSPropertyOp4
 70
     0
102
RTVSPropertyOp5
 70
     0
102
RTVSPropertyOp6
 70
     0
102
RTVSPropertyOp7
 70
     0
102
RTVSPropertyOp8
 70
     0
102
RTVSPropertyOp9
 70
     0
102
RTVSPropertyOp10
 70
     0
102
RTVSPropertyOp11
 70
     0
102
RTVSPropertyOp12
 70
     0
102
RTVSPropertyOp13
 70
     0
102
RTVSPropertyOp14
 70
     2
102
RTVSPropertyOp15
 70
     0
102
RTVSPropertyOp16
 70
     0
102
RTVSPropertyOp17
 70
     0
102
RTVSPropertyOp18
 70
     0
102
RTVSPropertyOp19
 70
     0
102
RTVSPropertyOp20
 70
     0
102
RTVSPropertyOp21
 70
     0
102
RTVSPropertyOp22
 70
     0
102
RTVSPropertyOp23
 70
     0
102
RTVSPropertyOp24
 70
     0
102
RTVSPropertyOp25
 70
     0
102
RTVSPropertyOp26
 70
     0
102
RTVSPropertyOp27
 70
     0
102
RTVSPropertyOp28
 70
     1
102
RTVSPropertyOp29
 70
     1
102
RTVSPropertyOp30
 70
     1
102
RTVSPropertyOp31
 70
     1
102
RTVSPropertyOp32
 70
     1
102
RTVSPropertyOp33
 70
     1
102
RTVSPropertyOp34
 70
     1
102
RTVSPropertyOp35
 70
     1
102
RTVSPropertyOp36
 70
     1
102
RTVSPropertyOp37
 70
     1
102
RTVSPropertyOp38
 70
     1
102
RTVSPropertyOp39
 70
     1
102
RTVSPropertyOp40
 70
     1
102
RTVSPropertyOp41
 70
     1
102
RTVSPropertyOp42
 70
     1
102
RTVSPropertyOp43
 70
     1
102
RTVSPropertyOp44
 70
     1
102
RTVSPropertyOp45
 70
     1
102
RTVSPropertyOp46
 70
     1
102
RTVSPropertyOp47
 70
     1
102
RTVSPropertyOp48
 70
     1
102
RTVSPropertyOp49
 70
     1
102
RTVSPropertyOp50
 70
     1
102
RTVSPropertyOp51
 70
     0
102
RTVSPropertyOp52
 70
     0
102
RTVSPropertyOp53
 70
     1
102
RTVSPropertyOp54
 70
     1
102
RTVSPropertyOp55
 70
     1
102
RTVSPropertyOp56
 70
     1
102
RTVSPropertyOp57
 70
     1
102
RTVSPropertyOp58
 70
     1
102
RTVSPropertyOp59
 70
     1
102
RTVSPropertyOp60
 70
     1
102
RTVSPropertyOp61
 70
     1
102
RTVSPropertyOp62
 70
     1
  0
XRECORD
  5
40DD
102
{ACAD_REACTORS
330
40DC
102
}
330
40DC
100
AcDbXrecord
280
     1
102
RTVSPost2010Prop28
280
     0
102
RTVSPost2010PropOp28
 70
     1
102
RTVSPost2010Prop29
280
     1
102
RTVSPost2010PropOp29
 70
     1
102
RTVSPost2010Prop30
280
     1
102
RTVSPost2010PropOp30
 70
     1
102
RTVSPost2010Prop31
280
     0
102
RTVSPost2010PropOp31
 70
     1
102
RTVSPost2010Prop32
280
     0
102
RTVSPost2010PropOp32
 70
     1
102
RTVSPost2010Prop33
280
     0
102
RTVSPost2010PropOp33
 70
     1
102
RTVSPost2010Prop34
280
     0
102
RTVSPost2010PropOp34
 70
     1
102
RTVSPost2010Prop35
280
     0
102
RTVSPost2010PropOp35
 70
     1
102
RTVSPost2010Prop36
280
     0
102
RTVSPost2010PropOp36
 70
     1
102
RTVSPost2010Prop37
 90
       50
102
RTVSPost2010PropOp37
 70
     1
102
RTVSPost2010Prop38
140
0.0
102
RTVSPost2010PropOp38
 70
     1
102
RTVSPost2010Prop39
140
1.0
102
RTVSPost2010PropOp39
 70
     1
102
RTVSPost2010Prop40
 90
        0
102
RTVSPost2010PropOp40
 70
     1
102
RTVSPost2010Prop41ColorIndex
 90
       18
102
RTVSPost2010Prop41ColorRGB
 90
        0
102
RTVSPost2010PropOp41
 70
     1
102
RTVSPost2010Prop42
 90
       50
102
RTVSPost2010PropOp42
 70
     1
102
RTVSPost2010Prop43
 90
        3
102
RTVSPost2010PropOp43
 70
     1
102
RTVSPost2010Prop44ColorIndex
 90
        5
102
RTVSPost2010Prop44ColorRGB
 90
      255
102
RTVSPost2010PropOp44
 70
     1
102
RTVSPost2010Prop45
280
     0
102
RTVSPost2010PropOp45
 70
     1
102
RTVSPost2010Prop46
 90
       50
102
RTVSPost2010PropOp46
 70
     1
102
RTVSPost2010Prop47
 90
       50
102
RTVSPost2010PropOp47
 70
     1
102
RTVSPost2010Prop48
 90
       50
102
RTVSPost2010PropOp48
 70
     1
102
RTVSPost2010Prop49
280
     0
102
RTVSPost2010PropOp49
 70
     1
102
RTVSPost2010Prop50
 90
       50
102
RTVSPost2010PropOp50
 70
     1
102
RTVSPost2010Prop51ColorIndex
 90
      256
102
RTVSPost2010Prop51ColorRGB
 90
-16777216
102
RTVSPost2010PropOp51
 70
     0
102
RTVSPost2010Prop52
140
1.0
102
RTVSPost2010PropOp52
 70
     0
102
RTVSPost2010Prop53
 90
        2
102
RTVSPost2010PropOp53
 70
     1
102
RTVSPost2010Prop54
  1
strokes_ogs.tif
102
RTVSPost2010PropOp54
 70
     1
102
RTVSPost2010Prop55
280
     0
102
RTVSPost2010PropOp55
 70
     1
102
RTVSPost2010Prop56
140
1.0
102
RTVSPost2010PropOp56
 70
     1
102
RTVSPost2010Prop57
140
1.0
102
RTVSPost2010PropOp57
 70
     1
102
RTVSPropertyOp0
 70
     1
102
RTVSPropertyOp1
 70
     1
102
RTVSPropertyOp2
 70
     1
102
RTVSPropertyOp3
 70
     1
102
RTVSPropertyOp4
 70
     1
102
RTVSPropertyOp5
 70
     1
102
RTVSPropertyOp6
 70
     1
102
RTVSPropertyOp7
 70
     1
102
RTVSPropertyOp8
 70
     1
102
RTVSPropertyOp9
 70
     1
102
RTVSPropertyOp10
 70
     1
102
RTVSPropertyOp11
 70
     1
102
RTVSPropertyOp12
 70
     1
102
RTVSPropertyOp13
 70
     1
102
RTVSPropertyOp14
 70
     1
102
RTVSPropertyOp15
 70
     1
102
RTVSPropertyOp16
 70
     1
102
RTVSPropertyOp17
 70
     1
102
RTVSPropertyOp18
 70
     1
102
RTVSPropertyOp19
 70
     1
102
RTVSPropertyOp20
 70
     1
102
RTVSPropertyOp21
 70
     1
102
RTVSPropertyOp22
 70
     1
102
RTVSPropertyOp23
 70
     1
102
RTVSPropertyOp24
 70
     1
102
RTVSPropertyOp25
 70
     1
102
RTVSPropertyOp26
 70
     1
102
RTVSPropertyOp27
 70
     1
102
RTVSPropertyOp28
 70
     1
102
RTVSPropertyOp29
 70
     1
102
RTVSPropertyOp30
 70
     1
102
RTVSPropertyOp31
 70
     1
102
RTVSPropertyOp32
 70
     1
102
RTVSPropertyOp33
 70
     1
102
RTVSPropertyOp34
 70
     1
102
RTVSPropertyOp35
 70
     1
102
RTVSPropertyOp36
 70
     1
102
RTVSPropertyOp37
 70
     1
102
RTVSPropertyOp38
 70
     1
102
RTVSPropertyOp39
 70
     1
102
RTVSPropertyOp40
 70
     1
102
RTVSPropertyOp41
 70
     1
102
RTVSPropertyOp42
 70
     1
102
RTVSPropertyOp43
 70
     1
102
RTVSPropertyOp44
 70
     1
102
RTVSPropertyOp45
 70
     1
102
RTVSPropertyOp46
 70
     1
102
RTVSPropertyOp47
 70
     1
102
RTVSPropertyOp48
 70
     1
102
RTVSPropertyOp49
 70
     1
102
RTVSPropertyOp50
 70
     1
102
RTVSPropertyOp51
 70
     0
102
RTVSPropertyOp52
 70
     0
102
RTVSPropertyOp53
 70
     1
102
RTVSPropertyOp54
 70
     1
102
RTVSPropertyOp55
 70
     1
102
RTVSPropertyOp56
 70
     1
102
RTVSPropertyOp57
 70
     1
102
RTVSPropertyOp58
 70
     1
102
RTVSPropertyOp59
 70
     1
102
RTVSPropertyOp60
 70
     1
102
RTVSPropertyOp61
 70
     1
102
RTVSPropertyOp62
 70
     1
  0
XRECORD
  5
40C1
102
{ACAD_REACTORS
330
40C0
102
}
330
40C0
100
AcDbXrecord
280
     1
102
RTVSPost2010Prop28
280
     0
102
RTVSPost2010PropOp28
 70
     1
102
RTVSPost2010Prop29
280
     1
102
RTVSPost2010PropOp29
 70
     1
102
RTVSPost2010Prop30
280
     1
102
RTVSPost2010PropOp30
 70
     1
102
RTVSPost2010Prop31
280
     0
102
RTVSPost2010PropOp31
 70
     1
102
RTVSPost2010Prop32
280
     0
102
RTVSPost2010PropOp32
 70
     1
102
RTVSPost2010Prop33
280
     0
102
RTVSPost2010PropOp33
 70
     1
102
RTVSPost2010Prop34
280
     0
102
RTVSPost2010PropOp34
 70
     1
102
RTVSPost2010Prop35
280
     0
102
RTVSPost2010PropOp35
 70
     1
102
RTVSPost2010Prop36
280
     0
102
RTVSPost2010PropOp36
 70
     1
102
RTVSPost2010Prop37
 90
       50
102
RTVSPost2010PropOp37
 70
     1
102
RTVSPost2010Prop38
140
0.0
102
RTVSPost2010PropOp38
 70
     1
102
RTVSPost2010Prop39
140
1.0
102
RTVSPost2010PropOp39
 70
     1
102
RTVSPost2010Prop40
 90
        0
102
RTVSPost2010PropOp40
 70
     1
102
RTVSPost2010Prop41ColorIndex
 90
       18
102
RTVSPost2010Prop41ColorRGB
 90
        0
102
RTVSPost2010PropOp41
 70
     1
102
RTVSPost2010Prop42
 90
       50
102
RTVSPost2010PropOp42
 70
     1
102
RTVSPost2010Prop43
 90
        3
102
RTVSPost2010PropOp43
 70
     1
102
RTVSPost2010Prop44ColorIndex
 90
        5
102
RTVSPost2010Prop44ColorRGB
 90
      255
102
RTVSPost2010PropOp44
 70
     1
102
RTVSPost2010Prop45
280
     0
102
RTVSPost2010PropOp45
 70
     1
102
RTVSPost2010Prop46
 90
       50
102
RTVSPost2010PropOp46
 70
     1
102
RTVSPost2010Prop47
 90
       50
102
RTVSPost2010PropOp47
 70
     1
102
RTVSPost2010Prop48
 90
       50
102
RTVSPost2010PropOp48
 70
     1
102
RTVSPost2010Prop49
280
     0
102
RTVSPost2010PropOp49
 70
     1
102
RTVSPost2010Prop50
 90
       50
102
RTVSPost2010PropOp50
 70
     1
102
RTVSPost2010Prop51ColorIndex
 90
      256
102
RTVSPost2010Prop51ColorRGB
 90
-16777216
102
RTVSPost2010PropOp51
 70
     0
102
RTVSPost2010Prop52
140
1.0
102
RTVSPost2010PropOp52
 70
     0
102
RTVSPost2010Prop53
 90
        2
102
RTVSPost2010PropOp53
 70
     1
102
RTVSPost2010Prop54
  1
strokes_ogs.tif
102
RTVSPost2010PropOp54
 70
     1
102
RTVSPost2010Prop55
280
     0
102
RTVSPost2010PropOp55
 70
     1
102
RTVSPost2010Prop56
140
1.0
102
RTVSPost2010PropOp56
 70
     1
102
RTVSPost2010Prop57
140
1.0
102
RTVSPost2010PropOp57
 70
     1
102
RTVSPropertyOp0
 70
     1
102
RTVSPropertyOp1
 70
     1
102
RTVSPropertyOp2
 70
     1
102
RTVSPropertyOp3
 70
     1
102
RTVSPropertyOp4
 70
     1
102
RTVSPropertyOp5
 70
     1
102
RTVSPropertyOp6
 70
     1
102
RTVSPropertyOp7
 70
     1
102
RTVSPropertyOp8
 70
     1
102
RTVSPropertyOp9
 70
     1
102
RTVSPropertyOp10
 70
     1
102
RTVSPropertyOp11
 70
     1
102
RTVSPropertyOp12
 70
     1
102
RTVSPropertyOp13
 70
     1
102
RTVSPropertyOp14
 70
     1
102
RTVSPropertyOp15
 70
     1
102
RTVSPropertyOp16
 70
     1
102
RTVSPropertyOp17
 70
     1
102
RTVSPropertyOp18
 70
     1
102
RTVSPropertyOp19
 70
     1
102
RTVSPropertyOp20
 70
     1
102
RTVSPropertyOp21
 70
     1
102
RTVSPropertyOp22
 70
     1
102
RTVSPropertyOp23
 70
     1
102
RTVSPropertyOp24
 70
     1
102
RTVSPropertyOp25
 70
     1
102
RTVSPropertyOp26
 70
     1
102
RTVSPropertyOp27
 70
     1
102
RTVSPropertyOp28
 70
     1
102
RTVSPropertyOp29
 70
     1
102
RTVSPropertyOp30
 70
     1
102
RTVSPropertyOp31
 70
     1
102
RTVSPropertyOp32
 70
     1
102
RTVSPropertyOp33
 70
     1
102
RTVSPropertyOp34
 70
     1
102
RTVSPropertyOp35
 70
     1
102
RTVSPropertyOp36
 70
     1
102
RTVSPropertyOp37
 70
     1
102
RTVSPropertyOp38
 70
     1
102
RTVSPropertyOp39
 70
     1
102
RTVSPropertyOp40
 70
     1
102
RTVSPropertyOp41
 70
     1
102
RTVSPropertyOp42
 70
     1
102
RTVSPropertyOp43
 70
     1
102
RTVSPropertyOp44
 70
     1
102
RTVSPropertyOp45
 70
     1
102
RTVSPropertyOp46
 70
     1
102
RTVSPropertyOp47
 70
     1
102
RTVSPropertyOp48
 70
     1
102
RTVSPropertyOp49
 70
     1
102
RTVSPropertyOp50
 70
     1
102
RTVSPropertyOp51
 70
     0
102
RTVSPropertyOp52
 70
     0
102
RTVSPropertyOp53
 70
     1
102
RTVSPropertyOp54
 70
     1
102
RTVSPropertyOp55
 70
     1
102
RTVSPropertyOp56
 70
     1
102
RTVSPropertyOp57
 70
     1
102
RTVSPropertyOp58
 70
     1
102
RTVSPropertyOp59
 70
     1
102
RTVSPropertyOp60
 70
     1
102
RTVSPropertyOp61
 70
     1
102
RTVSPropertyOp62
 70
     1
  0
XRECORD
  5
40C3
102
{ACAD_REACTORS
330
40C2
102
}
330
40C2
100
AcDbXrecord
280
     1
102
RTVSPost2010Prop28
280
     0
102
RTVSPost2010PropOp28
 70
     1
102
RTVSPost2010Prop29
280
     1
102
RTVSPost2010PropOp29
 70
     1
102
RTVSPost2010Prop30
280
     1
102
RTVSPost2010PropOp30
 70
     1
102
RTVSPost2010Prop31
280
     0
102
RTVSPost2010PropOp31
 70
     1
102
RTVSPost2010Prop32
280
     0
102
RTVSPost2010PropOp32
 70
     1
102
RTVSPost2010Prop33
280
     0
102
RTVSPost2010PropOp33
 70
     1
102
RTVSPost2010Prop34
280
     0
102
RTVSPost2010PropOp34
 70
     1
102
RTVSPost2010Prop35
280
     0
102
RTVSPost2010PropOp35
 70
     1
102
RTVSPost2010Prop36
280
     0
102
RTVSPost2010PropOp36
 70
     1
102
RTVSPost2010Prop37
 90
       50
102
RTVSPost2010PropOp37
 70
     1
102
RTVSPost2010Prop38
140
0.0
102
RTVSPost2010PropOp38
 70
     1
102
RTVSPost2010Prop39
140
1.0
102
RTVSPost2010PropOp39
 70
     1
102
RTVSPost2010Prop40
 90
        0
102
RTVSPost2010PropOp40
 70
     1
102
RTVSPost2010Prop41ColorIndex
 90
       18
102
RTVSPost2010Prop41ColorRGB
 90
        0
102
RTVSPost2010PropOp41
 70
     1
102
RTVSPost2010Prop42
 90
       50
102
RTVSPost2010PropOp42
 70
     1
102
RTVSPost2010Prop43
 90
        3
102
RTVSPost2010PropOp43
 70
     1
102
RTVSPost2010Prop44ColorIndex
 90
        5
102
RTVSPost2010Prop44ColorRGB
 90
      255
102
RTVSPost2010PropOp44
 70
     1
102
RTVSPost2010Prop45
280
     0
102
RTVSPost2010PropOp45
 70
     1
102
RTVSPost2010Prop46
 90
       50
102
RTVSPost2010PropOp46
 70
     1
102
RTVSPost2010Prop47
 90
       50
102
RTVSPost2010PropOp47
 70
     1
102
RTVSPost2010Prop48
 90
       50
102
RTVSPost2010PropOp48
 70
     1
102
RTVSPost2010Prop49
280
     0
102
RTVSPost2010PropOp49
 70
     1
102
RTVSPost2010Prop50
 90
       50
102
RTVSPost2010PropOp50
 70
     1
102
RTVSPost2010Prop51ColorIndex
 90
      256
102
RTVSPost2010Prop51ColorRGB
 90
-16777216
102
RTVSPost2010PropOp51
 70
     0
102
RTVSPost2010Prop52
140
1.0
102
RTVSPost2010PropOp52
 70
     0
102
RTVSPost2010Prop53
 90
        2
102
RTVSPost2010PropOp53
 70
     1
102
RTVSPost2010Prop54
  1
strokes_ogs.tif
102
RTVSPost2010PropOp54
 70
     1
102
RTVSPost2010Prop55
280
     0
102
RTVSPost2010PropOp55
 70
     1
102
RTVSPost2010Prop56
140
1.0
102
RTVSPost2010PropOp56
 70
     1
102
RTVSPost2010Prop57
140
1.0
102
RTVSPost2010PropOp57
 70
     1
102
RTVSPropertyOp0
 70
     1
102
RTVSPropertyOp1
 70
     1
102
RTVSPropertyOp2
 70
     1
102
RTVSPropertyOp3
 70
     1
102
RTVSPropertyOp4
 70
     1
102
RTVSPropertyOp5
 70
     1
102
RTVSPropertyOp6
 70
     1
102
RTVSPropertyOp7
 70
     1
102
RTVSPropertyOp8
 70
     1
102
RTVSPropertyOp9
 70
     1
102
RTVSPropertyOp10
 70
     1
102
RTVSPropertyOp11
 70
     1
102
RTVSPropertyOp12
 70
     1
102
RTVSPropertyOp13
 70
     1
102
RTVSPropertyOp14
 70
     1
102
RTVSPropertyOp15
 70
     1
102
RTVSPropertyOp16
 70
     1
102
RTVSPropertyOp17
 70
     1
102
RTVSPropertyOp18
 70
     1
102
RTVSPropertyOp19
 70
     1
102
RTVSPropertyOp20
 70
     1
102
RTVSPropertyOp21
 70
     1
102
RTVSPropertyOp22
 70
     1
102
RTVSPropertyOp23
 70
     1
102
RTVSPropertyOp24
 70
     1
102
RTVSPropertyOp25
 70
     1
102
RTVSPropertyOp26
 70
     1
102
RTVSPropertyOp27
 70
     1
102
RTVSPropertyOp28
 70
     1
102
RTVSPropertyOp29
 70
     1
102
RTVSPropertyOp30
 70
     1
102
RTVSPropertyOp31
 70
     1
102
RTVSPropertyOp32
 70
     1
102
RTVSPropertyOp33
 70
     1
102
RTVSPropertyOp34
 70
     1
102
RTVSPropertyOp35
 70
     1
102
RTVSPropertyOp36
 70
     1
102
RTVSPropertyOp37
 70
     1
102
RTVSPropertyOp38
 70
     1
102
RTVSPropertyOp39
 70
     1
102
RTVSPropertyOp40
 70
     1
102
RTVSPropertyOp41
 70
     1
102
RTVSPropertyOp42
 70
     1
102
RTVSPropertyOp43
 70
     1
102
RTVSPropertyOp44
 70
     1
102
RTVSPropertyOp45
 70
     1
102
RTVSPropertyOp46
 70
     1
102
RTVSPropertyOp47
 70
     1
102
RTVSPropertyOp48
 70
     1
102
RTVSPropertyOp49
 70
     1
102
RTVSPropertyOp50
 70
     1
102
RTVSPropertyOp51
 70
     0
102
RTVSPropertyOp52
 70
     0
102
RTVSPropertyOp53
 70
     1
102
RTVSPropertyOp54
 70
     1
102
RTVSPropertyOp55
 70
     1
102
RTVSPropertyOp56
 70
     1
102
RTVSPropertyOp57
 70
     1
102
RTVSPropertyOp58
 70
     1
102
RTVSPropertyOp59
 70
     1
102
RTVSPropertyOp60
 70
     1
102
RTVSPropertyOp61
 70
     1
102
RTVSPropertyOp62
 70
     1
  0
XRECORD
  5
40C5
102
{ACAD_REACTORS
330
40C4
102
}
330
40C4
100
AcDbXrecord
280
     1
102
RTVSPost2010Prop28
280
     0
102
RTVSPost2010PropOp28
 70
     1
102
RTVSPost2010Prop29
280
     1
102
RTVSPost2010PropOp29
 70
     1
102
RTVSPost2010Prop30
280
     1
102
RTVSPost2010PropOp30
 70
     1
102
RTVSPost2010Prop31
280
     0
102
RTVSPost2010PropOp31
 70
     1
102
RTVSPost2010Prop32
280
     0
102
RTVSPost2010PropOp32
 70
     1
102
RTVSPost2010Prop33
280
     0
102
RTVSPost2010PropOp33
 70
     1
102
RTVSPost2010Prop34
280
     0
102
RTVSPost2010PropOp34
 70
     1
102
RTVSPost2010Prop35
280
     0
102
RTVSPost2010PropOp35
 70
     1
102
RTVSPost2010Prop36
280
     0
102
RTVSPost2010PropOp36
 70
     1
102
RTVSPost2010Prop37
 90
       50
102
RTVSPost2010PropOp37
 70
     1
102
RTVSPost2010Prop38
140
0.0
102
RTVSPost2010PropOp38
 70
     1
102
RTVSPost2010Prop39
140
1.0
102
RTVSPost2010PropOp39
 70
     1
102
RTVSPost2010Prop40
 90
        0
102
RTVSPost2010PropOp40
 70
     1
102
RTVSPost2010Prop41ColorIndex
 90
       18
102
RTVSPost2010Prop41ColorRGB
 90
        0
102
RTVSPost2010PropOp41
 70
     1
102
RTVSPost2010Prop42
 90
       50
102
RTVSPost2010PropOp42
 70
     1
102
RTVSPost2010Prop43
 90
        3
102
RTVSPost2010PropOp43
 70
     1
102
RTVSPost2010Prop44ColorIndex
 90
        5
102
RTVSPost2010Prop44ColorRGB
 90
      255
102
RTVSPost2010PropOp44
 70
     1
102
RTVSPost2010Prop45
280
     0
102
RTVSPost2010PropOp45
 70
     1
102
RTVSPost2010Prop46
 90
       50
102
RTVSPost2010PropOp46
 70
     1
102
RTVSPost2010Prop47
 90
       50
102
RTVSPost2010PropOp47
 70
     1
102
RTVSPost2010Prop48
 90
       50
102
RTVSPost2010PropOp48
 70
     1
102
RTVSPost2010Prop49
280
     0
102
RTVSPost2010PropOp49
 70
     1
102
RTVSPost2010Prop50
 90
       50
102
RTVSPost2010PropOp50
 70
     1
102
RTVSPost2010Prop51ColorIndex
 90
      256
102
RTVSPost2010Prop51ColorRGB
 90
-16777216
102
RTVSPost2010PropOp51
 70
     0
102
RTVSPost2010Prop52
140
1.0
102
RTVSPost2010PropOp52
 70
     0
102
RTVSPost2010Prop53
 90
        2
102
RTVSPost2010PropOp53
 70
     1
102
RTVSPost2010Prop54
  1
strokes_ogs.tif
102
RTVSPost2010PropOp54
 70
     1
102
RTVSPost2010Prop55
280
     0
102
RTVSPost2010PropOp55
 70
     1
102
RTVSPost2010Prop56
140
1.0
102
RTVSPost2010PropOp56
 70
     1
102
RTVSPost2010Prop57
140
1.0
102
RTVSPost2010PropOp57
 70
     1
102
RTVSPropertyOp0
 70
     1
102
RTVSPropertyOp1
 70
     1
102
RTVSPropertyOp2
 70
     1
102
RTVSPropertyOp3
 70
     1
102
RTVSPropertyOp4
 70
     1
102
RTVSPropertyOp5
 70
     1
102
RTVSPropertyOp6
 70
     1
102
RTVSPropertyOp7
 70
     1
102
RTVSPropertyOp8
 70
     1
102
RTVSPropertyOp9
 70
     1
102
RTVSPropertyOp10
 70
     1
102
RTVSPropertyOp11
 70
     1
102
RTVSPropertyOp12
 70
     1
102
RTVSPropertyOp13
 70
     1
102
RTVSPropertyOp14
 70
     1
102
RTVSPropertyOp15
 70
     1
102
RTVSPropertyOp16
 70
     1
102
RTVSPropertyOp17
 70
     1
102
RTVSPropertyOp18
 70
     1
102
RTVSPropertyOp19
 70
     1
102
RTVSPropertyOp20
 70
     1
102
RTVSPropertyOp21
 70
     1
102
RTVSPropertyOp22
 70
     1
102
RTVSPropertyOp23
 70
     1
102
RTVSPropertyOp24
 70
     1
102
RTVSPropertyOp25
 70
     1
102
RTVSPropertyOp26
 70
     1
102
RTVSPropertyOp27
 70
     1
102
RTVSPropertyOp28
 70
     1
102
RTVSPropertyOp29
 70
     1
102
RTVSPropertyOp30
 70
     1
102
RTVSPropertyOp31
 70
     1
102
RTVSPropertyOp32
 70
     1
102
RTVSPropertyOp33
 70
     1
102
RTVSPropertyOp34
 70
     1
102
RTVSPropertyOp35
 70
     1
102
RTVSPropertyOp36
 70
     1
102
RTVSPropertyOp37
 70
     1
102
RTVSPropertyOp38
 70
     1
102
RTVSPropertyOp39
 70
     1
102
RTVSPropertyOp40
 70
     1
102
RTVSPropertyOp41
 70
     1
102
RTVSPropertyOp42
 70
     1
102
RTVSPropertyOp43
 70
     1
102
RTVSPropertyOp44
 70
     1
102
RTVSPropertyOp45
 70
     1
102
RTVSPropertyOp46
 70
     1
102
RTVSPropertyOp47
 70
     1
102
RTVSPropertyOp48
 70
     1
102
RTVSPropertyOp49
 70
     1
102
RTVSPropertyOp50
 70
     1
102
RTVSPropertyOp51
 70
     0
102
RTVSPropertyOp52
 70
     0
102
RTVSPropertyOp53
 70
     1
102
RTVSPropertyOp54
 70
     1
102
RTVSPropertyOp55
 70
     1
102
RTVSPropertyOp56
 70
     1
102
RTVSPropertyOp57
 70
     1
102
RTVSPropertyOp58
 70
     1
102
RTVSPropertyOp59
 70
     1
102
RTVSPropertyOp60
 70
     1
102
RTVSPropertyOp61
 70
     1
102
RTVSPropertyOp62
 70
     1
  0
XRECORD
  5
40C7
102
{ACAD_REACTORS
330
40C6
102
}
330
40C6
100
AcDbXrecord
280
     1
102
RTVSPost2010Prop28
280
     0
102
RTVSPost2010PropOp28
 70
     1
102
RTVSPost2010Prop29
280
     1
102
RTVSPost2010PropOp29
 70
     1
102
RTVSPost2010Prop30
280
     1
102
RTVSPost2010PropOp30
 70
     1
102
RTVSPost2010Prop31
280
     0
102
RTVSPost2010PropOp31
 70
     1
102
RTVSPost2010Prop32
280
     0
102
RTVSPost2010PropOp32
 70
     1
102
RTVSPost2010Prop33
280
     0
102
RTVSPost2010PropOp33
 70
     1
102
RTVSPost2010Prop34
280
     0
102
RTVSPost2010PropOp34
 70
     1
102
RTVSPost2010Prop35
280
     0
102
RTVSPost2010PropOp35
 70
     1
102
RTVSPost2010Prop36
280
     0
102
RTVSPost2010PropOp36
 70
     1
102
RTVSPost2010Prop37
 90
       50
102
RTVSPost2010PropOp37
 70
     1
102
RTVSPost2010Prop38
140
0.0
102
RTVSPost2010PropOp38
 70
     1
102
RTVSPost2010Prop39
140
1.0
102
RTVSPost2010PropOp39
 70
     1
102
RTVSPost2010Prop40
 90
        0
102
RTVSPost2010PropOp40
 70
     1
102
RTVSPost2010Prop41ColorIndex
 90
       18
102
RTVSPost2010Prop41ColorRGB
 90
        0
102
RTVSPost2010PropOp41
 70
     1
102
RTVSPost2010Prop42
 90
       50
102
RTVSPost2010PropOp42
 70
     1
102
RTVSPost2010Prop43
 90
        3
102
RTVSPost2010PropOp43
 70
     1
102
RTVSPost2010Prop44ColorIndex
 90
        5
102
RTVSPost2010Prop44ColorRGB
 90
      255
102
RTVSPost2010PropOp44
 70
     1
102
RTVSPost2010Prop45
280
     0
102
RTVSPost2010PropOp45
 70
     1
102
RTVSPost2010Prop46
 90
       50
102
RTVSPost2010PropOp46
 70
     1
102
RTVSPost2010Prop47
 90
       50
102
RTVSPost2010PropOp47
 70
     1
102
RTVSPost2010Prop48
 90
       50
102
RTVSPost2010PropOp48
 70
     1
102
RTVSPost2010Prop49
280
     0
102
RTVSPost2010PropOp49
 70
     1
102
RTVSPost2010Prop50
 90
       50
102
RTVSPost2010PropOp50
 70
     1
102
RTVSPost2010Prop51ColorIndex
 90
      256
102
RTVSPost2010Prop51ColorRGB
 90
-16777216
102
RTVSPost2010PropOp51
 70
     0
102
RTVSPost2010Prop52
140
1.0
102
RTVSPost2010PropOp52
 70
     0
102
RTVSPost2010Prop53
 90
        2
102
RTVSPost2010PropOp53
 70
     1
102
RTVSPost2010Prop54
  1
strokes_ogs.tif
102
RTVSPost2010PropOp54
 70
     1
102
RTVSPost2010Prop55
280
     0
102
RTVSPost2010PropOp55
 70
     1
102
RTVSPost2010Prop56
140
1.0
102
RTVSPost2010PropOp56
 70
     1
102
RTVSPost2010Prop57
140
1.0
102
RTVSPost2010PropOp57
 70
     1
102
RTVSPropertyOp0
 70
     1
102
RTVSPropertyOp1
 70
     1
102
RTVSPropertyOp2
 70
     1
102
RTVSPropertyOp3
 70
     1
102
RTVSPropertyOp4
 70
     1
102
RTVSPropertyOp5
 70
     1
102
RTVSPropertyOp6
 70
     1
102
RTVSPropertyOp7
 70
     1
102
RTVSPropertyOp8
 70
     1
102
RTVSPropertyOp9
 70
     1
102
RTVSPropertyOp10
 70
     1
102
RTVSPropertyOp11
 70
     1
102
RTVSPropertyOp12
 70
     1
102
RTVSPropertyOp13
 70
     1
102
RTVSPropertyOp14
 70
     1
102
RTVSPropertyOp15
 70
     1
102
RTVSPropertyOp16
 70
     1
102
RTVSPropertyOp17
 70
     1
102
RTVSPropertyOp18
 70
     1
102
RTVSPropertyOp19
 70
     1
102
RTVSPropertyOp20
 70
     1
102
RTVSPropertyOp21
 70
     1
102
RTVSPropertyOp22
 70
     1
102
RTVSPropertyOp23
 70
     1
102
RTVSPropertyOp24
 70
     1
102
RTVSPropertyOp25
 70
     1
102
RTVSPropertyOp26
 70
     1
102
RTVSPropertyOp27
 70
     1
102
RTVSPropertyOp28
 70
     1
102
RTVSPropertyOp29
 70
     1
102
RTVSPropertyOp30
 70
     1
102
RTVSPropertyOp31
 70
     1
102
RTVSPropertyOp32
 70
     1
102
RTVSPropertyOp33
 70
     1
102
RTVSPropertyOp34
 70
     1
102
RTVSPropertyOp35
 70
     1
102
RTVSPropertyOp36
 70
     1
102
RTVSPropertyOp37
 70
     1
102
RTVSPropertyOp38
 70
     1
102
RTVSPropertyOp39
 70
     1
102
RTVSPropertyOp40
 70
     1
102
RTVSPropertyOp41
 70
     1
102
RTVSPropertyOp42
 70
     1
102
RTVSPropertyOp43
 70
     1
102
RTVSPropertyOp44
 70
     1
102
RTVSPropertyOp45
 70
     1
102
RTVSPropertyOp46
 70
     1
102
RTVSPropertyOp47
 70
     1
102
RTVSPropertyOp48
 70
     1
102
RTVSPropertyOp49
 70
     1
102
RTVSPropertyOp50
 70
     1
102
RTVSPropertyOp51
 70
     0
102
RTVSPropertyOp52
 70
     0
102
RTVSPropertyOp53
 70
     1
102
RTVSPropertyOp54
 70
     1
102
RTVSPropertyOp55
 70
     1
102
RTVSPropertyOp56
 70
     1
102
RTVSPropertyOp57
 70
     1
102
RTVSPropertyOp58
 70
     1
102
RTVSPropertyOp59
 70
     1
102
RTVSPropertyOp60
 70
     1
102
RTVSPropertyOp61
 70
     1
102
RTVSPropertyOp62
 70
     1
  0
XRECORD
  5
40CF
102
{ACAD_REACTORS
330
40CE
102
}
330
40CE
100
AcDbXrecord
280
     1
102
RTVSPost2010Prop28
280
     0
102
RTVSPost2010PropOp28
 70
     1
102
RTVSPost2010Prop29
280
     1
102
RTVSPost2010PropOp29
 70
     1
102
RTVSPost2010Prop30
280
     1
102
RTVSPost2010PropOp30
 70
     1
102
RTVSPost2010Prop31
280
     0
102
RTVSPost2010PropOp31
 70
     1
102
RTVSPost2010Prop32
280
     0
102
RTVSPost2010PropOp32
 70
     1
102
RTVSPost2010Prop33
280
     0
102
RTVSPost2010PropOp33
 70
     1
102
RTVSPost2010Prop34
280
     0
102
RTVSPost2010PropOp34
 70
     1
102
RTVSPost2010Prop35
280
     0
102
RTVSPost2010PropOp35
 70
     1
102
RTVSPost2010Prop36
280
     0
102
RTVSPost2010PropOp36
 70
     1
102
RTVSPost2010Prop37
 90
       50
102
RTVSPost2010PropOp37
 70
     1
102
RTVSPost2010Prop38
140
0.0
102
RTVSPost2010PropOp38
 70
     1
102
RTVSPost2010Prop39
140
1.0
102
RTVSPost2010PropOp39
 70
     1
102
RTVSPost2010Prop40
 90
        0
102
RTVSPost2010PropOp40
 70
     1
102
RTVSPost2010Prop41ColorIndex
 90
       18
102
RTVSPost2010Prop41ColorRGB
 90
        0
102
RTVSPost2010PropOp41
 70
     1
102
RTVSPost2010Prop42
 90
       50
102
RTVSPost2010PropOp42
 70
     1
102
RTVSPost2010Prop43
 90
        3
102
RTVSPost2010PropOp43
 70
     1
102
RTVSPost2010Prop44ColorIndex
 90
        5
102
RTVSPost2010Prop44ColorRGB
 90
      255
102
RTVSPost2010PropOp44
 70
     1
102
RTVSPost2010Prop45
280
     0
102
RTVSPost2010PropOp45
 70
     1
102
RTVSPost2010Prop46
 90
       50
102
RTVSPost2010PropOp46
 70
     1
102
RTVSPost2010Prop47
 90
       50
102
RTVSPost2010PropOp47
 70
     1
102
RTVSPost2010Prop48
 90
       50
102
RTVSPost2010PropOp48
 70
     1
102
RTVSPost2010Prop49
280
     0
102
RTVSPost2010PropOp49
 70
     1
102
RTVSPost2010Prop50
 90
       50
102
RTVSPost2010PropOp50
 70
     1
102
RTVSPost2010Prop51ColorIndex
 90
      256
102
RTVSPost2010Prop51ColorRGB
 90
-16777216
102
RTVSPost2010PropOp51
 70
     0
102
RTVSPost2010Prop52
140
1.0
102
RTVSPost2010PropOp52
 70
     0
102
RTVSPost2010Prop53
 90
        2
102
RTVSPost2010PropOp53
 70
     1
102
RTVSPost2010Prop54
  1
strokes_ogs.tif
102
RTVSPost2010PropOp54
 70
     1
102
RTVSPost2010Prop55
280
     0
102
RTVSPost2010PropOp55
 70
     1
102
RTVSPost2010Prop56
140
1.0
102
RTVSPost2010PropOp56
 70
     1
102
RTVSPost2010Prop57
140
1.0
102
RTVSPost2010PropOp57
 70
     1
102
RTVSPropertyOp0
 70
     1
102
RTVSPropertyOp1
 70
     1
102
RTVSPropertyOp2
 70
     1
102
RTVSPropertyOp3
 70
     1
102
RTVSPropertyOp4
 70
     1
102
RTVSPropertyOp5
 70
     1
102
RTVSPropertyOp6
 70
     1
102
RTVSPropertyOp7
 70
     1
102
RTVSPropertyOp8
 70
     1
102
RTVSPropertyOp9
 70
     1
102
RTVSPropertyOp10
 70
     1
102
RTVSPropertyOp11
 70
     1
102
RTVSPropertyOp12
 70
     1
102
RTVSPropertyOp13
 70
     1
102
RTVSPropertyOp14
 70
     1
102
RTVSPropertyOp15
 70
     1
102
RTVSPropertyOp16
 70
     1
102
RTVSPropertyOp17
 70
     1
102
RTVSPropertyOp18
 70
     1
102
RTVSPropertyOp19
 70
     1
102
RTVSPropertyOp20
 70
     1
102
RTVSPropertyOp21
 70
     1
102
RTVSPropertyOp22
 70
     1
102
RTVSPropertyOp23
 70
     1
102
RTVSPropertyOp24
 70
     1
102
RTVSPropertyOp25
 70
     1
102
RTVSPropertyOp26
 70
     1
102
RTVSPropertyOp27
 70
     1
102
RTVSPropertyOp28
 70
     1
102
RTVSPropertyOp29
 70
     1
102
RTVSPropertyOp30
 70
     1
102
RTVSPropertyOp31
 70
     1
102
RTVSPropertyOp32
 70
     1
102
RTVSPropertyOp33
 70
     1
102
RTVSPropertyOp34
 70
     1
102
RTVSPropertyOp35
 70
     1
102
RTVSPropertyOp36
 70
     1
102
RTVSPropertyOp37
 70
     1
102
RTVSPropertyOp38
 70
     1
102
RTVSPropertyOp39
 70
     1
102
RTVSPropertyOp40
 70
     1
102
RTVSPropertyOp41
 70
     1
102
RTVSPropertyOp42
 70
     1
102
RTVSPropertyOp43
 70
     1
102
RTVSPropertyOp44
 70
     1
102
RTVSPropertyOp45
 70
     1
102
RTVSPropertyOp46
 70
     1
102
RTVSPropertyOp47
 70
     1
102
RTVSPropertyOp48
 70
     1
102
RTVSPropertyOp49
 70
     1
102
RTVSPropertyOp50
 70
     1
102
RTVSPropertyOp51
 70
     0
102
RTVSPropertyOp52
 70
     0
102
RTVSPropertyOp53
 70
     1
102
RTVSPropertyOp54
 70
     1
102
RTVSPropertyOp55
 70
     1
102
RTVSPropertyOp56
 70
     1
102
RTVSPropertyOp57
 70
     1
102
RTVSPropertyOp58
 70
     1
102
RTVSPropertyOp59
 70
     1
102
RTVSPropertyOp60
 70
     1
102
RTVSPropertyOp61
 70
     1
102
RTVSPropertyOp62
 70
     1
  0
XRECORD
  5
40E1
102
{ACAD_REACTORS
330
40E0
102
}
330
40E0
100
AcDbXrecord
280
     1
102
RTVSPost2010Prop28
280
     0
102
RTVSPost2010PropOp28
 70
     1
102
RTVSPost2010Prop29
280
     1
102
RTVSPost2010PropOp29
 70
     1
102
RTVSPost2010Prop30
280
     1
102
RTVSPost2010PropOp30
 70
     1
102
RTVSPost2010Prop31
280
     0
102
RTVSPost2010PropOp31
 70
     1
102
RTVSPost2010Prop32
280
     0
102
RTVSPost2010PropOp32
 70
     1
102
RTVSPost2010Prop33
280
     0
102
RTVSPost2010PropOp33
 70
     1
102
RTVSPost2010Prop34
280
     0
102
RTVSPost2010PropOp34
 70
     1
102
RTVSPost2010Prop35
280
     0
102
RTVSPost2010PropOp35
 70
     1
102
RTVSPost2010Prop36
280
     0
102
RTVSPost2010PropOp36
 70
     1
102
RTVSPost2010Prop37
 90
       50
102
RTVSPost2010PropOp37
 70
     1
102
RTVSPost2010Prop38
140
0.0
102
RTVSPost2010PropOp38
 70
     1
102
RTVSPost2010Prop39
140
1.0
102
RTVSPost2010PropOp39
 70
     1
102
RTVSPost2010Prop40
 90
        0
102
RTVSPost2010PropOp40
 70
     1
102
RTVSPost2010Prop41ColorIndex
 90
       18
102
RTVSPost2010Prop41ColorRGB
 90
        0
102
RTVSPost2010PropOp41
 70
     1
102
RTVSPost2010Prop42
 90
       50
102
RTVSPost2010PropOp42
 70
     1
102
RTVSPost2010Prop43
 90
        3
102
RTVSPost2010PropOp43
 70
     1
102
RTVSPost2010Prop44ColorIndex
 90
        5
102
RTVSPost2010Prop44ColorRGB
 90
      255
102
RTVSPost2010PropOp44
 70
     1
102
RTVSPost2010Prop45
280
     0
102
RTVSPost2010PropOp45
 70
     1
102
RTVSPost2010Prop46
 90
       50
102
RTVSPost2010PropOp46
 70
     1
102
RTVSPost2010Prop47
 90
       50
102
RTVSPost2010PropOp47
 70
     1
102
RTVSPost2010Prop48
 90
       50
102
RTVSPost2010PropOp48
 70
     1
102
RTVSPost2010Prop49
280
     0
102
RTVSPost2010PropOp49
 70
     1
102
RTVSPost2010Prop50
 90
       50
102
RTVSPost2010PropOp50
 70
     1
102
RTVSPost2010Prop51ColorIndex
 90
      256
102
RTVSPost2010Prop51ColorRGB
 90
-16777216
102
RTVSPost2010PropOp51
 70
     0
102
RTVSPost2010Prop52
140
1.0
102
RTVSPost2010PropOp52
 70
     0
102
RTVSPost2010Prop53
 90
        2
102
RTVSPost2010PropOp53
 70
     1
102
RTVSPost2010Prop54
  1
strokes_ogs.tif
102
RTVSPost2010PropOp54
 70
     1
102
RTVSPost2010Prop55
280
     0
102
RTVSPost2010PropOp55
 70
     1
102
RTVSPost2010Prop56
140
1.0
102
RTVSPost2010PropOp56
 70
     1
102
RTVSPost2010Prop57
140
1.0
102
RTVSPost2010PropOp57
 70
     1
102
RTVSPropertyOp0
 70
     0
102
RTVSPropertyOp1
 70
     0
102
RTVSPropertyOp2
 70
     0
102
RTVSPropertyOp3
 70
     0
102
RTVSPropertyOp4
 70
     0
102
RTVSPropertyOp5
 70
     0
102
RTVSPropertyOp6
 70
     0
102
RTVSPropertyOp7
 70
     0
102
RTVSPropertyOp8
 70
     0
102
RTVSPropertyOp9
 70
     0
102
RTVSPropertyOp10
 70
     0
102
RTVSPropertyOp11
 70
     0
102
RTVSPropertyOp12
 70
     0
102
RTVSPropertyOp13
 70
     0
102
RTVSPropertyOp14
 70
     2
102
RTVSPropertyOp15
 70
     0
102
RTVSPropertyOp16
 70
     0
102
RTVSPropertyOp17
 70
     0
102
RTVSPropertyOp18
 70
     0
102
RTVSPropertyOp19
 70
     0
102
RTVSPropertyOp20
 70
     0
102
RTVSPropertyOp21
 70
     0
102
RTVSPropertyOp22
 70
     0
102
RTVSPropertyOp23
 70
     0
102
RTVSPropertyOp24
 70
     0
102
RTVSPropertyOp25
 70
     0
102
RTVSPropertyOp26
 70
     0
102
RTVSPropertyOp27
 70
     0
102
RTVSPropertyOp28
 70
     1
102
RTVSPropertyOp29
 70
     1
102
RTVSPropertyOp30
 70
     1
102
RTVSPropertyOp31
 70
     1
102
RTVSPropertyOp32
 70
     1
102
RTVSPropertyOp33
 70
     1
102
RTVSPropertyOp34
 70
     1
102
RTVSPropertyOp35
 70
     1
102
RTVSPropertyOp36
 70
     1
102
RTVSPropertyOp37
 70
     1
102
RTVSPropertyOp38
 70
     1
102
RTVSPropertyOp39
 70
     1
102
RTVSPropertyOp40
 70
     1
102
RTVSPropertyOp41
 70
     1
102
RTVSPropertyOp42
 70
     1
102
RTVSPropertyOp43
 70
     1
102
RTVSPropertyOp44
 70
     1
102
RTVSPropertyOp45
 70
     1
102
RTVSPropertyOp46
 70
     1
102
RTVSPropertyOp47
 70
     1
102
RTVSPropertyOp48
 70
     1
102
RTVSPropertyOp49
 70
     1
102
RTVSPropertyOp50
 70
     1
102
RTVSPropertyOp51
 70
     0
102
RTVSPropertyOp52
 70
     0
102
RTVSPropertyOp53
 70
     1
102
RTVSPropertyOp54
 70
     1
102
RTVSPropertyOp55
 70
     1
102
RTVSPropertyOp56
 70
     1
102
RTVSPropertyOp57
 70
     1
102
RTVSPropertyOp58
 70
     1
102
RTVSPropertyOp59
 70
     1
102
RTVSPropertyOp60
 70
     1
102
RTVSPropertyOp61
 70
     1
102
RTVSPropertyOp62
 70
     1
  0
XRECORD
  5
40DB
102
{ACAD_REACTORS
330
40DA
102
}
330
40DA
100
AcDbXrecord
280
     1
102
RTVSPost2010Prop28
280
     0
102
RTVSPost2010PropOp28
 70
     1
102
RTVSPost2010Prop29
280
     1
102
RTVSPost2010PropOp29
 70
     1
102
RTVSPost2010Prop30
280
     1
102
RTVSPost2010PropOp30
 70
     1
102
RTVSPost2010Prop31
280
     0
102
RTVSPost2010PropOp31
 70
     1
102
RTVSPost2010Prop32
280
     0
102
RTVSPost2010PropOp32
 70
     1
102
RTVSPost2010Prop33
280
     0
102
RTVSPost2010PropOp33
 70
     1
102
RTVSPost2010Prop34
280
     0
102
RTVSPost2010PropOp34
 70
     1
102
RTVSPost2010Prop35
280
     0
102
RTVSPost2010PropOp35
 70
     1
102
RTVSPost2010Prop36
280
     0
102
RTVSPost2010PropOp36
 70
     1
102
RTVSPost2010Prop37
 90
       50
102
RTVSPost2010PropOp37
 70
     1
102
RTVSPost2010Prop38
140
0.0
102
RTVSPost2010PropOp38
 70
     1
102
RTVSPost2010Prop39
140
1.0
102
RTVSPost2010PropOp39
 70
     1
102
RTVSPost2010Prop40
 90
        0
102
RTVSPost2010PropOp40
 70
     1
102
RTVSPost2010Prop41ColorIndex
 90
       18
102
RTVSPost2010Prop41ColorRGB
 90
        0
102
RTVSPost2010PropOp41
 70
     1
102
RTVSPost2010Prop42
 90
       50
102
RTVSPost2010PropOp42
 70
     1
102
RTVSPost2010Prop43
 90
        3
102
RTVSPost2010PropOp43
 70
     1
102
RTVSPost2010Prop44ColorIndex
 90
        5
102
RTVSPost2010Prop44ColorRGB
 90
      255
102
RTVSPost2010PropOp44
 70
     1
102
RTVSPost2010Prop45
280
     0
102
RTVSPost2010PropOp45
 70
     1
102
RTVSPost2010Prop46
 90
       50
102
RTVSPost2010PropOp46
 70
     1
102
RTVSPost2010Prop47
 90
       50
102
RTVSPost2010PropOp47
 70
     1
102
RTVSPost2010Prop48
 90
       50
102
RTVSPost2010PropOp48
 70
     1
102
RTVSPost2010Prop49
280
     0
102
RTVSPost2010PropOp49
 70
     1
102
RTVSPost2010Prop50
 90
       50
102
RTVSPost2010PropOp50
 70
     1
102
RTVSPost2010Prop51ColorIndex
 90
      256
102
RTVSPost2010Prop51ColorRGB
 90
-16777216
102
RTVSPost2010PropOp51
 70
     0
102
RTVSPost2010Prop52
140
1.0
102
RTVSPost2010PropOp52
 70
     0
102
RTVSPost2010Prop53
 90
        2
102
RTVSPost2010PropOp53
 70
     1
102
RTVSPost2010Prop54
  1
strokes_ogs.tif
102
RTVSPost2010PropOp54
 70
     1
102
RTVSPost2010Prop55
280
     0
102
RTVSPost2010PropOp55
 70
     1
102
RTVSPost2010Prop56
140
1.0
102
RTVSPost2010PropOp56
 70
     1
102
RTVSPost2010Prop57
140
1.0
102
RTVSPost2010PropOp57
 70
     1
102
RTVSPropertyOp0
 70
     1
102
RTVSPropertyOp1
 70
     1
102
RTVSPropertyOp2
 70
     1
102
RTVSPropertyOp3
 70
     1
102
RTVSPropertyOp4
 70
     1
102
RTVSPropertyOp5
 70
     1
102
RTVSPropertyOp6
 70
     1
102
RTVSPropertyOp7
 70
     1
102
RTVSPropertyOp8
 70
     1
102
RTVSPropertyOp9
 70
     1
102
RTVSPropertyOp10
 70
     1
102
RTVSPropertyOp11
 70
     1
102
RTVSPropertyOp12
 70
     1
102
RTVSPropertyOp13
 70
     1
102
RTVSPropertyOp14
 70
     1
102
RTVSPropertyOp15
 70
     1
102
RTVSPropertyOp16
 70
     1
102
RTVSPropertyOp17
 70
     1
102
RTVSPropertyOp18
 70
     1
102
RTVSPropertyOp19
 70
     1
102
RTVSPropertyOp20
 70
     1
102
RTVSPropertyOp21
 70
     1
102
RTVSPropertyOp22
 70
     1
102
RTVSPropertyOp23
 70
     1
102
RTVSPropertyOp24
 70
     1
102
RTVSPropertyOp25
 70
     1
102
RTVSPropertyOp26
 70
     1
102
RTVSPropertyOp27
 70
     1
102
RTVSPropertyOp28
 70
     1
102
RTVSPropertyOp29
 70
     1
102
RTVSPropertyOp30
 70
     1
102
RTVSPropertyOp31
 70
     1
102
RTVSPropertyOp32
 70
     1
102
RTVSPropertyOp33
 70
     1
102
RTVSPropertyOp34
 70
     1
102
RTVSPropertyOp35
 70
     1
102
RTVSPropertyOp36
 70
     1
102
RTVSPropertyOp37
 70
     1
102
RTVSPropertyOp38
 70
     1
102
RTVSPropertyOp39
 70
     1
102
RTVSPropertyOp40
 70
     1
102
RTVSPropertyOp41
 70
     1
102
RTVSPropertyOp42
 70
     1
102
RTVSPropertyOp43
 70
     1
102
RTVSPropertyOp44
 70
     1
102
RTVSPropertyOp45
 70
     1
102
RTVSPropertyOp46
 70
     1
102
RTVSPropertyOp47
 70
     1
102
RTVSPropertyOp48
 70
     1
102
RTVSPropertyOp49
 70
     1
102
RTVSPropertyOp50
 70
     1
102
RTVSPropertyOp51
 70
     0
102
RTVSPropertyOp52
 70
     0
102
RTVSPropertyOp53
 70
     1
102
RTVSPropertyOp54
 70
     1
102
RTVSPropertyOp55
 70
     1
102
RTVSPropertyOp56
 70
     1
102
RTVSPropertyOp57
 70
     1
102
RTVSPropertyOp58
 70
     1
102
RTVSPropertyOp59
 70
     1
102
RTVSPropertyOp60
 70
     1
102
RTVSPropertyOp61
 70
     1
102
RTVSPropertyOp62
 70
     1
  0
XRECORD
  5
40E3
102
{ACAD_REACTORS
330
40E2
102
}
330
40E2
100
AcDbXrecord
280
     1
102
RTVSPost2010Prop28
280
     0
102
RTVSPost2010PropOp28
 70
     1
102
RTVSPost2010Prop29
280
     1
102
RTVSPost2010PropOp29
 70
     1
102
RTVSPost2010Prop30
280
     1
102
RTVSPost2010PropOp30
 70
     1
102
RTVSPost2010Prop31
280
     0
102
RTVSPost2010PropOp31
 70
     1
102
RTVSPost2010Prop32
280
     0
102
RTVSPost2010PropOp32
 70
     1
102
RTVSPost2010Prop33
280
     0
102
RTVSPost2010PropOp33
 70
     1
102
RTVSPost2010Prop34
280
     0
102
RTVSPost2010PropOp34
 70
     1
102
RTVSPost2010Prop35
280
     0
102
RTVSPost2010PropOp35
 70
     1
102
RTVSPost2010Prop36
280
     0
102
RTVSPost2010PropOp36
 70
     1
102
RTVSPost2010Prop37
 90
       50
102
RTVSPost2010PropOp37
 70
     1
102
RTVSPost2010Prop38
140
0.0
102
RTVSPost2010PropOp38
 70
     1
102
RTVSPost2010Prop39
140
1.0
102
RTVSPost2010PropOp39
 70
     1
102
RTVSPost2010Prop40
 90
        0
102
RTVSPost2010PropOp40
 70
     1
102
RTVSPost2010Prop41ColorIndex
 90
       18
102
RTVSPost2010Prop41ColorRGB
 90
        0
102
RTVSPost2010PropOp41
 70
     1
102
RTVSPost2010Prop42
 90
       50
102
RTVSPost2010PropOp42
 70
     1
102
RTVSPost2010Prop43
 90
        3
102
RTVSPost2010PropOp43
 70
     1
102
RTVSPost2010Prop44ColorIndex
 90
        5
102
RTVSPost2010Prop44ColorRGB
 90
      255
102
RTVSPost2010PropOp44
 70
     1
102
RTVSPost2010Prop45
280
     0
102
RTVSPost2010PropOp45
 70
     1
102
RTVSPost2010Prop46
 90
       50
102
RTVSPost2010PropOp46
 70
     1
102
RTVSPost2010Prop47
 90
       50
102
RTVSPost2010PropOp47
 70
     1
102
RTVSPost2010Prop48
 90
       50
102
RTVSPost2010PropOp48
 70
     1
102
RTVSPost2010Prop49
280
     0
102
RTVSPost2010PropOp49
 70
     1
102
RTVSPost2010Prop50
 90
       50
102
RTVSPost2010PropOp50
 70
     1
102
RTVSPost2010Prop51ColorIndex
 90
      256
102
RTVSPost2010Prop51ColorRGB
 90
-16777216
102
RTVSPost2010PropOp51
 70
     0
102
RTVSPost2010Prop52
140
1.0
102
RTVSPost2010PropOp52
 70
     0
102
RTVSPost2010Prop53
 90
        2
102
RTVSPost2010PropOp53
 70
     1
102
RTVSPost2010Prop54
  1
strokes_ogs.tif
102
RTVSPost2010PropOp54
 70
     1
102
RTVSPost2010Prop55
280
     0
102
RTVSPost2010PropOp55
 70
     1
102
RTVSPost2010Prop56
140
1.0
102
RTVSPost2010PropOp56
 70
     1
102
RTVSPost2010Prop57
140
1.0
102
RTVSPost2010PropOp57
 70
     1
102
RTVSPropertyOp0
 70
     0
102
RTVSPropertyOp1
 70
     0
102
RTVSPropertyOp2
 70
     0
102
RTVSPropertyOp3
 70
     0
102
RTVSPropertyOp4
 70
     0
102
RTVSPropertyOp5
 70
     0
102
RTVSPropertyOp6
 70
     0
102
RTVSPropertyOp7
 70
     0
102
RTVSPropertyOp8
 70
     0
102
RTVSPropertyOp9
 70
     0
102
RTVSPropertyOp10
 70
     0
102
RTVSPropertyOp11
 70
     0
102
RTVSPropertyOp12
 70
     0
102
RTVSPropertyOp13
 70
     0
102
RTVSPropertyOp14
 70
     2
102
RTVSPropertyOp15
 70
     0
102
RTVSPropertyOp16
 70
     0
102
RTVSPropertyOp17
 70
     0
102
RTVSPropertyOp18
 70
     0
102
RTVSPropertyOp19
 70
     0
102
RTVSPropertyOp20
 70
     0
102
RTVSPropertyOp21
 70
     0
102
RTVSPropertyOp22
 70
     0
102
RTVSPropertyOp23
 70
     0
102
RTVSPropertyOp24
 70
     0
102
RTVSPropertyOp25
 70
     0
102
RTVSPropertyOp26
 70
     0
102
RTVSPropertyOp27
 70
     0
102
RTVSPropertyOp28
 70
     1
102
RTVSPropertyOp29
 70
     1
102
RTVSPropertyOp30
 70
     1
102
RTVSPropertyOp31
 70
     1
102
RTVSPropertyOp32
 70
     1
102
RTVSPropertyOp33
 70
     1
102
RTVSPropertyOp34
 70
     1
102
RTVSPropertyOp35
 70
     1
102
RTVSPropertyOp36
 70
     1
102
RTVSPropertyOp37
 70
     1
102
RTVSPropertyOp38
 70
     1
102
RTVSPropertyOp39
 70
     1
102
RTVSPropertyOp40
 70
     1
102
RTVSPropertyOp41
 70
     1
102
RTVSPropertyOp42
 70
     1
102
RTVSPropertyOp43
 70
     1
102
RTVSPropertyOp44
 70
     1
102
RTVSPropertyOp45
 70
     1
102
RTVSPropertyOp46
 70
     1
102
RTVSPropertyOp47
 70
     1
102
RTVSPropertyOp48
 70
     1
102
RTVSPropertyOp49
 70
     1
102
RTVSPropertyOp50
 70
     1
102
RTVSPropertyOp51
 70
     0
102
RTVSPropertyOp52
 70
     0
102
RTVSPropertyOp53
 70
     1
102
RTVSPropertyOp54
 70
     1
102
RTVSPropertyOp55
 70
     1
102
RTVSPropertyOp56
 70
     1
102
RTVSPropertyOp57
 70
     1
102
RTVSPropertyOp58
 70
     1
102
RTVSPropertyOp59
 70
     1
102
RTVSPropertyOp60
 70
     1
102
RTVSPropertyOp61
 70
     1
102
RTVSPropertyOp62
 70
     1
  0
XRECORD
  5
40D3
102
{ACAD_REACTORS
330
40D2
102
}
330
40D2
100
AcDbXrecord
280
     1
102
RTVSPost2010Prop28
280
     0
102
RTVSPost2010PropOp28
 70
     1
102
RTVSPost2010Prop29
280
     1
102
RTVSPost2010PropOp29
 70
     1
102
RTVSPost2010Prop30
280
     1
102
RTVSPost2010PropOp30
 70
     1
102
RTVSPost2010Prop31
280
     0
102
RTVSPost2010PropOp31
 70
     1
102
RTVSPost2010Prop32
280
     0
102
RTVSPost2010PropOp32
 70
     1
102
RTVSPost2010Prop33
280
     0
102
RTVSPost2010PropOp33
 70
     1
102
RTVSPost2010Prop34
280
     0
102
RTVSPost2010PropOp34
 70
     1
102
RTVSPost2010Prop35
280
     0
102
RTVSPost2010PropOp35
 70
     1
102
RTVSPost2010Prop36
280
     0
102
RTVSPost2010PropOp36
 70
     1
102
RTVSPost2010Prop37
 90
       50
102
RTVSPost2010PropOp37
 70
     1
102
RTVSPost2010Prop38
140
0.0
102
RTVSPost2010PropOp38
 70
     1
102
RTVSPost2010Prop39
140
1.0
102
RTVSPost2010PropOp39
 70
     1
102
RTVSPost2010Prop40
 90
        0
102
RTVSPost2010PropOp40
 70
     1
102
RTVSPost2010Prop41ColorIndex
 90
       18
102
RTVSPost2010Prop41ColorRGB
 90
        0
102
RTVSPost2010PropOp41
 70
     1
102
RTVSPost2010Prop42
 90
       50
102
RTVSPost2010PropOp42
 70
     1
102
RTVSPost2010Prop43
 90
        3
102
RTVSPost2010PropOp43
 70
     1
102
RTVSPost2010Prop44ColorIndex
 90
        5
102
RTVSPost2010Prop44ColorRGB
 90
      255
102
RTVSPost2010PropOp44
 70
     1
102
RTVSPost2010Prop45
280
     0
102
RTVSPost2010PropOp45
 70
     1
102
RTVSPost2010Prop46
 90
       50
102
RTVSPost2010PropOp46
 70
     1
102
RTVSPost2010Prop47
 90
       50
102
RTVSPost2010PropOp47
 70
     1
102
RTVSPost2010Prop48
 90
       50
102
RTVSPost2010PropOp48
 70
     1
102
RTVSPost2010Prop49
280
     0
102
RTVSPost2010PropOp49
 70
     1
102
RTVSPost2010Prop50
 90
       50
102
RTVSPost2010PropOp50
 70
     1
102
RTVSPost2010Prop51ColorIndex
 90
      256
102
RTVSPost2010Prop51ColorRGB
 90
-16777216
102
RTVSPost2010PropOp51
 70
     0
102
RTVSPost2010Prop52
140
1.0
102
RTVSPost2010PropOp52
 70
     0
102
RTVSPost2010Prop53
 90
        2
102
RTVSPost2010PropOp53
 70
     1
102
RTVSPost2010Prop54
  1
strokes_ogs.tif
102
RTVSPost2010PropOp54
 70
     1
102
RTVSPost2010Prop55
280
     0
102
RTVSPost2010PropOp55
 70
     1
102
RTVSPost2010Prop56
140
1.0
102
RTVSPost2010PropOp56
 70
     1
102
RTVSPost2010Prop57
140
1.0
102
RTVSPost2010PropOp57
 70
     1
102
RTVSPropertyOp0
 70
     1
102
RTVSPropertyOp1
 70
     1
102
RTVSPropertyOp2
 70
     1
102
RTVSPropertyOp3
 70
     1
102
RTVSPropertyOp4
 70
     1
102
RTVSPropertyOp5
 70
     1
102
RTVSPropertyOp6
 70
     1
102
RTVSPropertyOp7
 70
     1
102
RTVSPropertyOp8
 70
     1
102
RTVSPropertyOp9
 70
     1
102
RTVSPropertyOp10
 70
     1
102
RTVSPropertyOp11
 70
     1
102
RTVSPropertyOp12
 70
     1
102
RTVSPropertyOp13
 70
     1
102
RTVSPropertyOp14
 70
     1
102
RTVSPropertyOp15
 70
     1
102
RTVSPropertyOp16
 70
     1
102
RTVSPropertyOp17
 70
     1
102
RTVSPropertyOp18
 70
     1
102
RTVSPropertyOp19
 70
     1
102
RTVSPropertyOp20
 70
     1
102
RTVSPropertyOp21
 70
     1
102
RTVSPropertyOp22
 70
     1
102
RTVSPropertyOp23
 70
     1
102
RTVSPropertyOp24
 70
     1
102
RTVSPropertyOp25
 70
     1
102
RTVSPropertyOp26
 70
     1
102
RTVSPropertyOp27
 70
     1
102
RTVSPropertyOp28
 70
     1
102
RTVSPropertyOp29
 70
     1
102
RTVSPropertyOp30
 70
     1
102
RTVSPropertyOp31
 70
     1
102
RTVSPropertyOp32
 70
     1
102
RTVSPropertyOp33
 70
     1
102
RTVSPropertyOp34
 70
     1
102
RTVSPropertyOp35
 70
     1
102
RTVSPropertyOp36
 70
     1
102
RTVSPropertyOp37
 70
     1
102
RTVSPropertyOp38
 70
     1
102
RTVSPropertyOp39
 70
     1
102
RTVSPropertyOp40
 70
     1
102
RTVSPropertyOp41
 70
     1
102
RTVSPropertyOp42
 70
     1
102
RTVSPropertyOp43
 70
     1
102
RTVSPropertyOp44
 70
     1
102
RTVSPropertyOp45
 70
     1
102
RTVSPropertyOp46
 70
     1
102
RTVSPropertyOp47
 70
     1
102
RTVSPropertyOp48
 70
     1
102
RTVSPropertyOp49
 70
     1
102
RTVSPropertyOp50
 70
     1
102
RTVSPropertyOp51
 70
     0
102
RTVSPropertyOp52
 70
     0
102
RTVSPropertyOp53
 70
     1
102
RTVSPropertyOp54
 70
     1
102
RTVSPropertyOp55
 70
     1
102
RTVSPropertyOp56
 70
     1
102
RTVSPropertyOp57
 70
     1
102
RTVSPropertyOp58
 70
     1
102
RTVSPropertyOp59
 70
     1
102
RTVSPropertyOp60
 70
     1
102
RTVSPropertyOp61
 70
     1
102
RTVSPropertyOp62
 70
     1
  0
XRECORD
  5
40EF
102
{ACAD_REACTORS
330
40EE
102
}
330
40EE
100
AcDbXrecord
280
     1
102
RTVSPost2010Prop28
280
     0
102
RTVSPost2010PropOp28
 70
     1
102
RTVSPost2010Prop29
280
     1
102
RTVSPost2010PropOp29
 70
     1
102
RTVSPost2010Prop30
280
     1
102
RTVSPost2010PropOp30
 70
     1
102
RTVSPost2010Prop31
280
     0
102
RTVSPost2010PropOp31
 70
     1
102
RTVSPost2010Prop32
280
     0
102
RTVSPost2010PropOp32
 70
     1
102
RTVSPost2010Prop33
280
     0
102
RTVSPost2010PropOp33
 70
     1
102
RTVSPost2010Prop34
280
     0
102
RTVSPost2010PropOp34
 70
     1
102
RTVSPost2010Prop35
280
     0
102
RTVSPost2010PropOp35
 70
     1
102
RTVSPost2010Prop36
280
     0
102
RTVSPost2010PropOp36
 70
     1
102
RTVSPost2010Prop37
 90
       50
102
RTVSPost2010PropOp37
 70
     1
102
RTVSPost2010Prop38
140
0.0
102
RTVSPost2010PropOp38
 70
     1
102
RTVSPost2010Prop39
140
1.0
102
RTVSPost2010PropOp39
 70
     1
102
RTVSPost2010Prop40
 90
        0
102
RTVSPost2010PropOp40
 70
     1
102
RTVSPost2010Prop41ColorIndex
 90
       18
102
RTVSPost2010Prop41ColorRGB
 90
        0
102
RTVSPost2010PropOp41
 70
     1
102
RTVSPost2010Prop42
 90
       50
102
RTVSPost2010PropOp42
 70
     1
102
RTVSPost2010Prop43
 90
        3
102
RTVSPost2010PropOp43
 70
     1
102
RTVSPost2010Prop44ColorIndex
 90
        5
102
RTVSPost2010Prop44ColorRGB
 90
      255
102
RTVSPost2010PropOp44
 70
     1
102
RTVSPost2010Prop45
280
     0
102
RTVSPost2010PropOp45
 70
     1
102
RTVSPost2010Prop46
 90
       50
102
RTVSPost2010PropOp46
 70
     1
102
RTVSPost2010Prop47
 90
       50
102
RTVSPost2010PropOp47
 70
     1
102
RTVSPost2010Prop48
 90
       50
102
RTVSPost2010PropOp48
 70
     1
102
RTVSPost2010Prop49
280
     0
102
RTVSPost2010PropOp49
 70
     1
102
RTVSPost2010Prop50
 90
       50
102
RTVSPost2010PropOp50
 70
     1
102
RTVSPost2010Prop51ColorIndex
 90
      256
102
RTVSPost2010Prop51ColorRGB
 90
-16777216
102
RTVSPost2010PropOp51
 70
     0
102
RTVSPost2010Prop52
140
1.0
102
RTVSPost2010PropOp52
 70
     0
102
RTVSPost2010Prop53
 90
        2
102
RTVSPost2010PropOp53
 70
     1
102
RTVSPost2010Prop54
  1
strokes_ogs.tif
102
RTVSPost2010PropOp54
 70
     1
102
RTVSPost2010Prop55
280
     0
102
RTVSPost2010PropOp55
 70
     1
102
RTVSPost2010Prop56
140
1.0
102
RTVSPost2010PropOp56
 70
     1
102
RTVSPost2010Prop57
140
1.0
102
RTVSPost2010PropOp57
 70
     1
102
RTVSPropertyOp0
 70
     1
102
RTVSPropertyOp1
 70
     1
102
RTVSPropertyOp2
 70
     1
102
RTVSPropertyOp3
 70
     1
102
RTVSPropertyOp4
 70
     1
102
RTVSPropertyOp5
 70
     1
102
RTVSPropertyOp6
 70
     1
102
RTVSPropertyOp7
 70
     1
102
RTVSPropertyOp8
 70
     1
102
RTVSPropertyOp9
 70
     1
102
RTVSPropertyOp10
 70
     1
102
RTVSPropertyOp11
 70
     1
102
RTVSPropertyOp12
 70
     1
102
RTVSPropertyOp13
 70
     1
102
RTVSPropertyOp14
 70
     1
102
RTVSPropertyOp15
 70
     1
102
RTVSPropertyOp16
 70
     1
102
RTVSPropertyOp17
 70
     1
102
RTVSPropertyOp18
 70
     1
102
RTVSPropertyOp19
 70
     1
102
RTVSPropertyOp20
 70
     1
102
RTVSPropertyOp21
 70
     1
102
RTVSPropertyOp22
 70
     1
102
RTVSPropertyOp23
 70
     1
102
RTVSPropertyOp24
 70
     1
102
RTVSPropertyOp25
 70
     1
102
RTVSPropertyOp26
 70
     1
102
RTVSPropertyOp27
 70
     1
102
RTVSPropertyOp28
 70
     1
102
RTVSPropertyOp29
 70
     1
102
RTVSPropertyOp30
 70
     1
102
RTVSPropertyOp31
 70
     1
102
RTVSPropertyOp32
 70
     1
102
RTVSPropertyOp33
 70
     1
102
RTVSPropertyOp34
 70
     1
102
RTVSPropertyOp35
 70
     1
102
RTVSPropertyOp36
 70
     1
102
RTVSPropertyOp37
 70
     1
102
RTVSPropertyOp38
 70
     1
102
RTVSPropertyOp39
 70
     1
102
RTVSPropertyOp40
 70
     1
102
RTVSPropertyOp41
 70
     1
102
RTVSPropertyOp42
 70
     1
102
RTVSPropertyOp43
 70
     1
102
RTVSPropertyOp44
 70
     1
102
RTVSPropertyOp45
 70
     1
102
RTVSPropertyOp46
 70
     1
102
RTVSPropertyOp47
 70
     1
102
RTVSPropertyOp48
 70
     1
102
RTVSPropertyOp49
 70
     1
102
RTVSPropertyOp50
 70
     1
102
RTVSPropertyOp51
 70
     0
102
RTVSPropertyOp52
 70
     0
102
RTVSPropertyOp53
 70
     1
102
RTVSPropertyOp54
 70
     1
102
RTVSPropertyOp55
 70
     1
102
RTVSPropertyOp56
 70
     1
102
RTVSPropertyOp57
 70
     1
102
RTVSPropertyOp58
 70
     1
102
RTVSPropertyOp59
 70
     1
102
RTVSPropertyOp60
 70
     1
102
RTVSPropertyOp61
 70
     1
102
RTVSPropertyOp62
 70
     1
  0
XRECORD
  5
40ED
102
{ACAD_REACTORS
330
40EC
102
}
330
40EC
100
AcDbXrecord
280
     1
102
RTVSPost2010Prop28
280
     0
102
RTVSPost2010PropOp28
 70
     1
102
RTVSPost2010Prop29
280
     1
102
RTVSPost2010PropOp29
 70
     1
102
RTVSPost2010Prop30
280
     1
102
RTVSPost2010PropOp30
 70
     1
102
RTVSPost2010Prop31
280
     0
102
RTVSPost2010PropOp31
 70
     1
102
RTVSPost2010Prop32
280
     0
102
RTVSPost2010PropOp32
 70
     1
102
RTVSPost2010Prop33
280
     0
102
RTVSPost2010PropOp33
 70
     1
102
RTVSPost2010Prop34
280
     0
102
RTVSPost2010PropOp34
 70
     1
102
RTVSPost2010Prop35
280
     0
102
RTVSPost2010PropOp35
 70
     1
102
RTVSPost2010Prop36
280
     0
102
RTVSPost2010PropOp36
 70
     1
102
RTVSPost2010Prop37
 90
       50
102
RTVSPost2010PropOp37
 70
     1
102
RTVSPost2010Prop38
140
0.0
102
RTVSPost2010PropOp38
 70
     1
102
RTVSPost2010Prop39
140
1.0
102
RTVSPost2010PropOp39
 70
     1
102
RTVSPost2010Prop40
 90
        0
102
RTVSPost2010PropOp40
 70
     1
102
RTVSPost2010Prop41ColorIndex
 90
       18
102
RTVSPost2010Prop41ColorRGB
 90
        0
102
RTVSPost2010PropOp41
 70
     1
102
RTVSPost2010Prop42
 90
       50
102
RTVSPost2010PropOp42
 70
     1
102
RTVSPost2010Prop43
 90
        3
102
RTVSPost2010PropOp43
 70
     1
102
RTVSPost2010Prop44ColorIndex
 90
        5
102
RTVSPost2010Prop44ColorRGB
 90
      255
102
RTVSPost2010PropOp44
 70
     1
102
RTVSPost2010Prop45
280
     0
102
RTVSPost2010PropOp45
 70
     1
102
RTVSPost2010Prop46
 90
       50
102
RTVSPost2010PropOp46
 70
     1
102
RTVSPost2010Prop47
 90
       50
102
RTVSPost2010PropOp47
 70
     1
102
RTVSPost2010Prop48
 90
       50
102
RTVSPost2010PropOp48
 70
     1
102
RTVSPost2010Prop49
280
     0
102
RTVSPost2010PropOp49
 70
     1
102
RTVSPost2010Prop50
 90
       50
102
RTVSPost2010PropOp50
 70
     1
102
RTVSPost2010Prop51ColorIndex
 90
      256
102
RTVSPost2010Prop51ColorRGB
 90
-16777216
102
RTVSPost2010PropOp51
 70
     0
102
RTVSPost2010Prop52
140
1.0
102
RTVSPost2010PropOp52
 70
     0
102
RTVSPost2010Prop53
 90
        2
102
RTVSPost2010PropOp53
 70
     1
102
RTVSPost2010Prop54
  1
strokes_ogs.tif
102
RTVSPost2010PropOp54
 70
     1
102
RTVSPost2010Prop55
280
     0
102
RTVSPost2010PropOp55
 70
     1
102
RTVSPost2010Prop56
140
1.0
102
RTVSPost2010PropOp56
 70
     1
102
RTVSPost2010Prop57
140
1.0
102
RTVSPost2010PropOp57
 70
     1
102
RTVSPropertyOp0
 70
     1
102
RTVSPropertyOp1
 70
     1
102
RTVSPropertyOp2
 70
     1
102
RTVSPropertyOp3
 70
     1
102
RTVSPropertyOp4
 70
     1
102
RTVSPropertyOp5
 70
     1
102
RTVSPropertyOp6
 70
     1
102
RTVSPropertyOp7
 70
     1
102
RTVSPropertyOp8
 70
     1
102
RTVSPropertyOp9
 70
     1
102
RTVSPropertyOp10
 70
     1
102
RTVSPropertyOp11
 70
     1
102
RTVSPropertyOp12
 70
     1
102
RTVSPropertyOp13
 70
     1
102
RTVSPropertyOp14
 70
     1
102
RTVSPropertyOp15
 70
     1
102
RTVSPropertyOp16
 70
     1
102
RTVSPropertyOp17
 70
     1
102
RTVSPropertyOp18
 70
     1
102
RTVSPropertyOp19
 70
     1
102
RTVSPropertyOp20
 70
     1
102
RTVSPropertyOp21
 70
     1
102
RTVSPropertyOp22
 70
     1
102
RTVSPropertyOp23
 70
     1
102
RTVSPropertyOp24
 70
     1
102
RTVSPropertyOp25
 70
     1
102
RTVSPropertyOp26
 70
     1
102
RTVSPropertyOp27
 70
     1
102
RTVSPropertyOp28
 70
     1
102
RTVSPropertyOp29
 70
     1
102
RTVSPropertyOp30
 70
     1
102
RTVSPropertyOp31
 70
     1
102
RTVSPropertyOp32
 70
     1
102
RTVSPropertyOp33
 70
     1
102
RTVSPropertyOp34
 70
     1
102
RTVSPropertyOp35
 70
     1
102
RTVSPropertyOp36
 70
     1
102
RTVSPropertyOp37
 70
     1
102
RTVSPropertyOp38
 70
     1
102
RTVSPropertyOp39
 70
     1
102
RTVSPropertyOp40
 70
     1
102
RTVSPropertyOp41
 70
     1
102
RTVSPropertyOp42
 70
     1
102
RTVSPropertyOp43
 70
     1
102
RTVSPropertyOp44
 70
     1
102
RTVSPropertyOp45
 70
     1
102
RTVSPropertyOp46
 70
     1
102
RTVSPropertyOp47
 70
     1
102
RTVSPropertyOp48
 70
     1
102
RTVSPropertyOp49
 70
     1
102
RTVSPropertyOp50
 70
     1
102
RTVSPropertyOp51
 70
     0
102
RTVSPropertyOp52
 70
     0
102
RTVSPropertyOp53
 70
     1
102
RTVSPropertyOp54
 70
     1
102
RTVSPropertyOp55
 70
     1
102
RTVSPropertyOp56
 70
     1
102
RTVSPropertyOp57
 70
     1
102
RTVSPropertyOp58
 70
     1
102
RTVSPropertyOp59
 70
     1
102
RTVSPropertyOp60
 70
     1
102
RTVSPropertyOp61
 70
     1
102
RTVSPropertyOp62
 70
     1
  0
XRECORD
  5
40E7
102
{ACAD_REACTORS
330
40E6
102
}
330
40E6
100
AcDbXrecord
280
     1
102
RTVSPost2010Prop28
280
     0
102
RTVSPost2010PropOp28
 70
     1
102
RTVSPost2010Prop29
280
     1
102
RTVSPost2010PropOp29
 70
     1
102
RTVSPost2010Prop30
280
     1
102
RTVSPost2010PropOp30
 70
     1
102
RTVSPost2010Prop31
280
     0
102
RTVSPost2010PropOp31
 70
     1
102
RTVSPost2010Prop32
280
     0
102
RTVSPost2010PropOp32
 70
     1
102
RTVSPost2010Prop33
280
     0
102
RTVSPost2010PropOp33
 70
     1
102
RTVSPost2010Prop34
280
     0
102
RTVSPost2010PropOp34
 70
     1
102
RTVSPost2010Prop35
280
     0
102
RTVSPost2010PropOp35
 70
     1
102
RTVSPost2010Prop36
280
     0
102
RTVSPost2010PropOp36
 70
     1
102
RTVSPost2010Prop37
 90
       50
102
RTVSPost2010PropOp37
 70
     1
102
RTVSPost2010Prop38
140
0.0
102
RTVSPost2010PropOp38
 70
     1
102
RTVSPost2010Prop39
140
1.0
102
RTVSPost2010PropOp39
 70
     1
102
RTVSPost2010Prop40
 90
        0
102
RTVSPost2010PropOp40
 70
     1
102
RTVSPost2010Prop41ColorIndex
 90
       18
102
RTVSPost2010Prop41ColorRGB
 90
        0
102
RTVSPost2010PropOp41
 70
     1
102
RTVSPost2010Prop42
 90
       50
102
RTVSPost2010PropOp42
 70
     1
102
RTVSPost2010Prop43
 90
        3
102
RTVSPost2010PropOp43
 70
     1
102
RTVSPost2010Prop44ColorIndex
 90
        5
102
RTVSPost2010Prop44ColorRGB
 90
      255
102
RTVSPost2010PropOp44
 70
     1
102
RTVSPost2010Prop45
280
     0
102
RTVSPost2010PropOp45
 70
     1
102
RTVSPost2010Prop46
 90
       50
102
RTVSPost2010PropOp46
 70
     1
102
RTVSPost2010Prop47
 90
       50
102
RTVSPost2010PropOp47
 70
     1
102
RTVSPost2010Prop48
 90
       50
102
RTVSPost2010PropOp48
 70
     1
102
RTVSPost2010Prop49
280
     0
102
RTVSPost2010PropOp49
 70
     1
102
RTVSPost2010Prop50
 90
       50
102
RTVSPost2010PropOp50
 70
     1
102
RTVSPost2010Prop51ColorIndex
 90
      256
102
RTVSPost2010Prop51ColorRGB
 90
-16777216
102
RTVSPost2010PropOp51
 70
     0
102
RTVSPost2010Prop52
140
1.0
102
RTVSPost2010PropOp52
 70
     0
102
RTVSPost2010Prop53
 90
        2
102
RTVSPost2010PropOp53
 70
     1
102
RTVSPost2010Prop54
  1
strokes_ogs.tif
102
RTVSPost2010PropOp54
 70
     1
102
RTVSPost2010Prop55
280
     0
102
RTVSPost2010PropOp55
 70
     1
102
RTVSPost2010Prop56
140
1.0
102
RTVSPost2010PropOp56
 70
     1
102
RTVSPost2010Prop57
140
1.0
102
RTVSPost2010PropOp57
 70
     1
102
RTVSPropertyOp0
 70
     1
102
RTVSPropertyOp1
 70
     1
102
RTVSPropertyOp2
 70
     1
102
RTVSPropertyOp3
 70
     1
102
RTVSPropertyOp4
 70
     1
102
RTVSPropertyOp5
 70
     1
102
RTVSPropertyOp6
 70
     1
102
RTVSPropertyOp7
 70
     1
102
RTVSPropertyOp8
 70
     1
102
RTVSPropertyOp9
 70
     1
102
RTVSPropertyOp10
 70
     1
102
RTVSPropertyOp11
 70
     1
102
RTVSPropertyOp12
 70
     1
102
RTVSPropertyOp13
 70
     1
102
RTVSPropertyOp14
 70
     1
102
RTVSPropertyOp15
 70
     1
102
RTVSPropertyOp16
 70
     1
102
RTVSPropertyOp17
 70
     1
102
RTVSPropertyOp18
 70
     1
102
RTVSPropertyOp19
 70
     1
102
RTVSPropertyOp20
 70
     1
102
RTVSPropertyOp21
 70
     1
102
RTVSPropertyOp22
 70
     1
102
RTVSPropertyOp23
 70
     1
102
RTVSPropertyOp24
 70
     1
102
RTVSPropertyOp25
 70
     1
102
RTVSPropertyOp26
 70
     1
102
RTVSPropertyOp27
 70
     1
102
RTVSPropertyOp28
 70
     1
102
RTVSPropertyOp29
 70
     1
102
RTVSPropertyOp30
 70
     1
102
RTVSPropertyOp31
 70
     1
102
RTVSPropertyOp32
 70
     1
102
RTVSPropertyOp33
 70
     1
102
RTVSPropertyOp34
 70
     1
102
RTVSPropertyOp35
 70
     1
102
RTVSPropertyOp36
 70
     1
102
RTVSPropertyOp37
 70
     1
102
RTVSPropertyOp38
 70
     1
102
RTVSPropertyOp39
 70
     1
102
RTVSPropertyOp40
 70
     1
102
RTVSPropertyOp41
 70
     1
102
RTVSPropertyOp42
 70
     1
102
RTVSPropertyOp43
 70
     1
102
RTVSPropertyOp44
 70
     1
102
RTVSPropertyOp45
 70
     1
102
RTVSPropertyOp46
 70
     1
102
RTVSPropertyOp47
 70
     1
102
RTVSPropertyOp48
 70
     1
102
RTVSPropertyOp49
 70
     1
102
RTVSPropertyOp50
 70
     1
102
RTVSPropertyOp51
 70
     0
102
RTVSPropertyOp52
 70
     0
102
RTVSPropertyOp53
 70
     1
102
RTVSPropertyOp54
 70
     1
102
RTVSPropertyOp55
 70
     1
102
RTVSPropertyOp56
 70
     1
102
RTVSPropertyOp57
 70
     1
102
RTVSPropertyOp58
 70
     1
102
RTVSPropertyOp59
 70
     1
102
RTVSPropertyOp60
 70
     1
102
RTVSPropertyOp61
 70
     1
102
RTVSPropertyOp62
 70
     1
  0
XRECORD
  5
40E9
102
{ACAD_REACTORS
330
40E8
102
}
330
40E8
100
AcDbXrecord
280
     1
102
RTVSPost2010Prop28
280
     0
102
RTVSPost2010PropOp28
 70
     1
102
RTVSPost2010Prop29
280
     1
102
RTVSPost2010PropOp29
 70
     1
102
RTVSPost2010Prop30
280
     1
102
RTVSPost2010PropOp30
 70
     1
102
RTVSPost2010Prop31
280
     0
102
RTVSPost2010PropOp31
 70
     1
102
RTVSPost2010Prop32
280
     0
102
RTVSPost2010PropOp32
 70
     1
102
RTVSPost2010Prop33
280
     0
102
RTVSPost2010PropOp33
 70
     1
102
RTVSPost2010Prop34
280
     0
102
RTVSPost2010PropOp34
 70
     1
102
RTVSPost2010Prop35
280
     0
102
RTVSPost2010PropOp35
 70
     1
102
RTVSPost2010Prop36
280
     0
102
RTVSPost2010PropOp36
 70
     1
102
RTVSPost2010Prop37
 90
       50
102
RTVSPost2010PropOp37
 70
     1
102
RTVSPost2010Prop38
140
0.0
102
RTVSPost2010PropOp38
 70
     1
102
RTVSPost2010Prop39
140
1.0
102
RTVSPost2010PropOp39
 70
     1
102
RTVSPost2010Prop40
 90
        0
102
RTVSPost2010PropOp40
 70
     1
102
RTVSPost2010Prop41ColorIndex
 90
       18
102
RTVSPost2010Prop41ColorRGB
 90
        0
102
RTVSPost2010PropOp41
 70
     1
102
RTVSPost2010Prop42
 90
       50
102
RTVSPost2010PropOp42
 70
     1
102
RTVSPost2010Prop43
 90
        3
102
RTVSPost2010PropOp43
 70
     1
102
RTVSPost2010Prop44ColorIndex
 90
        5
102
RTVSPost2010Prop44ColorRGB
 90
      255
102
RTVSPost2010PropOp44
 70
     1
102
RTVSPost2010Prop45
280
     0
102
RTVSPost2010PropOp45
 70
     1
102
RTVSPost2010Prop46
 90
       50
102
RTVSPost2010PropOp46
 70
     1
102
RTVSPost2010Prop47
 90
       50
102
RTVSPost2010PropOp47
 70
     1
102
RTVSPost2010Prop48
 90
       50
102
RTVSPost2010PropOp48
 70
     1
102
RTVSPost2010Prop49
280
     0
102
RTVSPost2010PropOp49
 70
     1
102
RTVSPost2010Prop50
 90
       50
102
RTVSPost2010PropOp50
 70
     1
102
RTVSPost2010Prop51ColorIndex
 90
      256
102
RTVSPost2010Prop51ColorRGB
 90
-16777216
102
RTVSPost2010PropOp51
 70
     0
102
RTVSPost2010Prop52
140
1.0
102
RTVSPost2010PropOp52
 70
     0
102
RTVSPost2010Prop53
 90
        2
102
RTVSPost2010PropOp53
 70
     1
102
RTVSPost2010Prop54
  1
strokes_ogs.tif
102
RTVSPost2010PropOp54
 70
     1
102
RTVSPost2010Prop55
280
     0
102
RTVSPost2010PropOp55
 70
     1
102
RTVSPost2010Prop56
140
1.0
102
RTVSPost2010PropOp56
 70
     1
102
RTVSPost2010Prop57
140
1.0
102
RTVSPost2010PropOp57
 70
     1
102
RTVSPropertyOp0
 70
     1
102
RTVSPropertyOp1
 70
     1
102
RTVSPropertyOp2
 70
     1
102
RTVSPropertyOp3
 70
     1
102
RTVSPropertyOp4
 70
     1
102
RTVSPropertyOp5
 70
     1
102
RTVSPropertyOp6
 70
     1
102
RTVSPropertyOp7
 70
     1
102
RTVSPropertyOp8
 70
     1
102
RTVSPropertyOp9
 70
     1
102
RTVSPropertyOp10
 70
     1
102
RTVSPropertyOp11
 70
     1
102
RTVSPropertyOp12
 70
     1
102
RTVSPropertyOp13
 70
     1
102
RTVSPropertyOp14
 70
     1
102
RTVSPropertyOp15
 70
     1
102
RTVSPropertyOp16
 70
     1
102
RTVSPropertyOp17
 70
     1
102
RTVSPropertyOp18
 70
     1
102
RTVSPropertyOp19
 70
     1
102
RTVSPropertyOp20
 70
     1
102
RTVSPropertyOp21
 70
     1
102
RTVSPropertyOp22
 70
     1
102
RTVSPropertyOp23
 70
     1
102
RTVSPropertyOp24
 70
     1
102
RTVSPropertyOp25
 70
     1
102
RTVSPropertyOp26
 70
     1
102
RTVSPropertyOp27
 70
     1
102
RTVSPropertyOp28
 70
     1
102
RTVSPropertyOp29
 70
     1
102
RTVSPropertyOp30
 70
     1
102
RTVSPropertyOp31
 70
     1
102
RTVSPropertyOp32
 70
     1
102
RTVSPropertyOp33
 70
     1
102
RTVSPropertyOp34
 70
     1
102
RTVSPropertyOp35
 70
     1
102
RTVSPropertyOp36
 70
     1
102
RTVSPropertyOp37
 70
     1
102
RTVSPropertyOp38
 70
     1
102
RTVSPropertyOp39
 70
     1
102
RTVSPropertyOp40
 70
     1
102
RTVSPropertyOp41
 70
     1
102
RTVSPropertyOp42
 70
     1
102
RTVSPropertyOp43
 70
     1
102
RTVSPropertyOp44
 70
     1
102
RTVSPropertyOp45
 70
     1
102
RTVSPropertyOp46
 70
     1
102
RTVSPropertyOp47
 70
     1
102
RTVSPropertyOp48
 70
     1
102
RTVSPropertyOp49
 70
     1
102
RTVSPropertyOp50
 70
     1
102
RTVSPropertyOp51
 70
     0
102
RTVSPropertyOp52
 70
     0
102
RTVSPropertyOp53
 70
     1
102
RTVSPropertyOp54
 70
     1
102
RTVSPropertyOp55
 70
     1
102
RTVSPropertyOp56
 70
     1
102
RTVSPropertyOp57
 70
     1
102
RTVSPropertyOp58
 70
     1
102
RTVSPropertyOp59
 70
     1
102
RTVSPropertyOp60
 70
     1
102
RTVSPropertyOp61
 70
     1
102
RTVSPropertyOp62
 70
     1
  0
XRECORD
  5
40D9
102
{ACAD_REACTORS
330
40D8
102
}
330
40D8
100
AcDbXrecord
280
     1
102
RTVSPost2010Prop28
280
     0
102
RTVSPost2010PropOp28
 70
     1
102
RTVSPost2010Prop29
280
     1
102
RTVSPost2010PropOp29
 70
     1
102
RTVSPost2010Prop30
280
     1
102
RTVSPost2010PropOp30
 70
     1
102
RTVSPost2010Prop31
280
     0
102
RTVSPost2010PropOp31
 70
     1
102
RTVSPost2010Prop32
280
     0
102
RTVSPost2010PropOp32
 70
     1
102
RTVSPost2010Prop33
280
     0
102
RTVSPost2010PropOp33
 70
     1
102
RTVSPost2010Prop34
280
     0
102
RTVSPost2010PropOp34
 70
     1
102
RTVSPost2010Prop35
280
     0
102
RTVSPost2010PropOp35
 70
     1
102
RTVSPost2010Prop36
280
     0
102
RTVSPost2010PropOp36
 70
     1
102
RTVSPost2010Prop37
 90
       50
102
RTVSPost2010PropOp37
 70
     1
102
RTVSPost2010Prop38
140
0.0
102
RTVSPost2010PropOp38
 70
     1
102
RTVSPost2010Prop39
140
1.0
102
RTVSPost2010PropOp39
 70
     1
102
RTVSPost2010Prop40
 90
        0
102
RTVSPost2010PropOp40
 70
     1
102
RTVSPost2010Prop41ColorIndex
 90
       18
102
RTVSPost2010Prop41ColorRGB
 90
        0
102
RTVSPost2010PropOp41
 70
     1
102
RTVSPost2010Prop42
 90
       50
102
RTVSPost2010PropOp42
 70
     1
102
RTVSPost2010Prop43
 90
        3
102
RTVSPost2010PropOp43
 70
     1
102
RTVSPost2010Prop44ColorIndex
 90
        5
102
RTVSPost2010Prop44ColorRGB
 90
      255
102
RTVSPost2010PropOp44
 70
     1
102
RTVSPost2010Prop45
280
     0
102
RTVSPost2010PropOp45
 70
     1
102
RTVSPost2010Prop46
 90
       50
102
RTVSPost2010PropOp46
 70
     1
102
RTVSPost2010Prop47
 90
       50
102
RTVSPost2010PropOp47
 70
     1
102
RTVSPost2010Prop48
 90
       50
102
RTVSPost2010PropOp48
 70
     1
102
RTVSPost2010Prop49
280
     0
102
RTVSPost2010PropOp49
 70
     1
102
RTVSPost2010Prop50
 90
       50
102
RTVSPost2010PropOp50
 70
     1
102
RTVSPost2010Prop51ColorIndex
 90
      256
102
RTVSPost2010Prop51ColorRGB
 90
-16777216
102
RTVSPost2010PropOp51
 70
     0
102
RTVSPost2010Prop52
140
1.0
102
RTVSPost2010PropOp52
 70
     0
102
RTVSPost2010Prop53
 90
        2
102
RTVSPost2010PropOp53
 70
     1
102
RTVSPost2010Prop54
  1
strokes_ogs.tif
102
RTVSPost2010PropOp54
 70
     1
102
RTVSPost2010Prop55
280
     0
102
RTVSPost2010PropOp55
 70
     1
102
RTVSPost2010Prop56
140
1.0
102
RTVSPost2010PropOp56
 70
     1
102
RTVSPost2010Prop57
140
1.0
102
RTVSPost2010PropOp57
 70
     1
102
RTVSPropertyOp0
 70
     1
102
RTVSPropertyOp1
 70
     1
102
RTVSPropertyOp2
 70
     1
102
RTVSPropertyOp3
 70
     1
102
RTVSPropertyOp4
 70
     1
102
RTVSPropertyOp5
 70
     1
102
RTVSPropertyOp6
 70
     1
102
RTVSPropertyOp7
 70
     1
102
RTVSPropertyOp8
 70
     1
102
RTVSPropertyOp9
 70
     1
102
RTVSPropertyOp10
 70
     1
102
RTVSPropertyOp11
 70
     1
102
RTVSPropertyOp12
 70
     1
102
RTVSPropertyOp13
 70
     1
102
RTVSPropertyOp14
 70
     1
102
RTVSPropertyOp15
 70
     1
102
RTVSPropertyOp16
 70
     1
102
RTVSPropertyOp17
 70
     1
102
RTVSPropertyOp18
 70
     1
102
RTVSPropertyOp19
 70
     1
102
RTVSPropertyOp20
 70
     1
102
RTVSPropertyOp21
 70
     1
102
RTVSPropertyOp22
 70
     1
102
RTVSPropertyOp23
 70
     1
102
RTVSPropertyOp24
 70
     1
102
RTVSPropertyOp25
 70
     1
102
RTVSPropertyOp26
 70
     1
102
RTVSPropertyOp27
 70
     1
102
RTVSPropertyOp28
 70
     1
102
RTVSPropertyOp29
 70
     1
102
RTVSPropertyOp30
 70
     1
102
RTVSPropertyOp31
 70
     1
102
RTVSPropertyOp32
 70
     1
102
RTVSPropertyOp33
 70
     1
102
RTVSPropertyOp34
 70
     1
102
RTVSPropertyOp35
 70
     1
102
RTVSPropertyOp36
 70
     1
102
RTVSPropertyOp37
 70
     1
102
RTVSPropertyOp38
 70
     1
102
RTVSPropertyOp39
 70
     1
102
RTVSPropertyOp40
 70
     1
102
RTVSPropertyOp41
 70
     1
102
RTVSPropertyOp42
 70
     1
102
RTVSPropertyOp43
 70
     1
102
RTVSPropertyOp44
 70
     1
102
RTVSPropertyOp45
 70
     1
102
RTVSPropertyOp46
 70
     1
102
RTVSPropertyOp47
 70
     1
102
RTVSPropertyOp48
 70
     1
102
RTVSPropertyOp49
 70
     1
102
RTVSPropertyOp50
 70
     1
102
RTVSPropertyOp51
 70
     0
102
RTVSPropertyOp52
 70
     0
102
RTVSPropertyOp53
 70
     1
102
RTVSPropertyOp54
 70
     1
102
RTVSPropertyOp55
 70
     1
102
RTVSPropertyOp56
 70
     1
102
RTVSPropertyOp57
 70
     1
102
RTVSPropertyOp58
 70
     1
102
RTVSPropertyOp59
 70
     1
102
RTVSPropertyOp60
 70
     1
102
RTVSPropertyOp61
 70
     1
102
RTVSPropertyOp62
 70
     1
  0
XRECORD
  5
40CD
102
{ACAD_REACTORS
330
40CC
102
}
330
40CC
100
AcDbXrecord
280
     1
102
RTVSPost2010Prop28
280
     0
102
RTVSPost2010PropOp28
 70
     1
102
RTVSPost2010Prop29
280
     1
102
RTVSPost2010PropOp29
 70
     1
102
RTVSPost2010Prop30
280
     1
102
RTVSPost2010PropOp30
 70
     1
102
RTVSPost2010Prop31
280
     0
102
RTVSPost2010PropOp31
 70
     1
102
RTVSPost2010Prop32
280
     0
102
RTVSPost2010PropOp32
 70
     1
102
RTVSPost2010Prop33
280
     0
102
RTVSPost2010PropOp33
 70
     1
102
RTVSPost2010Prop34
280
     0
102
RTVSPost2010PropOp34
 70
     1
102
RTVSPost2010Prop35
280
     0
102
RTVSPost2010PropOp35
 70
     1
102
RTVSPost2010Prop36
280
     0
102
RTVSPost2010PropOp36
 70
     1
102
RTVSPost2010Prop37
 90
       50
102
RTVSPost2010PropOp37
 70
     1
102
RTVSPost2010Prop38
140
0.0
102
RTVSPost2010PropOp38
 70
     1
102
RTVSPost2010Prop39
140
1.0
102
RTVSPost2010PropOp39
 70
     1
102
RTVSPost2010Prop40
 90
        0
102
RTVSPost2010PropOp40
 70
     1
102
RTVSPost2010Prop41ColorIndex
 90
       18
102
RTVSPost2010Prop41ColorRGB
 90
        0
102
RTVSPost2010PropOp41
 70
     1
102
RTVSPost2010Prop42
 90
       50
102
RTVSPost2010PropOp42
 70
     1
102
RTVSPost2010Prop43
 90
        3
102
RTVSPost2010PropOp43
 70
     1
102
RTVSPost2010Prop44ColorIndex
 90
        5
102
RTVSPost2010Prop44ColorRGB
 90
      255
102
RTVSPost2010PropOp44
 70
     1
102
RTVSPost2010Prop45
280
     0
102
RTVSPost2010PropOp45
 70
     1
102
RTVSPost2010Prop46
 90
       50
102
RTVSPost2010PropOp46
 70
     1
102
RTVSPost2010Prop47
 90
       50
102
RTVSPost2010PropOp47
 70
     1
102
RTVSPost2010Prop48
 90
       50
102
RTVSPost2010PropOp48
 70
     1
102
RTVSPost2010Prop49
280
     0
102
RTVSPost2010PropOp49
 70
     1
102
RTVSPost2010Prop50
 90
       50
102
RTVSPost2010PropOp50
 70
     1
102
RTVSPost2010Prop51ColorIndex
 90
      256
102
RTVSPost2010Prop51ColorRGB
 90
-16777216
102
RTVSPost2010PropOp51
 70
     0
102
RTVSPost2010Prop52
140
1.0
102
RTVSPost2010PropOp52
 70
     0
102
RTVSPost2010Prop53
 90
        2
102
RTVSPost2010PropOp53
 70
     1
102
RTVSPost2010Prop54
  1
strokes_ogs.tif
102
RTVSPost2010PropOp54
 70
     1
102
RTVSPost2010Prop55
280
     0
102
RTVSPost2010PropOp55
 70
     1
102
RTVSPost2010Prop56
140
1.0
102
RTVSPost2010PropOp56
 70
     1
102
RTVSPost2010Prop57
140
1.0
102
RTVSPost2010PropOp57
 70
     1
102
RTVSPropertyOp0
 70
     1
102
RTVSPropertyOp1
 70
     1
102
RTVSPropertyOp2
 70
     1
102
RTVSPropertyOp3
 70
     1
102
RTVSPropertyOp4
 70
     1
102
RTVSPropertyOp5
 70
     1
102
RTVSPropertyOp6
 70
     1
102
RTVSPropertyOp7
 70
     1
102
RTVSPropertyOp8
 70
     1
102
RTVSPropertyOp9
 70
     1
102
RTVSPropertyOp10
 70
     1
102
RTVSPropertyOp11
 70
     1
102
RTVSPropertyOp12
 70
     1
102
RTVSPropertyOp13
 70
     1
102
RTVSPropertyOp14
 70
     1
102
RTVSPropertyOp15
 70
     1
102
RTVSPropertyOp16
 70
     1
102
RTVSPropertyOp17
 70
     1
102
RTVSPropertyOp18
 70
     1
102
RTVSPropertyOp19
 70
     1
102
RTVSPropertyOp20
 70
     1
102
RTVSPropertyOp21
 70
     1
102
RTVSPropertyOp22
 70
     1
102
RTVSPropertyOp23
 70
     1
102
RTVSPropertyOp24
 70
     1
102
RTVSPropertyOp25
 70
     1
102
RTVSPropertyOp26
 70
     1
102
RTVSPropertyOp27
 70
     1
102
RTVSPropertyOp28
 70
     1
102
RTVSPropertyOp29
 70
     1
102
RTVSPropertyOp30
 70
     1
102
RTVSPropertyOp31
 70
     1
102
RTVSPropertyOp32
 70
     1
102
RTVSPropertyOp33
 70
     1
102
RTVSPropertyOp34
 70
     1
102
RTVSPropertyOp35
 70
     1
102
RTVSPropertyOp36
 70
     1
102
RTVSPropertyOp37
 70
     1
102
RTVSPropertyOp38
 70
     1
102
RTVSPropertyOp39
 70
     1
102
RTVSPropertyOp40
 70
     1
102
RTVSPropertyOp41
 70
     1
102
RTVSPropertyOp42
 70
     1
102
RTVSPropertyOp43
 70
     1
102
RTVSPropertyOp44
 70
     1
102
RTVSPropertyOp45
 70
     1
102
RTVSPropertyOp46
 70
     1
102
RTVSPropertyOp47
 70
     1
102
RTVSPropertyOp48
 70
     1
102
RTVSPropertyOp49
 70
     1
102
RTVSPropertyOp50
 70
     1
102
RTVSPropertyOp51
 70
     0
102
RTVSPropertyOp52
 70
     0
102
RTVSPropertyOp53
 70
     1
102
RTVSPropertyOp54
 70
     1
102
RTVSPropertyOp55
 70
     1
102
RTVSPropertyOp56
 70
     1
102
RTVSPropertyOp57
 70
     1
102
RTVSPropertyOp58
 70
     1
102
RTVSPropertyOp59
 70
     1
102
RTVSPropertyOp60
 70
     1
102
RTVSPropertyOp61
 70
     1
102
RTVSPropertyOp62
 70
     1
  0
XRECORD
  5
40EB
102
{ACAD_REACTORS
330
40EA
102
}
330
40EA
100
AcDbXrecord
280
     1
102
RTVSPost2010Prop28
280
     0
102
RTVSPost2010PropOp28
 70
     1
102
RTVSPost2010Prop29
280
     1
102
RTVSPost2010PropOp29
 70
     1
102
RTVSPost2010Prop30
280
     1
102
RTVSPost2010PropOp30
 70
     1
102
RTVSPost2010Prop31
280
     0
102
RTVSPost2010PropOp31
 70
     1
102
RTVSPost2010Prop32
280
     0
102
RTVSPost2010PropOp32
 70
     1
102
RTVSPost2010Prop33
280
     0
102
RTVSPost2010PropOp33
 70
     1
102
RTVSPost2010Prop34
280
     0
102
RTVSPost2010PropOp34
 70
     1
102
RTVSPost2010Prop35
280
     0
102
RTVSPost2010PropOp35
 70
     1
102
RTVSPost2010Prop36
280
     0
102
RTVSPost2010PropOp36
 70
     1
102
RTVSPost2010Prop37
 90
       50
102
RTVSPost2010PropOp37
 70
     1
102
RTVSPost2010Prop38
140
0.0
102
RTVSPost2010PropOp38
 70
     1
102
RTVSPost2010Prop39
140
1.0
102
RTVSPost2010PropOp39
 70
     1
102
RTVSPost2010Prop40
 90
        0
102
RTVSPost2010PropOp40
 70
     1
102
RTVSPost2010Prop41ColorIndex
 90
       18
102
RTVSPost2010Prop41ColorRGB
 90
        0
102
RTVSPost2010PropOp41
 70
     1
102
RTVSPost2010Prop42
 90
       50
102
RTVSPost2010PropOp42
 70
     1
102
RTVSPost2010Prop43
 90
        3
102
RTVSPost2010PropOp43
 70
     1
102
RTVSPost2010Prop44ColorIndex
 90
        5
102
RTVSPost2010Prop44ColorRGB
 90
      255
102
RTVSPost2010PropOp44
 70
     1
102
RTVSPost2010Prop45
280
     0
102
RTVSPost2010PropOp45
 70
     1
102
RTVSPost2010Prop46
 90
       50
102
RTVSPost2010PropOp46
 70
     1
102
RTVSPost2010Prop47
 90
       50
102
RTVSPost2010PropOp47
 70
     1
102
RTVSPost2010Prop48
 90
       50
102
RTVSPost2010PropOp48
 70
     1
102
RTVSPost2010Prop49
280
     0
102
RTVSPost2010PropOp49
 70
     1
102
RTVSPost2010Prop50
 90
       50
102
RTVSPost2010PropOp50
 70
     1
102
RTVSPost2010Prop51ColorIndex
 90
      256
102
RTVSPost2010Prop51ColorRGB
 90
-16777216
102
RTVSPost2010PropOp51
 70
     0
102
RTVSPost2010Prop52
140
1.0
102
RTVSPost2010PropOp52
 70
     0
102
RTVSPost2010Prop53
 90
        2
102
RTVSPost2010PropOp53
 70
     1
102
RTVSPost2010Prop54
  1
strokes_ogs.tif
102
RTVSPost2010PropOp54
 70
     1
102
RTVSPost2010Prop55
280
     0
102
RTVSPost2010PropOp55
 70
     1
102
RTVSPost2010Prop56
140
1.0
102
RTVSPost2010PropOp56
 70
     1
102
RTVSPost2010Prop57
140
1.0
102
RTVSPost2010PropOp57
 70
     1
102
RTVSPropertyOp0
 70
     1
102
RTVSPropertyOp1
 70
     1
102
RTVSPropertyOp2
 70
     1
102
RTVSPropertyOp3
 70
     1
102
RTVSPropertyOp4
 70
     1
102
RTVSPropertyOp5
 70
     1
102
RTVSPropertyOp6
 70
     1
102
RTVSPropertyOp7
 70
     1
102
RTVSPropertyOp8
 70
     1
102
RTVSPropertyOp9
 70
     1
102
RTVSPropertyOp10
 70
     1
102
RTVSPropertyOp11
 70
     1
102
RTVSPropertyOp12
 70
     1
102
RTVSPropertyOp13
 70
     1
102
RTVSPropertyOp14
 70
     1
102
RTVSPropertyOp15
 70
     1
102
RTVSPropertyOp16
 70
     1
102
RTVSPropertyOp17
 70
     1
102
RTVSPropertyOp18
 70
     1
102
RTVSPropertyOp19
 70
     1
102
RTVSPropertyOp20
 70
     1
102
RTVSPropertyOp21
 70
     1
102
RTVSPropertyOp22
 70
     1
102
RTVSPropertyOp23
 70
     1
102
RTVSPropertyOp24
 70
     1
102
RTVSPropertyOp25
 70
     1
102
RTVSPropertyOp26
 70
     1
102
RTVSPropertyOp27
 70
     1
102
RTVSPropertyOp28
 70
     1
102
RTVSPropertyOp29
 70
     1
102
RTVSPropertyOp30
 70
     1
102
RTVSPropertyOp31
 70
     1
102
RTVSPropertyOp32
 70
     1
102
RTVSPropertyOp33
 70
     1
102
RTVSPropertyOp34
 70
     1
102
RTVSPropertyOp35
 70
     1
102
RTVSPropertyOp36
 70
     1
102
RTVSPropertyOp37
 70
     1
102
RTVSPropertyOp38
 70
     1
102
RTVSPropertyOp39
 70
     1
102
RTVSPropertyOp40
 70
     1
102
RTVSPropertyOp41
 70
     1
102
RTVSPropertyOp42
 70
     1
102
RTVSPropertyOp43
 70
     1
102
RTVSPropertyOp44
 70
     1
102
RTVSPropertyOp45
 70
     1
102
RTVSPropertyOp46
 70
     1
102
RTVSPropertyOp47
 70
     1
102
RTVSPropertyOp48
 70
     1
102
RTVSPropertyOp49
 70
     1
102
RTVSPropertyOp50
 70
     1
102
RTVSPropertyOp51
 70
     0
102
RTVSPropertyOp52
 70
     0
102
RTVSPropertyOp53
 70
     1
102
RTVSPropertyOp54
 70
     1
102
RTVSPropertyOp55
 70
     1
102
RTVSPropertyOp56
 70
     1
102
RTVSPropertyOp57
 70
     1
102
RTVSPropertyOp58
 70
     1
102
RTVSPropertyOp59
 70
     1
102
RTVSPropertyOp60
 70
     1
102
RTVSPropertyOp61
 70
     1
102
RTVSPropertyOp62
 70
     1
  0
ENDSEC
  0
EOF
