  0
SECTION
  2
HEADER
  9
$ACADVER
  1
AC1009
  9
$DWGCODEPAGE
  3
ansi_1252
  9
$INSBASE
 10
0.0
 20
0.0
 30
0.0
  9
$EXTMIN
 10
1.000000000000000E+20
 20
1.000000000000000E+20
 30
1.000000000000000E+20
  9
$EXTMAX
 10
-1.000000000000000E+20
 20
-1.000000000000000E+20
 30
-1.000000000000000E+20
  9
$LIMMIN
 10
0.0
 20
0.0
  9
$LIMMAX
 10
12.0
 20
9.0
  9
$ORTHOMODE
 70
     0
  9
$REGENMODE
 70
     1
  9
$FILLMODE
 70
     1
  9
$QTEXTMODE
 70
     0
  9
$MIRRTEXT
 70
     1
  9
$DRAGMODE
 70
     2
  9
$LTSCALE
 40
1.0
  9
$OSMODE
 70
    37
  9
$ATTMODE
 70
     1
  9
$TEXTSIZE
 40
0.2
  9
$TRACEWID
 40
0.05
  9
$TEXTSTYLE
  7
STANDARD
  9
$CLAYER
  8
0
  9
$CELTYPE
  6
BYLAYER
  9
$CECOLOR
 62
   256
  9
$DIMSCALE
 40
1.0
  9
$DIMASZ
 40
0.18
  9
$DIMEXO
 40
0.0625
  9
$DIMDLI
 40
0.38
  9
$DIMRND
 40
0.0
  9
$DIMDLE
 40
0.0
  9
$DIMEXE
 40
0.18
  9
$DIMTP
 40
0.0
  9
$DIMTM
 40
0.0
  9
$DIMTXT
 40
0.18
  9
$DIMCEN
 40
0.09
  9
$DIMTSZ
 40
0.0
  9
$DIMTOL
 70
     0
  9
$DIMLIM
 70
     0
  9
$DIMTIH
 70
     1
  9
$DIMTOH
 70
     1
  9
$DIMSE1
 70
     0
  9
$DIMSE2
 70
     0
  9
$DIMTAD
 70
     0
  9
$DIMZIN
 70
     0
  9
$DIMBLK
  1

  9
$DIMASO
 70
     1
  9
$DIMSHO
 70
     1
  9
$DIMPOST
  1

  9
$DIMAPOST
  1

  9
$DIMALT
 70
     0
  9
$DIMALTD
 70
     2
  9
$DIMALTF
 40
25.4
  9
$DIMLFAC
 40
1.0
  9
$DIMTOFL
 70
     0
  9
$DIMTVP
 40
0.0
  9
$DIMTIX
 70
     0
  9
$DIMSOXD
 70
     0
  9
$DIMSAH
 70
     0
  9
$DIMBLK1
  1

  9
$DIMBLK2
  1

  9
$DIMSTYLE
  2
STANDARD
  9
$DIMCLRD
 70
     0
  9
$DIMCLRE
 70
     0
  9
$DIMCLRT
 70
     0
  9
$DIMTFAC
 40
1.0
  9
$DIMGAP
 40
0.09
  9
$LUNITS
 70
     2
  9
$LUPREC
 70
     4
  9
$SKETCHINC
 40
0.1
  9
$FILLETRAD
 40
0.0
  9
$AUNITS
 70
     0
  9
$AUPREC
 70
     0
  9
$MENU
  1
.
  9
$ELEVATION
 40
0.0
  9
$PELEVATION
 40
0.0
  9
$THICKNESS
 40
0.0
  9
$LIMCHECK
 70
     0
  9
$CHAMFERA
 40
0.0
  9
$CHAMFERB
 40
0.0
  9
$SKPOLY
 70
     0
  9
$TDCREATE
 40
2460276.416066297
  9
$TDUPDATE
 40
2460276.416066644
  9
$TDINDWG
 40
0.0000000116
  9
$TDUSRTIMER
 40
0.0000000116
  9
$USRTIMER
 70
     1
  9
$ANGBASE
 50
0.0
  9
$ANGDIR
 70
     0
  9
$PDMODE
 70
     0
  9
$PDSIZE
 40
0.0
  9
$PLINEWID
 40
0.0
  9
$COORDS
 70
     1
  9
$SPLFRAME
 70
     0
  9
$SPLINETYPE
 70
     6
  9
$SPLINESEGS
 70
     8
  9
$ATTDIA
 70
     0
  9
$ATTREQ
 70
     1
  9
$HANDLING
 70
     1
  9
$HANDSEED
  5
570
  9
$SURFTAB1
 70
     6
  9
$SURFTAB2
 70
     6
  9
$SURFTYPE
 70
     6
  9
$SURFU
 70
     6
  9
$SURFV
 70
     6
  9
$UCSNAME
  2

  9
$UCSORG
 10
0.0
 20
0.0
 30
0.0
  9
$UCSXDIR
 10
1.0
 20
0.0
 30
0.0
  9
$UCSYDIR
 10
0.0
 20
1.0
 30
0.0
  9
$PUCSNAME
  2

  9
$PUCSORG
 10
0.0
 20
0.0
 30
0.0
  9
$PUCSXDIR
 10
1.0
 20
0.0
 30
0.0
  9
$PUCSYDIR
 10
0.0
 20
1.0
 30
0.0
  9
$USERI1
 70
     0
  9
$USERI2
 70
     0
  9
$USERI3
 70
     0
  9
$USERI4
 70
     0
  9
$USERI5
 70
     0
  9
$USERR1
 40
0.0
  9
$USERR2
 40
0.0
  9
$USERR3
 40
0.0
  9
$USERR4
 40
0.0
  9
$USERR5
 40
0.0
  9
$WORLDVIEW
 70
     1
  9
$SHADEDGE
 70
     3
  9
$SHADEDIF
 70
    70
  9
$TILEMODE
 70
     1
  9
$MAXACTVP
 70
    64
  9
$PLIMCHECK
 70
     0
  9
$PEXTMIN
 10
1.000000000000000E+20
 20
1.000000000000000E+20
 30
1.000000000000000E+20
  9
$PEXTMAX
 10
-1.000000000000000E+20
 20
-1.000000000000000E+20
 30
-1.000000000000000E+20
  9
$PLIMMIN
 10
0.0
 20
0.0
  9
$PLIMMAX
 10
12.0
 20
9.0
  9
$UNITMODE
 70
     0
  9
$VISRETAIN
 70
     1
  9
$PLINEGEN
 70
     0
  9
$PSLTSCALE
 70
     1
  0
ENDSEC
  0
SECTION
  2
TABLES
  0
TABLE
  2
VPORT
 70
     1
  0
VPORT
  2
*ACTIVE
 70
     0
 10
0.0
 20
0.0
 11
1.0
 21
1.0
 12
0.0
 22
0.0
 13
0.0
 23
0.0
 14
0.5
 24
0.5
 15
0.5
 25
0.5
 16
0.0
 26
0.0
 36
1.0
 17
0.0
 27
0.0
 37
-1000.0
 40
1887.878280388664
 41
1.658454647256439
 42
50.0
 43
2438.290010214993
 44
3628.283378698787
 50
0.0
 51
0.0
 71
     0
 72
   100
 73
     1
 74
     3
 75
     0
 76
     0
 77
     0
 78
     0
  0
ENDTAB
  0
TABLE
  2
LTYPE
 70
     1
  0
LTYPE
  2
CONTINUOUS
 70
     0
  3
Solid line
 72
    65
 73
     0
 40
0.0
  0
ENDTAB
  0
TABLE
  2
LAYER
 70
     3
  0
LAYER
  2
0
 70
     0
 62
     7
  6
CONTINUOUS
  0
LAYER
  2
PROFILEEDGES
 70
     0
 62
     7
  6
CONTINUOUS
  0
LAYER
  2
SECTIONCUTEDGES
 70
     0
 62
     7
  6
CONTINUOUS
  0
ENDTAB
  0
TABLE
  2
STYLE
 70
     1
  0
STYLE
  2
STANDARD
 70
     0
 40
0.0
 41
1.0
 50
0.0
 71
     0
 42
0.2
  3
txt
  4

  0
ENDTAB
  0
TABLE
  2
VIEW
 70
     0
  0
ENDTAB
  0
TABLE
  2
UCS
 70
     0
  0
ENDTAB
  0
TABLE
  2
APPID
 70
     1
  0
APPID
  2
ACAD
 70
     0
  0
ENDTAB
  0
TABLE
  2
DIMSTYLE
 70
     1
  0
DIMSTYLE
  2
STANDARD
 70
     0
  3

  4

  5

  6

  7

 40
1.0
 41
0.18
 42
0.0625
 43
0.38
 44
0.18
 45
0.0
 46
0.0
 47
0.0
 48
0.0
140
0.18
141
0.09
142
0.0
143
25.4
144
1.0
145
0.0
146
1.0
147
0.09
 71
     0
 72
     0
 73
     1
 74
     1
 75
     0
 76
     0
 77
     0
 78
     0
170
     0
171
     2
172
     0
173
     0
174
     0
175
     0
176
     0
177
     0
178
     0
  0
ENDTAB
  0
ENDSEC
  0
SECTION
  2
BLOCKS
  0
BLOCK
  8
0
  2
$MODEL_SPACE
 70
     0
 10
0.0
 20
0.0
 30
0.0
  3
$MODEL_SPACE
  1

  0
ENDBLK
  5
21
  8
0
  0
BLOCK
 67
     1
  8
0
  2
$PAPER_SPACE
 70
     0
 10
0.0
 20
0.0
 30
0.0
  3
$PAPER_SPACE
  1

  0
ENDBLK
  5
1D
 67
     1
  8
0
  0
ENDSEC
  0
SECTION
  2
ENTITIES
  0
POLYLINE
  5
60
  8
PROFILEEDGES
 66
     1
 10
0.0
 20
0.0
 30
0.0
  0
VERTEX
  5
1B3
  8
PROFILEEDGES
 10
-371.3011976905179
 20
725.2992738542921
 30
0.0
 40
4.228170840736089
 41
4.228170840736089
  0
VERTEX
  5
1B4
  8
PROFILEEDGES
 10
-373.3127414194317
 20
724.0343924912075
 30
0.0
 40
4.228170840736089
 41
4.228170840736089
  0
SEQEND
  5
431
  8
PROFILEEDGES
  0
POLYLINE
  5
61
  8
PROFILEEDGES
 66
     1
 10
0.0
 20
0.0
 30
0.0
  0
VERTEX
  5
1B5
  8
PROFILEEDGES
 10
-369.1479099339504
 20
726.3040548619695
 30
0.0
 40
4.228170840736089
 41
4.228170840736089
  0
VERTEX
  5
1B6
  8
PROFILEEDGES
 10
-371.3011976905179
 20
725.2992738542921
 30
0.0
 40
4.228170840736089
 41
4.228170840736089
  0
SEQEND
  5
432
  8
PROFILEEDGES
  0
POLYLINE
  5
62
  8
PROFILEEDGES
 66
     1
 10
0.0
 20
0.0
 30
0.0
  0
VERTEX
  5
1B7
  8
PROFILEEDGES
 10
-373.3127414194317
 20
724.0343924912075
 30
0.0
 40
4.228170840736089
 41
4.228170840736089
  0
VERTEX
  5
1B8
  8
PROFILEEDGES
 10
-375.1512813382096
 20
722.5290672761685
 30
0.0
 40
4.228170840736089
 41
4.228170840736089
  0
SEQEND
  5
433
  8
PROFILEEDGES
  0
POLYLINE
  5
63
  8
PROFILEEDGES
 66
     1
 10
0.0
 20
0.0
 30
0.0
  0
VERTEX
  5
1B9
  8
PROFILEEDGES
 10
-380.8664801454526
 20
712.3235460726553
 30
0.0
 40
4.228170840736089
 41
4.228170840736089
  0
VERTEX
  5
1BA
  8
PROFILEEDGES
 10
-381.1892875251267
 20
709.9693947538964
 30
0.0
 40
4.228170840736089
 41
4.228170840736089
  0
SEQEND
  5
434
  8
PROFILEEDGES
  0
POLYLINE
  5
64
  8
PROFILEEDGES
 66
     1
 10
0.0
 20
0.0
 30
0.0
  0
VERTEX
  5
1BB
  8
PROFILEEDGES
 10
-364.5516351030811
 20
727.4751425012071
 30
0.0
 40
4.228170840736089
 41
4.228170840736089
  0
VERTEX
  5
1BC
  8
PROFILEEDGES
 10
-366.8863406620563
 20
727.0331210211148
 30
0.0
 40
4.228170840736089
 41
4.228170840736089
  0
SEQEND
  5
435
  8
PROFILEEDGES
  0
POLYLINE
  5
65
  8
PROFILEEDGES
 66
     1
 10
0.0
 20
0.0
 30
0.0
  0
VERTEX
  5
1BD
  8
PROFILEEDGES
 10
-376.7882461774038
 20
720.8066912570525
 30
0.0
 40
4.228170840736089
 41
4.228170840736089
  0
VERTEX
  5
1BE
  8
PROFILEEDGES
 10
-378.1981971836607
 20
718.8940304936289
 30
0.0
 40
4.228170840736089
 41
4.228170840736089
  0
SEQEND
  5
436
  8
PROFILEEDGES
  0
POLYLINE
  5
66
  8
PROFILEEDGES
 66
     1
 10
0.0
 20
0.0
 30
0.0
  0
VERTEX
  5
1BF
  8
PROFILEEDGES
 10
-380.2532823803739
 20
714.6192423802903
 30
0.0
 40
4.228170840736089
 41
4.228170840736089
  0
VERTEX
  5
1C0
  8
PROFILEEDGES
 10
-380.8664801454526
 20
712.3235460726553
 30
0.0
 40
4.228170840736089
 41
4.228170840736089
  0
SEQEND
  5
437
  8
PROFILEEDGES
  0
POLYLINE
  5
67
  8
PROFILEEDGES
 66
     1
 10
0.0
 20
0.0
 30
0.0
  0
VERTEX
  5
1C1
  8
PROFILEEDGES
 10
-366.8863406620563
 20
727.0331210211148
 30
0.0
 40
4.228170840736089
 41
4.228170840736089
  0
VERTEX
  5
1C2
  8
PROFILEEDGES
 10
-369.1479099339504
 20
726.3040548619695
 30
0.0
 40
4.228170840736089
 41
4.228170840736089
  0
SEQEND
  5
438
  8
PROFILEEDGES
  0
POLYLINE
  5
68
  8
PROFILEEDGES
 66
     1
 10
0.0
 20
0.0
 30
0.0
  0
VERTEX
  5
1C3
  8
PROFILEEDGES
 10
-379.3592234429302
 20
716.820808107761
 30
0.0
 40
4.228170840736089
 41
4.228170840736089
  0
VERTEX
  5
1C4
  8
PROFILEEDGES
 10
-380.2532823803739
 20
714.6192423802903
 30
0.0
 40
4.228170840736089
 41
4.228170840736089
  0
SEQEND
  5
439
  8
PROFILEEDGES
  0
POLYLINE
  5
69
  8
PROFILEEDGES
 66
     1
 10
0.0
 20
0.0
 30
0.0
  0
VERTEX
  5
1C5
  8
PROFILEEDGES
 10
-378.1981971836607
 20
718.8940304936289
 30
0.0
 40
4.228170840736089
 41
4.228170840736089
  0
VERTEX
  5
1C6
  8
PROFILEEDGES
 10
-379.3592234429302
 20
716.820808107761
 30
0.0
 40
4.228170840736089
 41
4.228170840736089
  0
SEQEND
  5
43A
  8
PROFILEEDGES
  0
POLYLINE
  5
6A
  8
PROFILEEDGES
 66
     1
 10
0.0
 20
0.0
 30
0.0
  0
VERTEX
  5
1C7
  8
PROFILEEDGES
 10
-375.1512813382096
 20
722.5290672761685
 30
0.0
 40
4.228170840736089
 41
4.228170840736089
  0
VERTEX
  5
1C8
  8
PROFILEEDGES
 10
-376.7882461774038
 20
720.8066912570525
 30
0.0
 40
4.228170840736089
 41
4.228170840736089
  0
SEQEND
  5
43B
  8
PROFILEEDGES
  0
POLYLINE
  5
6B
  8
PROFILEEDGES
 66
     1
 10
0.0
 20
0.0
 30
0.0
  0
VERTEX
  5
1C9
  8
PROFILEEDGES
 10
-438.1037848052704
 20
8.066298429110862
 30
0.0
 40
4.228170840736089
 41
4.228170840736089
  0
VERTEX
  5
1CA
  8
PROFILEEDGES
 10
-443.0237310294876
 20
8.71402163752486
 30
0.0
 40
4.228170840736089
 41
4.228170840736089
  0
SEQEND
  5
43C
  8
PROFILEEDGES
  0
POLYLINE
  5
6C
  8
PROFILEEDGES
 66
     1
 10
0.0
 20
0.0
 30
0.0
  0
VERTEX
  5
1CB
  8
PROFILEEDGES
 10
-443.0237310294876
 20
8.71402163752486
 30
0.0
 40
4.228170840736089
 41
4.228170840736089
  0
VERTEX
  5
1CC
  8
PROFILEEDGES
 10
-447.943677253699
 20
8.066298429108212
 30
0.0
 40
4.228170840736089
 41
4.228170840736089
  0
SEQEND
  5
43D
  8
PROFILEEDGES
  0
POLYLINE
  5
6D
  8
PROFILEEDGES
 66
     1
 10
0.0
 20
0.0
 30
0.0
  0
VERTEX
  5
1CD
  8
PROFILEEDGES
 10
-447.943677253699
 20
8.066298429108212
 30
0.0
 40
4.228170840736089
 41
4.228170840736089
  0
VERTEX
  5
1CE
  8
PROFILEEDGES
 10
-452.5283372733331
 20
6.16727007010907
 30
0.0
 40
4.228170840736089
 41
4.228170840736089
  0
SEQEND
  5
43E
  8
PROFILEEDGES
  0
POLYLINE
  5
6E
  8
PROFILEEDGES
 66
     1
 10
0.0
 20
0.0
 30
0.0
  0
VERTEX
  5
1CF
  8
PROFILEEDGES
 10
-452.5283372733331
 20
6.16727007010907
 30
0.0
 40
4.228170840736089
 41
4.228170840736089
  0
VERTEX
  5
1D0
  8
PROFILEEDGES
 10
-456.4652740845468
 20
3.14635220489142
 30
0.0
 40
4.228170840736089
 41
4.228170840736089
  0
SEQEND
  5
43F
  8
PROFILEEDGES
  0
POLYLINE
  5
6F
  8
PROFILEEDGES
 66
     1
 10
0.0
 20
0.0
 30
0.0
  0
VERTEX
  5
1D1
  8
PROFILEEDGES
 10
-456.4652740845468
 20
3.14635220489142
 30
0.0
 40
4.228170840736089
 41
4.228170840736089
  0
VERTEX
  5
1D2
  8
PROFILEEDGES
 10
-459.4861919497591
 20
-0.7905846063258766
 30
0.0
 40
4.228170840736089
 41
4.228170840736089
  0
SEQEND
  5
440
  8
PROFILEEDGES
  0
POLYLINE
  5
70
  8
PROFILEEDGES
 66
     1
 10
0.0
 20
0.0
 30
0.0
  0
VERTEX
  5
1D3
  8
PROFILEEDGES
 10
-459.4861919497591
 20
-0.7905846063258766
 30
0.0
 40
4.228170840736089
 41
4.228170840736089
  0
VERTEX
  5
1D4
  8
PROFILEEDGES
 10
-461.385220308763
 20
-5.375244625954734
 30
0.0
 40
4.228170840736089
 41
4.228170840736089
  0
SEQEND
  5
441
  8
PROFILEEDGES
  0
POLYLINE
  5
71
  8
PROFILEEDGES
 66
     1
 10
0.0
 20
0.0
 30
0.0
  0
VERTEX
  5
1D5
  8
PROFILEEDGES
 10
-461.385220308763
 20
-5.375244625954734
 30
0.0
 40
4.228170840736089
 41
4.228170840736089
  0
VERTEX
  5
1D6
  8
PROFILEEDGES
 10
-462.032943517174
 20
-10.29519085017056
 30
0.0
 40
4.228170840736089
 41
4.228170840736089
  0
SEQEND
  5
442
  8
PROFILEEDGES
  0
POLYLINE
  5
72
  8
PROFILEEDGES
 66
     1
 10
0.0
 20
0.0
 30
0.0
  0
VERTEX
  5
1D7
  8
PROFILEEDGES
 10
-462.032943517174
 20
-10.29519085017056
 30
0.0
 40
4.228170840736089
 41
4.228170840736089
  0
VERTEX
  5
1D8
  8
PROFILEEDGES
 10
-461.3852203087589
 20
-15.21513707438623
 30
0.0
 40
4.228170840736089
 41
4.228170840736089
  0
SEQEND
  5
443
  8
PROFILEEDGES
  0
POLYLINE
  5
73
  8
PROFILEEDGES
 66
     1
 10
0.0
 20
0.0
 30
0.0
  0
VERTEX
  5
1D9
  8
PROFILEEDGES
 10
-461.3852203087589
 20
-15.21513707438623
 30
0.0
 40
4.228170840736089
 41
4.228170840736089
  0
VERTEX
  5
1DA
  8
PROFILEEDGES
 10
-459.4861919497654
 20
-19.79979709401463
 30
0.0
 40
4.228170840736089
 41
4.228170840736089
  0
SEQEND
  5
444
  8
PROFILEEDGES
  0
POLYLINE
  5
74
  8
PROFILEEDGES
 66
     1
 10
0.0
 20
0.0
 30
0.0
  0
VERTEX
  5
1DB
  8
PROFILEEDGES
 10
-459.4861919497654
 20
-19.79979709401463
 30
0.0
 40
4.228170840736089
 41
4.228170840736089
  0
VERTEX
  5
1DC
  8
PROFILEEDGES
 10
-456.4652740845406
 20
-23.73673390523263
 30
0.0
 40
4.228170840736089
 41
4.228170840736089
  0
SEQEND
  5
445
  8
PROFILEEDGES
  0
POLYLINE
  5
75
  8
PROFILEEDGES
 66
     1
 10
0.0
 20
0.0
 30
0.0
  0
VERTEX
  5
1DD
  8
PROFILEEDGES
 10
-456.4652740845406
 20
-23.73673390523263
 30
0.0
 40
4.228170840736089
 41
4.228170840736089
  0
VERTEX
  5
1DE
  8
PROFILEEDGES
 10
-452.5283372733234
 20
-26.75765177044643
 30
0.0
 40
4.228170840736089
 41
4.228170840736089
  0
SEQEND
  5
446
  8
PROFILEEDGES
  0
POLYLINE
  5
76
  8
PROFILEEDGES
 66
     1
 10
0.0
 20
0.0
 30
0.0
  0
VERTEX
  5
1DF
  8
PROFILEEDGES
 10
-452.5283372733234
 20
-26.75765177044643
 30
0.0
 40
4.228170840736089
 41
4.228170840736089
  0
VERTEX
  5
1E0
  8
PROFILEEDGES
 10
-447.9436772536944
 20
-28.65668012944734
 30
0.0
 40
4.228170840736089
 41
4.228170840736089
  0
SEQEND
  5
447
  8
PROFILEEDGES
  0
POLYLINE
  5
77
  8
PROFILEEDGES
 66
     1
 10
0.0
 20
0.0
 30
0.0
  0
VERTEX
  5
1E1
  8
PROFILEEDGES
 10
-447.9436772536944
 20
-28.65668012944734
 30
0.0
 40
4.228170840736089
 41
4.228170840736089
  0
VERTEX
  5
1E2
  8
PROFILEEDGES
 10
-443.0237310294858
 20
-29.30440333785845
 30
0.0
 40
4.228170840736089
 41
4.228170840736089
  0
SEQEND
  5
448
  8
PROFILEEDGES
  0
POLYLINE
  5
78
  8
PROFILEEDGES
 66
     1
 10
0.0
 20
0.0
 30
0.0
  0
VERTEX
  5
1E3
  8
PROFILEEDGES
 10
-443.0237310294858
 20
-29.30440333785845
 30
0.0
 40
4.228170840736089
 41
4.228170840736089
  0
VERTEX
  5
1E4
  8
PROFILEEDGES
 10
-438.1037848052687
 20
-28.65668012944469
 30
0.0
 40
4.228170840736089
 41
4.228170840736089
  0
SEQEND
  5
449
  8
PROFILEEDGES
  0
POLYLINE
  5
79
  8
PROFILEEDGES
 66
     1
 10
0.0
 20
0.0
 30
0.0
  0
VERTEX
  5
1E5
  8
PROFILEEDGES
 10
-438.1037848052687
 20
-28.65668012944469
 30
0.0
 40
4.228170840736089
 41
4.228170840736089
  0
VERTEX
  5
1E6
  8
PROFILEEDGES
 10
-433.5191247856346
 20
-26.75765177044266
 30
0.0
 40
4.228170840736089
 41
4.228170840736089
  0
SEQEND
  5
44A
  8
PROFILEEDGES
  0
POLYLINE
  5
7A
  8
PROFILEEDGES
 66
     1
 10
0.0
 20
0.0
 30
0.0
  0
VERTEX
  5
1E7
  8
PROFILEEDGES
 10
-433.5191247856346
 20
-26.75765177044266
 30
0.0
 40
4.228170840736089
 41
4.228170840736089
  0
VERTEX
  5
1E8
  8
PROFILEEDGES
 10
-429.582187974418
 20
-23.73673390522935
 30
0.0
 40
4.228170840736089
 41
4.228170840736089
  0
SEQEND
  5
44B
  8
PROFILEEDGES
  0
POLYLINE
  5
7B
  8
PROFILEEDGES
 66
     1
 10
0.0
 20
0.0
 30
0.0
  0
VERTEX
  5
1E9
  8
PROFILEEDGES
 10
-429.582187974418
 20
-23.73673390522935
 30
0.0
 40
4.228170840736089
 41
4.228170840736089
  0
VERTEX
  5
1EA
  8
PROFILEEDGES
 10
-426.5612701092057
 20
-19.7997970940135
 30
0.0
 40
4.228170840736089
 41
4.228170840736089
  0
SEQEND
  5
44C
  8
PROFILEEDGES
  0
POLYLINE
  5
7C
  8
PROFILEEDGES
 66
     1
 10
0.0
 20
0.0
 30
0.0
  0
VERTEX
  5
1EB
  8
PROFILEEDGES
 10
-426.5612701092057
 20
-19.7997970940135
 30
0.0
 40
4.228170840736089
 41
4.228170840736089
  0
VERTEX
  5
1EC
  8
PROFILEEDGES
 10
-424.6622417502047
 20
-15.2151370743803
 30
0.0
 40
4.228170840736089
 41
4.228170840736089
  0
SEQEND
  5
44D
  8
PROFILEEDGES
  0
POLYLINE
  5
7D
  8
PROFILEEDGES
 66
     1
 10
0.0
 20
0.0
 30
0.0
  0
VERTEX
  5
1ED
  8
PROFILEEDGES
 10
-424.6622417502047
 20
-15.2151370743803
 30
0.0
 40
4.228170840736089
 41
4.228170840736089
  0
VERTEX
  5
1EE
  8
PROFILEEDGES
 10
-424.0145185417908
 20
-10.29519085016448
 30
0.0
 40
4.228170840736089
 41
4.228170840736089
  0
SEQEND
  5
44E
  8
PROFILEEDGES
  0
POLYLINE
  5
7E
  8
PROFILEEDGES
 66
     1
 10
0.0
 20
0.0
 30
0.0
  0
VERTEX
  5
1EF
  8
PROFILEEDGES
 10
-424.0145185417908
 20
-10.29519085016448
 30
0.0
 40
4.228170840736089
 41
4.228170840736089
  0
VERTEX
  5
1F0
  8
PROFILEEDGES
 10
-424.6622417502059
 20
-5.37524462595025
 30
0.0
 40
4.228170840736089
 41
4.228170840736089
  0
SEQEND
  5
44F
  8
PROFILEEDGES
  0
POLYLINE
  5
7F
  8
PROFILEEDGES
 66
     1
 10
0.0
 20
0.0
 30
0.0
  0
VERTEX
  5
1F1
  8
PROFILEEDGES
 10
-424.6622417502059
 20
-5.37524462595025
 30
0.0
 40
4.228170840736089
 41
4.228170840736089
  0
VERTEX
  5
1F2
  8
PROFILEEDGES
 10
-426.561270109208
 20
-0.790584606318962
 30
0.0
 40
4.228170840736089
 41
4.228170840736089
  0
SEQEND
  5
450
  8
PROFILEEDGES
  0
POLYLINE
  5
80
  8
PROFILEEDGES
 66
     1
 10
0.0
 20
0.0
 30
0.0
  0
VERTEX
  5
1F3
  8
PROFILEEDGES
 10
-426.561270109208
 20
-0.790584606318962
 30
0.0
 40
4.228170840736089
 41
4.228170840736089
  0
VERTEX
  5
1F4
  8
PROFILEEDGES
 10
-429.5821879744213
 20
3.146352204896146
 30
0.0
 40
4.228170840736089
 41
4.228170840736089
  0
SEQEND
  5
451
  8
PROFILEEDGES
  0
POLYLINE
  5
81
  8
PROFILEEDGES
 66
     1
 10
0.0
 20
0.0
 30
0.0
  0
VERTEX
  5
1F5
  8
PROFILEEDGES
 10
-429.5821879744213
 20
3.146352204896146
 30
0.0
 40
4.228170840736089
 41
4.228170840736089
  0
VERTEX
  5
1F6
  8
PROFILEEDGES
 10
-433.5191247856328
 20
6.16727007010995
 30
0.0
 40
4.228170840736089
 41
4.228170840736089
  0
SEQEND
  5
452
  8
PROFILEEDGES
  0
POLYLINE
  5
82
  8
PROFILEEDGES
 66
     1
 10
0.0
 20
0.0
 30
0.0
  0
VERTEX
  5
1F7
  8
PROFILEEDGES
 10
-433.5191247856328
 20
6.16727007010995
 30
0.0
 40
4.228170840736089
 41
4.228170840736089
  0
VERTEX
  5
1F8
  8
PROFILEEDGES
 10
-438.1037848052704
 20
8.066298429110862
 30
0.0
 40
4.228170840736089
 41
4.228170840736089
  0
SEQEND
  5
453
  8
PROFILEEDGES
  0
POLYLINE
  5
83
  8
PROFILEEDGES
 66
     1
 10
0.0
 20
0.0
 30
0.0
  0
VERTEX
  5
1F9
  8
PROFILEEDGES
 10
340.3761200344137
 20
-0.7905846062281703
 30
0.0
 40
4.228170840736089
 41
4.228170840736089
  0
VERTEX
  5
1FA
  8
PROFILEEDGES
 10
338.477091675413
 20
-5.375244625855595
 30
0.0
 40
4.228170840736089
 41
4.228170840736089
  0
SEQEND
  5
454
  8
PROFILEEDGES
  0
POLYLINE
  5
84
  8
PROFILEEDGES
 66
     1
 10
0.0
 20
0.0
 30
0.0
  0
VERTEX
  5
1FB
  8
PROFILEEDGES
 10
338.477091675413
 20
-5.375244625855595
 30
0.0
 40
4.228170840736089
 41
4.228170840736089
  0
VERTEX
  5
1FC
  8
PROFILEEDGES
 10
337.8293684669989
 20
-10.29519085007431
 30
0.0
 40
4.228170840736089
 41
4.228170840736089
  0
SEQEND
  5
455
  8
PROFILEEDGES
  0
POLYLINE
  5
85
  8
PROFILEEDGES
 66
     1
 10
0.0
 20
0.0
 30
0.0
  0
VERTEX
  5
1FD
  8
PROFILEEDGES
 10
337.8293684669989
 20
-10.29519085007431
 30
0.0
 40
4.228170840736089
 41
4.228170840736089
  0
VERTEX
  5
1FE
  8
PROFILEEDGES
 10
338.4770916754111
 20
-15.21513707428853
 30
0.0
 40
4.228170840736089
 41
4.228170840736089
  0
SEQEND
  5
456
  8
PROFILEEDGES
  0
POLYLINE
  5
86
  8
PROFILEEDGES
 66
     1
 10
0.0
 20
0.0
 30
0.0
  0
VERTEX
  5
1FF
  8
PROFILEEDGES
 10
338.4770916754111
 20
-15.21513707428853
 30
0.0
 40
4.228170840736089
 41
4.228170840736089
  0
VERTEX
  5
200
  8
PROFILEEDGES
 10
340.3761200344132
 20
-19.79979709391838
 30
0.0
 40
4.228170840736089
 41
4.228170840736089
  0
SEQEND
  5
457
  8
PROFILEEDGES
  0
POLYLINE
  5
87
  8
PROFILEEDGES
 66
     1
 10
0.0
 20
0.0
 30
0.0
  0
VERTEX
  5
201
  8
PROFILEEDGES
 10
340.3761200344132
 20
-19.79979709391838
 30
0.0
 40
4.228170840736089
 41
4.228170840736089
  0
VERTEX
  5
202
  8
PROFILEEDGES
 10
343.3970378996236
 20
-23.73673390513349
 30
0.0
 40
4.228170840736089
 41
4.228170840736089
  0
SEQEND
  5
458
  8
PROFILEEDGES
  0
POLYLINE
  5
88
  8
PROFILEEDGES
 66
     1
 10
0.0
 20
0.0
 30
0.0
  0
VERTEX
  5
203
  8
PROFILEEDGES
 10
343.3970378996236
 20
-23.73673390513349
 30
0.0
 40
4.228170840736089
 41
4.228170840736089
  0
VERTEX
  5
204
  8
PROFILEEDGES
 10
347.333974710838
 20
-26.75765177034873
 30
0.0
 40
4.228170840736089
 41
4.228170840736089
  0
SEQEND
  5
459
  8
PROFILEEDGES
  0
POLYLINE
  5
89
  8
PROFILEEDGES
 66
     1
 10
0.0
 20
0.0
 30
0.0
  0
VERTEX
  5
205
  8
PROFILEEDGES
 10
347.333974710838
 20
-26.75765177034873
 30
0.0
 40
4.228170840736089
 41
4.228170840736089
  0
VERTEX
  5
206
  8
PROFILEEDGES
 10
351.9186347304726
 20
-28.6566801293482
 30
0.0
 40
4.228170840736089
 41
4.228170840736089
  0
SEQEND
  5
45A
  8
PROFILEEDGES
  0
POLYLINE
  5
8A
  8
PROFILEEDGES
 66
     1
 10
0.0
 20
0.0
 30
0.0
  0
VERTEX
  5
207
  8
PROFILEEDGES
 10
351.9186347304726
 20
-28.6566801293482
 30
0.0
 40
4.228170840736089
 41
4.228170840736089
  0
VERTEX
  5
208
  8
PROFILEEDGES
 10
356.8385809546958
 20
-29.30440333776075
 30
0.0
 40
4.228170840736089
 41
4.228170840736089
  0
SEQEND
  5
45B
  8
PROFILEEDGES
  0
POLYLINE
  5
8B
  8
PROFILEEDGES
 66
     1
 10
0.0
 20
0.0
 30
0.0
  0
VERTEX
  5
209
  8
PROFILEEDGES
 10
356.8385809546958
 20
-29.30440333776075
 30
0.0
 40
4.228170840736089
 41
4.228170840736089
  0
VERTEX
  5
20A
  8
PROFILEEDGES
 10
361.7585271789099
 20
-28.65668012934988
 30
0.0
 40
4.228170840736089
 41
4.228170840736089
  0
SEQEND
  5
45C
  8
PROFILEEDGES
  0
POLYLINE
  5
8C
  8
PROFILEEDGES
 66
     1
 10
0.0
 20
0.0
 30
0.0
  0
VERTEX
  5
20B
  8
PROFILEEDGES
 10
361.7585271789099
 20
-28.65668012934988
 30
0.0
 40
4.228170840736089
 41
4.228170840736089
  0
VERTEX
  5
20C
  8
PROFILEEDGES
 10
366.3431871985355
 20
-26.7576517703464
 30
0.0
 40
4.228170840736089
 41
4.228170840736089
  0
SEQEND
  5
45D
  8
PROFILEEDGES
  0
POLYLINE
  5
8D
  8
PROFILEEDGES
 66
     1
 10
0.0
 20
0.0
 30
0.0
  0
VERTEX
  5
20D
  8
PROFILEEDGES
 10
366.3431871985355
 20
-26.7576517703464
 30
0.0
 40
4.228170840736089
 41
4.228170840736089
  0
VERTEX
  5
20E
  8
PROFILEEDGES
 10
370.2801240097607
 20
-23.73673390513165
 30
0.0
 40
4.228170840736089
 41
4.228170840736089
  0
SEQEND
  5
45E
  8
PROFILEEDGES
  0
POLYLINE
  5
8E
  8
PROFILEEDGES
 66
     1
 10
0.0
 20
0.0
 30
0.0
  0
VERTEX
  5
20F
  8
PROFILEEDGES
 10
370.2801240097607
 20
-23.73673390513165
 30
0.0
 40
4.228170840736089
 41
4.228170840736089
  0
VERTEX
  5
210
  8
PROFILEEDGES
 10
373.3010418749672
 20
-19.79979709391435
 30
0.0
 40
4.228170840736089
 41
4.228170840736089
  0
SEQEND
  5
45F
  8
PROFILEEDGES
  0
POLYLINE
  5
8F
  8
PROFILEEDGES
 66
     1
 10
0.0
 20
0.0
 30
0.0
  0
VERTEX
  5
211
  8
PROFILEEDGES
 10
373.3010418749672
 20
-19.79979709391435
 30
0.0
 40
4.228170840736089
 41
4.228170840736089
  0
VERTEX
  5
212
  8
PROFILEEDGES
 10
375.2000702339681
 20
-15.21513707428404
 30
0.0
 40
4.228170840736089
 41
4.228170840736089
  0
SEQEND
  5
460
  8
PROFILEEDGES
  0
POLYLINE
  5
90
  8
PROFILEEDGES
 66
     1
 10
0.0
 20
0.0
 30
0.0
  0
VERTEX
  5
213
  8
PROFILEEDGES
 10
375.2000702339681
 20
-15.21513707428404
 30
0.0
 40
4.228170840736089
 41
4.228170840736089
  0
VERTEX
  5
214
  8
PROFILEEDGES
 10
375.8477934423822
 20
-10.29519085006822
 30
0.0
 40
4.228170840736089
 41
4.228170840736089
  0
SEQEND
  5
461
  8
PROFILEEDGES
  0
POLYLINE
  5
91
  8
PROFILEEDGES
 66
     1
 10
0.0
 20
0.0
 30
0.0
  0
VERTEX
  5
215
  8
PROFILEEDGES
 10
375.8477934423822
 20
-10.29519085006822
 30
0.0
 40
4.228170840736089
 41
4.228170840736089
  0
VERTEX
  5
216
  8
PROFILEEDGES
 10
375.200070233967
 20
-5.37524462585255
 30
0.0
 40
4.228170840736089
 41
4.228170840736089
  0
SEQEND
  5
462
  8
PROFILEEDGES
  0
POLYLINE
  5
92
  8
PROFILEEDGES
 66
     1
 10
0.0
 20
0.0
 30
0.0
  0
VERTEX
  5
217
  8
PROFILEEDGES
 10
375.200070233967
 20
-5.37524462585255
 30
0.0
 40
4.228170840736089
 41
4.228170840736089
  0
VERTEX
  5
218
  8
PROFILEEDGES
 10
373.3010418749677
 20
-0.7905846062227109
 30
0.0
 40
4.228170840736089
 41
4.228170840736089
  0
SEQEND
  5
463
  8
PROFILEEDGES
  0
POLYLINE
  5
93
  8
PROFILEEDGES
 66
     1
 10
0.0
 20
0.0
 30
0.0
  0
VERTEX
  5
219
  8
PROFILEEDGES
 10
373.3010418749677
 20
-0.7905846062227109
 30
0.0
 40
4.228170840736089
 41
4.228170840736089
  0
VERTEX
  5
21A
  8
PROFILEEDGES
 10
370.2801240097459
 20
3.146352204993852
 30
0.0
 40
4.228170840736089
 41
4.228170840736089
  0
SEQEND
  5
464
  8
PROFILEEDGES
  0
POLYLINE
  5
94
  8
PROFILEEDGES
 66
     1
 10
0.0
 20
0.0
 30
0.0
  0
VERTEX
  5
21B
  8
PROFILEEDGES
 10
370.2801240097459
 20
3.146352204993852
 30
0.0
 40
4.228170840736089
 41
4.228170840736089
  0
VERTEX
  5
21C
  8
PROFILEEDGES
 10
366.3431871985286
 20
6.167270070207645
 30
0.0
 40
4.228170840736089
 41
4.228170840736089
  0
SEQEND
  5
465
  8
PROFILEEDGES
  0
POLYLINE
  5
95
  8
PROFILEEDGES
 66
     1
 10
0.0
 20
0.0
 30
0.0
  0
VERTEX
  5
21D
  8
PROFILEEDGES
 10
366.3431871985286
 20
6.167270070207645
 30
0.0
 40
4.228170840736089
 41
4.228170840736089
  0
VERTEX
  5
21E
  8
PROFILEEDGES
 10
361.7585271789025
 20
8.066298429208558
 30
0.0
 40
4.228170840736089
 41
4.228170840736089
  0
SEQEND
  5
466
  8
PROFILEEDGES
  0
POLYLINE
  5
96
  8
PROFILEEDGES
 66
     1
 10
0.0
 20
0.0
 30
0.0
  0
VERTEX
  5
21F
  8
PROFILEEDGES
 10
361.7585271789025
 20
8.066298429208558
 30
0.0
 40
4.228170840736089
 41
4.228170840736089
  0
VERTEX
  5
220
  8
PROFILEEDGES
 10
356.8385809546882
 20
8.714021637621112
 30
0.0
 40
4.228170840736089
 41
4.228170840736089
  0
SEQEND
  5
467
  8
PROFILEEDGES
  0
POLYLINE
  5
97
  8
PROFILEEDGES
 66
     1
 10
0.0
 20
0.0
 30
0.0
  0
VERTEX
  5
221
  8
PROFILEEDGES
 10
356.8385809546882
 20
8.714021637621112
 30
0.0
 40
4.228170840736089
 41
4.228170840736089
  0
VERTEX
  5
222
  8
PROFILEEDGES
 10
351.9186347304739
 20
8.066298429205919
 30
0.0
 40
4.228170840736089
 41
4.228170840736089
  0
SEQEND
  5
468
  8
PROFILEEDGES
  0
POLYLINE
  5
98
  8
PROFILEEDGES
 66
     1
 10
0.0
 20
0.0
 30
0.0
  0
VERTEX
  5
223
  8
PROFILEEDGES
 10
351.9186347304739
 20
8.066298429205919
 30
0.0
 40
4.228170840736089
 41
4.228170840736089
  0
VERTEX
  5
224
  8
PROFILEEDGES
 10
347.3339747108427
 20
6.167270070206765
 30
0.0
 40
4.228170840736089
 41
4.228170840736089
  0
SEQEND
  5
469
  8
PROFILEEDGES
  0
POLYLINE
  5
99
  8
PROFILEEDGES
 66
     1
 10
0.0
 20
0.0
 30
0.0
  0
VERTEX
  5
225
  8
PROFILEEDGES
 10
347.3339747108427
 20
6.167270070206765
 30
0.0
 40
4.228170840736089
 41
4.228170840736089
  0
VERTEX
  5
226
  8
PROFILEEDGES
 10
343.3970378996262
 20
3.146352204990558
 30
0.0
 40
4.228170840736089
 41
4.228170840736089
  0
SEQEND
  5
46A
  8
PROFILEEDGES
  0
POLYLINE
  5
9A
  8
PROFILEEDGES
 66
     1
 10
0.0
 20
0.0
 30
0.0
  0
VERTEX
  5
227
  8
PROFILEEDGES
 10
343.3970378996262
 20
3.146352204990558
 30
0.0
 40
4.228170840736089
 41
4.228170840736089
  0
VERTEX
  5
228
  8
PROFILEEDGES
 10
340.3761200344137
 20
-0.7905846062281703
 30
0.0
 40
4.228170840736089
 41
4.228170840736089
  0
SEQEND
  5
46B
  8
PROFILEEDGES
  0
POLYLINE
  5
9B
  8
PROFILEEDGES
 66
     1
 10
0.0
 20
0.0
 30
0.0
  0
VERTEX
  5
229
  8
PROFILEEDGES
 10
347.3339747107462
 20
773.1046602139744
 30
0.0
 40
4.228170840736089
 41
4.228170840736089
  0
VERTEX
  5
22A
  8
PROFILEEDGES
 10
351.918634730375
 20
771.2056318549734
 30
0.0
 40
4.228170840736089
 41
4.228170840736089
  0
SEQEND
  5
46C
  8
PROFILEEDGES
  0
POLYLINE
  5
9C
  8
PROFILEEDGES
 66
     1
 10
0.0
 20
0.0
 30
0.0
  0
VERTEX
  5
22B
  8
PROFILEEDGES
 10
351.918634730375
 20
771.2056318549734
 30
0.0
 40
4.228170840736089
 41
4.228170840736089
  0
VERTEX
  5
22C
  8
PROFILEEDGES
 10
356.8385809545921
 20
770.5579086465624
 30
0.0
 40
4.228170840736089
 41
4.228170840736089
  0
SEQEND
  5
46D
  8
PROFILEEDGES
  0
POLYLINE
  5
9D
  8
PROFILEEDGES
 66
     1
 10
0.0
 20
0.0
 30
0.0
  0
VERTEX
  5
22D
  8
PROFILEEDGES
 10
356.8385809545921
 20
770.5579086465624
 30
0.0
 40
4.228170840736089
 41
4.228170840736089
  0
VERTEX
  5
22E
  8
PROFILEEDGES
 10
361.7585271788093
 20
771.2056318549747
 30
0.0
 40
4.228170840736089
 41
4.228170840736089
  0
SEQEND
  5
46E
  8
PROFILEEDGES
  0
POLYLINE
  5
9E
  8
PROFILEEDGES
 66
     1
 10
0.0
 20
0.0
 30
0.0
  0
VERTEX
  5
22F
  8
PROFILEEDGES
 10
361.7585271788093
 20
771.2056318549747
 30
0.0
 40
4.228170840736089
 41
4.228170840736089
  0
VERTEX
  5
230
  8
PROFILEEDGES
 10
366.3431871984407
 20
773.1046602139767
 30
0.0
 40
4.228170840736089
 41
4.228170840736089
  0
SEQEND
  5
46F
  8
PROFILEEDGES
  0
POLYLINE
  5
9F
  8
PROFILEEDGES
 66
     1
 10
0.0
 20
0.0
 30
0.0
  0
VERTEX
  5
231
  8
PROFILEEDGES
 10
366.3431871984407
 20
773.1046602139767
 30
0.0
 40
4.228170840736089
 41
4.228170840736089
  0
VERTEX
  5
232
  8
PROFILEEDGES
 10
370.2801240096659
 20
776.1255780791915
 30
0.0
 40
4.228170840736089
 41
4.228170840736089
  0
SEQEND
  5
470
  8
PROFILEEDGES
  0
POLYLINE
  5
A0
  8
PROFILEEDGES
 66
     1
 10
0.0
 20
0.0
 30
0.0
  0
VERTEX
  5
233
  8
PROFILEEDGES
 10
370.2801240096659
 20
776.1255780791915
 30
0.0
 40
4.228170840736089
 41
4.228170840736089
  0
VERTEX
  5
234
  8
PROFILEEDGES
 10
373.3010418748667
 20
780.0625148904088
 30
0.0
 40
4.228170840736089
 41
4.228170840736089
  0
SEQEND
  5
471
  8
PROFILEEDGES
  0
POLYLINE
  5
A1
  8
PROFILEEDGES
 66
     1
 10
0.0
 20
0.0
 30
0.0
  0
VERTEX
  5
235
  8
PROFILEEDGES
 10
373.3010418748667
 20
780.0625148904088
 30
0.0
 40
4.228170840736089
 41
4.228170840736089
  0
VERTEX
  5
236
  8
PROFILEEDGES
 10
375.2000702338705
 20
784.6471749100391
 30
0.0
 40
4.228170840736089
 41
4.228170840736089
  0
SEQEND
  5
472
  8
PROFILEEDGES
  0
POLYLINE
  5
A2
  8
PROFILEEDGES
 66
     1
 10
0.0
 20
0.0
 30
0.0
  0
VERTEX
  5
237
  8
PROFILEEDGES
 10
375.2000702338705
 20
784.6471749100391
 30
0.0
 40
4.228170840736089
 41
4.228170840736089
  0
VERTEX
  5
238
  8
PROFILEEDGES
 10
375.8477934422872
 20
789.5671211342534
 30
0.0
 40
4.228170840736089
 41
4.228170840736089
  0
SEQEND
  5
473
  8
PROFILEEDGES
  0
POLYLINE
  5
A3
  8
PROFILEEDGES
 66
     1
 10
0.0
 20
0.0
 30
0.0
  0
VERTEX
  5
239
  8
PROFILEEDGES
 10
375.8477934422872
 20
789.5671211342534
 30
0.0
 40
4.228170840736089
 41
4.228170840736089
  0
VERTEX
  5
23A
  8
PROFILEEDGES
 10
375.2000702338692
 20
794.487067358472
 30
0.0
 40
4.228170840736089
 41
4.228170840736089
  0
SEQEND
  5
474
  8
PROFILEEDGES
  0
POLYLINE
  5
A4
  8
PROFILEEDGES
 66
     1
 10
0.0
 20
0.0
 30
0.0
  0
VERTEX
  5
23B
  8
PROFILEEDGES
 10
375.2000702338692
 20
794.487067358472
 30
0.0
 40
4.228170840736089
 41
4.228170840736089
  0
VERTEX
  5
23C
  8
PROFILEEDGES
 10
373.3010418748701
 20
799.0717273781005
 30
0.0
 40
4.228170840736089
 41
4.228170840736089
  0
SEQEND
  5
475
  8
PROFILEEDGES
  0
POLYLINE
  5
A5
  8
PROFILEEDGES
 66
     1
 10
0.0
 20
0.0
 30
0.0
  0
VERTEX
  5
23D
  8
PROFILEEDGES
 10
373.3010418748701
 20
799.0717273781005
 30
0.0
 40
4.228170840736089
 41
4.228170840736089
  0
VERTEX
  5
23E
  8
PROFILEEDGES
 10
370.2801240096596
 20
803.008664189317
 30
0.0
 40
4.228170840736089
 41
4.228170840736089
  0
SEQEND
  5
476
  8
PROFILEEDGES
  0
POLYLINE
  5
A6
  8
PROFILEEDGES
 66
     1
 10
0.0
 20
0.0
 30
0.0
  0
VERTEX
  5
23F
  8
PROFILEEDGES
 10
370.2801240096596
 20
803.008664189317
 30
0.0
 40
4.228170840736089
 41
4.228170840736089
  0
VERTEX
  5
240
  8
PROFILEEDGES
 10
366.3431871984394
 20
806.0295820545293
 30
0.0
 40
4.228170840736089
 41
4.228170840736089
  0
SEQEND
  5
477
  8
PROFILEEDGES
  0
POLYLINE
  5
A7
  8
PROFILEEDGES
 66
     1
 10
0.0
 20
0.0
 30
0.0
  0
VERTEX
  5
241
  8
PROFILEEDGES
 10
366.3431871984394
 20
806.0295820545293
 30
0.0
 40
4.228170840736089
 41
4.228170840736089
  0
VERTEX
  5
242
  8
PROFILEEDGES
 10
361.7585271788078
 20
807.9286104135302
 30
0.0
 40
4.228170840736089
 41
4.228170840736089
  0
SEQEND
  5
478
  8
PROFILEEDGES
  0
POLYLINE
  5
A8
  8
PROFILEEDGES
 66
     1
 10
0.0
 20
0.0
 30
0.0
  0
VERTEX
  5
243
  8
PROFILEEDGES
 10
361.7585271788078
 20
807.9286104135302
 30
0.0
 40
4.228170840736089
 41
4.228170840736089
  0
VERTEX
  5
244
  8
PROFILEEDGES
 10
356.8385809545906
 20
808.5763336219443
 30
0.0
 40
4.228170840736089
 41
4.228170840736089
  0
SEQEND
  5
479
  8
PROFILEEDGES
  0
POLYLINE
  5
A9
  8
PROFILEEDGES
 66
     1
 10
0.0
 20
0.0
 30
0.0
  0
VERTEX
  5
245
  8
PROFILEEDGES
 10
356.8385809545906
 20
808.5763336219443
 30
0.0
 40
4.228170840736089
 41
4.228170840736089
  0
VERTEX
  5
246
  8
PROFILEEDGES
 10
351.9186347303763
 20
807.928610413529
 30
0.0
 40
4.228170840736089
 41
4.228170840736089
  0
SEQEND
  5
47A
  8
PROFILEEDGES
  0
POLYLINE
  5
AA
  8
PROFILEEDGES
 66
     1
 10
0.0
 20
0.0
 30
0.0
  0
VERTEX
  5
247
  8
PROFILEEDGES
 10
351.9186347303763
 20
807.928610413529
 30
0.0
 40
4.228170840736089
 41
4.228170840736089
  0
VERTEX
  5
248
  8
PROFILEEDGES
 10
347.3339747107449
 20
806.0295820545284
 30
0.0
 40
4.228170840736089
 41
4.228170840736089
  0
SEQEND
  5
47B
  8
PROFILEEDGES
  0
POLYLINE
  5
AB
  8
PROFILEEDGES
 66
     1
 10
0.0
 20
0.0
 30
0.0
  0
VERTEX
  5
249
  8
PROFILEEDGES
 10
347.3339747107449
 20
806.0295820545284
 30
0.0
 40
4.228170840736089
 41
4.228170840736089
  0
VERTEX
  5
24A
  8
PROFILEEDGES
 10
343.3970378995226
 20
803.008664189315
 30
0.0
 40
4.228170840736089
 41
4.228170840736089
  0
SEQEND
  5
47C
  8
PROFILEEDGES
  0
POLYLINE
  5
AC
  8
PROFILEEDGES
 66
     1
 10
0.0
 20
0.0
 30
0.0
  0
VERTEX
  5
24B
  8
PROFILEEDGES
 10
343.3970378995226
 20
803.008664189315
 30
0.0
 40
4.228170840736089
 41
4.228170840736089
  0
VERTEX
  5
24C
  8
PROFILEEDGES
 10
340.376120034316
 20
799.0717273780963
 30
0.0
 40
4.228170840736089
 41
4.228170840736089
  0
SEQEND
  5
47D
  8
PROFILEEDGES
  0
POLYLINE
  5
AD
  8
PROFILEEDGES
 66
     1
 10
0.0
 20
0.0
 30
0.0
  0
VERTEX
  5
24D
  8
PROFILEEDGES
 10
340.376120034316
 20
799.0717273780963
 30
0.0
 40
4.228170840736089
 41
4.228170840736089
  0
VERTEX
  5
24E
  8
PROFILEEDGES
 10
338.4770916753122
 20
794.4870673584675
 30
0.0
 40
4.228170840736089
 41
4.228170840736089
  0
SEQEND
  5
47E
  8
PROFILEEDGES
  0
POLYLINE
  5
AE
  8
PROFILEEDGES
 66
     1
 10
0.0
 20
0.0
 30
0.0
  0
VERTEX
  5
24F
  8
PROFILEEDGES
 10
338.4770916753122
 20
794.4870673584675
 30
0.0
 40
4.228170840736089
 41
4.228170840736089
  0
VERTEX
  5
250
  8
PROFILEEDGES
 10
337.8293684668953
 20
789.5671211342503
 30
0.0
 40
4.228170840736089
 41
4.228170840736089
  0
SEQEND
  5
47F
  8
PROFILEEDGES
  0
POLYLINE
  5
AF
  8
PROFILEEDGES
 66
     1
 10
0.0
 20
0.0
 30
0.0
  0
VERTEX
  5
251
  8
PROFILEEDGES
 10
337.8293684668953
 20
789.5671211342503
 30
0.0
 40
4.228170840736089
 41
4.228170840736089
  0
VERTEX
  5
252
  8
PROFILEEDGES
 10
338.4770916753135
 20
784.6471749100374
 30
0.0
 40
4.228170840736089
 41
4.228170840736089
  0
SEQEND
  5
480
  8
PROFILEEDGES
  0
POLYLINE
  5
B0
  8
PROFILEEDGES
 66
     1
 10
0.0
 20
0.0
 30
0.0
  0
VERTEX
  5
253
  8
PROFILEEDGES
 10
338.4770916753135
 20
784.6471749100374
 30
0.0
 40
4.228170840736089
 41
4.228170840736089
  0
VERTEX
  5
254
  8
PROFILEEDGES
 10
340.3761200343155
 20
780.0625148904061
 30
0.0
 40
4.228170840736089
 41
4.228170840736089
  0
SEQEND
  5
481
  8
PROFILEEDGES
  0
POLYLINE
  5
B1
  8
PROFILEEDGES
 66
     1
 10
0.0
 20
0.0
 30
0.0
  0
VERTEX
  5
255
  8
PROFILEEDGES
 10
340.3761200343155
 20
780.0625148904061
 30
0.0
 40
4.228170840736089
 41
4.228170840736089
  0
VERTEX
  5
256
  8
PROFILEEDGES
 10
343.397037899526
 20
776.1255780791895
 30
0.0
 40
4.228170840736089
 41
4.228170840736089
  0
SEQEND
  5
482
  8
PROFILEEDGES
  0
POLYLINE
  5
B2
  8
PROFILEEDGES
 66
     1
 10
0.0
 20
0.0
 30
0.0
  0
VERTEX
  5
257
  8
PROFILEEDGES
 10
343.397037899526
 20
776.1255780791895
 30
0.0
 40
4.228170840736089
 41
4.228170840736089
  0
VERTEX
  5
258
  8
PROFILEEDGES
 10
347.3339747107462
 20
773.1046602139744
 30
0.0
 40
4.228170840736089
 41
4.228170840736089
  0
SEQEND
  5
483
  8
PROFILEEDGES
  0
POLYLINE
  5
B3
  8
PROFILEEDGES
 66
     1
 10
0.0
 20
0.0
 30
0.0
  0
VERTEX
  5
259
  8
PROFILEEDGES
 10
-429.5821879745219
 20
803.0086641892192
 30
0.0
 40
4.228170840736089
 41
4.228170840736089
  0
VERTEX
  5
25A
  8
PROFILEEDGES
 10
-433.5191247857392
 20
806.029582054433
 30
0.0
 40
4.228170840736089
 41
4.228170840736089
  0
SEQEND
  5
484
  8
PROFILEEDGES
  0
POLYLINE
  5
B4
  8
PROFILEEDGES
 66
     1
 10
0.0
 20
0.0
 30
0.0
  0
VERTEX
  5
25B
  8
PROFILEEDGES
 10
-433.5191247857392
 20
806.029582054433
 30
0.0
 40
4.228170840736089
 41
4.228170840736089
  0
VERTEX
  5
25C
  8
PROFILEEDGES
 10
-438.1037848053681
 20
807.9286104134353
 30
0.0
 40
4.228170840736089
 41
4.228170840736089
  0
SEQEND
  5
485
  8
PROFILEEDGES
  0
POLYLINE
  5
B5
  8
PROFILEEDGES
 66
     1
 10
0.0
 20
0.0
 30
0.0
  0
VERTEX
  5
25D
  8
PROFILEEDGES
 10
-438.1037848053681
 20
807.9286104134353
 30
0.0
 40
4.228170840736089
 41
4.228170840736089
  0
VERTEX
  5
25E
  8
PROFILEEDGES
 10
-443.0237310295853
 20
808.5763336218464
 30
0.0
 40
4.228170840736089
 41
4.228170840736089
  0
SEQEND
  5
486
  8
PROFILEEDGES
  0
POLYLINE
  5
B6
  8
PROFILEEDGES
 66
     1
 10
0.0
 20
0.0
 30
0.0
  0
VERTEX
  5
25F
  8
PROFILEEDGES
 10
-443.0237310295853
 20
808.5763336218464
 30
0.0
 40
4.228170840736089
 41
4.228170840736089
  0
VERTEX
  5
260
  8
PROFILEEDGES
 10
-447.9436772538025
 20
807.9286104134328
 30
0.0
 40
4.228170840736089
 41
4.228170840736089
  0
SEQEND
  5
487
  8
PROFILEEDGES
  0
POLYLINE
  5
B7
  8
PROFILEEDGES
 66
     1
 10
0.0
 20
0.0
 30
0.0
  0
VERTEX
  5
261
  8
PROFILEEDGES
 10
-447.9436772538025
 20
807.9286104134328
 30
0.0
 40
4.228170840736089
 41
4.228170840736089
  0
VERTEX
  5
262
  8
PROFILEEDGES
 10
-452.528337273428
 20
806.0295820544308
 30
0.0
 40
4.228170840736089
 41
4.228170840736089
  0
SEQEND
  5
488
  8
PROFILEEDGES
  0
POLYLINE
  5
B8
  8
PROFILEEDGES
 66
     1
 10
0.0
 20
0.0
 30
0.0
  0
VERTEX
  5
263
  8
PROFILEEDGES
 10
-452.528337273428
 20
806.0295820544308
 30
0.0
 40
4.228170840736089
 41
4.228170840736089
  0
VERTEX
  5
264
  8
PROFILEEDGES
 10
-456.4652740846387
 20
803.0086641892159
 30
0.0
 40
4.228170840736089
 41
4.228170840736089
  0
SEQEND
  5
489
  8
PROFILEEDGES
  0
POLYLINE
  5
B9
  8
PROFILEEDGES
 66
     1
 10
0.0
 20
0.0
 30
0.0
  0
VERTEX
  5
265
  8
PROFILEEDGES
 10
-456.4652740846387
 20
803.0086641892159
 30
0.0
 40
4.228170840736089
 41
4.228170840736089
  0
VERTEX
  5
266
  8
PROFILEEDGES
 10
-459.4861919498626
 20
799.0717273780001
 30
0.0
 40
4.228170840736089
 41
4.228170840736089
  0
SEQEND
  5
48A
  8
PROFILEEDGES
  0
POLYLINE
  5
BA
  8
PROFILEEDGES
 66
     1
 10
0.0
 20
0.0
 30
0.0
  0
VERTEX
  5
267
  8
PROFILEEDGES
 10
-459.4861919498626
 20
799.0717273780001
 30
0.0
 40
4.228170840736089
 41
4.228170840736089
  0
VERTEX
  5
268
  8
PROFILEEDGES
 10
-461.3852203088607
 20
794.4870673583698
 30
0.0
 40
4.228170840736089
 41
4.228170840736089
  0
SEQEND
  5
48B
  8
PROFILEEDGES
  0
POLYLINE
  5
BB
  8
PROFILEEDGES
 66
     1
 10
0.0
 20
0.0
 30
0.0
  0
VERTEX
  5
269
  8
PROFILEEDGES
 10
-461.3852203088607
 20
794.4870673583698
 30
0.0
 40
4.228170840736089
 41
4.228170840736089
  0
VERTEX
  5
26A
  8
PROFILEEDGES
 10
-462.032943517266
 20
789.5671211341524
 30
0.0
 40
4.228170840736089
 41
4.228170840736089
  0
SEQEND
  5
48C
  8
PROFILEEDGES
  0
POLYLINE
  5
BC
  8
PROFILEEDGES
 66
     1
 10
0.0
 20
0.0
 30
0.0
  0
VERTEX
  5
26B
  8
PROFILEEDGES
 10
-462.032943517266
 20
789.5671211341524
 30
0.0
 40
4.228170840736089
 41
4.228170840736089
  0
VERTEX
  5
26C
  8
PROFILEEDGES
 10
-461.3852203088595
 20
784.6471749099384
 30
0.0
 40
4.228170840736089
 41
4.228170840736089
  0
SEQEND
  5
48D
  8
PROFILEEDGES
  0
POLYLINE
  5
BD
  8
PROFILEEDGES
 66
     1
 10
0.0
 20
0.0
 30
0.0
  0
VERTEX
  5
26D
  8
PROFILEEDGES
 10
-461.3852203088595
 20
784.6471749099384
 30
0.0
 40
4.228170840736089
 41
4.228170840736089
  0
VERTEX
  5
26E
  8
PROFILEEDGES
 10
-459.4861919498545
 20
780.062514890307
 30
0.0
 40
4.228170840736089
 41
4.228170840736089
  0
SEQEND
  5
48E
  8
PROFILEEDGES
  0
POLYLINE
  5
BE
  8
PROFILEEDGES
 66
     1
 10
0.0
 20
0.0
 30
0.0
  0
VERTEX
  5
26F
  8
PROFILEEDGES
 10
-459.4861919498545
 20
780.062514890307
 30
0.0
 40
4.228170840736089
 41
4.228170840736089
  0
VERTEX
  5
270
  8
PROFILEEDGES
 10
-456.4652740846384
 20
776.1255780790905
 30
0.0
 40
4.228170840736089
 41
4.228170840736089
  0
SEQEND
  5
48F
  8
PROFILEEDGES
  0
POLYLINE
  5
BF
  8
PROFILEEDGES
 66
     1
 10
0.0
 20
0.0
 30
0.0
  0
VERTEX
  5
271
  8
PROFILEEDGES
 10
-456.4652740846384
 20
776.1255780790905
 30
0.0
 40
4.228170840736089
 41
4.228170840736089
  0
VERTEX
  5
272
  8
PROFILEEDGES
 10
-452.5283372734239
 20
773.1046602138753
 30
0.0
 40
4.228170840736089
 41
4.228170840736089
  0
SEQEND
  5
490
  8
PROFILEEDGES
  0
POLYLINE
  5
C0
  8
PROFILEEDGES
 66
     1
 10
0.0
 20
0.0
 30
0.0
  0
VERTEX
  5
273
  8
PROFILEEDGES
 10
-452.5283372734239
 20
773.1046602138753
 30
0.0
 40
4.228170840736089
 41
4.228170840736089
  0
VERTEX
  5
274
  8
PROFILEEDGES
 10
-447.9436772537893
 20
771.2056318548744
 30
0.0
 40
4.228170840736089
 41
4.228170840736089
  0
SEQEND
  5
491
  8
PROFILEEDGES
  0
POLYLINE
  5
C1
  8
PROFILEEDGES
 66
     1
 10
0.0
 20
0.0
 30
0.0
  0
VERTEX
  5
275
  8
PROFILEEDGES
 10
-447.9436772537893
 20
771.2056318548744
 30
0.0
 40
4.228170840736089
 41
4.228170840736089
  0
VERTEX
  5
276
  8
PROFILEEDGES
 10
-443.0237310295836
 20
770.5579086464646
 30
0.0
 40
4.228170840736089
 41
4.228170840736089
  0
SEQEND
  5
492
  8
PROFILEEDGES
  0
POLYLINE
  5
C2
  8
PROFILEEDGES
 66
     1
 10
0.0
 20
0.0
 30
0.0
  0
VERTEX
  5
277
  8
PROFILEEDGES
 10
-443.0237310295836
 20
770.5579086464646
 30
0.0
 40
4.228170840736089
 41
4.228170840736089
  0
VERTEX
  5
278
  8
PROFILEEDGES
 10
-438.1037848053636
 20
771.2056318548754
 30
0.0
 40
4.228170840736089
 41
4.228170840736089
  0
SEQEND
  5
493
  8
PROFILEEDGES
  0
POLYLINE
  5
C3
  8
PROFILEEDGES
 66
     1
 10
0.0
 20
0.0
 30
0.0
  0
VERTEX
  5
279
  8
PROFILEEDGES
 10
-438.1037848053636
 20
771.2056318548754
 30
0.0
 40
4.228170840736089
 41
4.228170840736089
  0
VERTEX
  5
27A
  8
PROFILEEDGES
 10
-433.5191247857351
 20
773.104660213879
 30
0.0
 40
4.228170840736089
 41
4.228170840736089
  0
SEQEND
  5
494
  8
PROFILEEDGES
  0
POLYLINE
  5
C4
  8
PROFILEEDGES
 66
     1
 10
0.0
 20
0.0
 30
0.0
  0
VERTEX
  5
27B
  8
PROFILEEDGES
 10
-433.5191247857351
 20
773.104660213879
 30
0.0
 40
4.228170840736089
 41
4.228170840736089
  0
VERTEX
  5
27C
  8
PROFILEEDGES
 10
-429.5821879745157
 20
776.1255780790937
 30
0.0
 40
4.228170840736089
 41
4.228170840736089
  0
SEQEND
  5
495
  8
PROFILEEDGES
  0
POLYLINE
  5
C5
  8
PROFILEEDGES
 66
     1
 10
0.0
 20
0.0
 30
0.0
  0
VERTEX
  5
27D
  8
PROFILEEDGES
 10
-429.5821879745157
 20
776.1255780790937
 30
0.0
 40
4.228170840736089
 41
4.228170840736089
  0
VERTEX
  5
27E
  8
PROFILEEDGES
 10
-426.5612701092977
 20
780.062514890311
 30
0.0
 40
4.228170840736089
 41
4.228170840736089
  0
SEQEND
  5
496
  8
PROFILEEDGES
  0
POLYLINE
  5
C6
  8
PROFILEEDGES
 66
     1
 10
0.0
 20
0.0
 30
0.0
  0
VERTEX
  5
27F
  8
PROFILEEDGES
 10
-426.5612701092977
 20
780.062514890311
 30
0.0
 40
4.228170840736089
 41
4.228170840736089
  0
VERTEX
  5
280
  8
PROFILEEDGES
 10
-424.6622417503082
 20
784.6471749099428
 30
0.0
 40
4.228170840736089
 41
4.228170840736089
  0
SEQEND
  5
497
  8
PROFILEEDGES
  0
POLYLINE
  5
C7
  8
PROFILEEDGES
 66
     1
 10
0.0
 20
0.0
 30
0.0
  0
VERTEX
  5
281
  8
PROFILEEDGES
 10
-424.6622417503082
 20
784.6471749099428
 30
0.0
 40
4.228170840736089
 41
4.228170840736089
  0
VERTEX
  5
282
  8
PROFILEEDGES
 10
-424.0145185418884
 20
789.5671211341571
 30
0.0
 40
4.228170840736089
 41
4.228170840736089
  0
SEQEND
  5
498
  8
PROFILEEDGES
  0
POLYLINE
  5
C8
  8
PROFILEEDGES
 66
     1
 10
0.0
 20
0.0
 30
0.0
  0
VERTEX
  5
283
  8
PROFILEEDGES
 10
-424.0145185418884
 20
789.5671211341571
 30
0.0
 40
4.228170840736089
 41
4.228170840736089
  0
VERTEX
  5
284
  8
PROFILEEDGES
 10
-424.6622417503036
 20
794.4870673583714
 30
0.0
 40
4.228170840736089
 41
4.228170840736089
  0
SEQEND
  5
499
  8
PROFILEEDGES
  0
POLYLINE
  5
C9
  8
PROFILEEDGES
 66
     1
 10
0.0
 20
0.0
 30
0.0
  0
VERTEX
  5
285
  8
PROFILEEDGES
 10
-424.6622417503036
 20
794.4870673583714
 30
0.0
 40
4.228170840736089
 41
4.228170840736089
  0
VERTEX
  5
286
  8
PROFILEEDGES
 10
-426.5612701093057
 20
799.0717273780026
 30
0.0
 40
4.228170840736089
 41
4.228170840736089
  0
SEQEND
  5
49A
  8
PROFILEEDGES
  0
POLYLINE
  5
CA
  8
PROFILEEDGES
 66
     1
 10
0.0
 20
0.0
 30
0.0
  0
VERTEX
  5
287
  8
PROFILEEDGES
 10
-426.5612701093057
 20
799.0717273780026
 30
0.0
 40
4.228170840736089
 41
4.228170840736089
  0
VERTEX
  5
288
  8
PROFILEEDGES
 10
-429.5821879745219
 20
803.0086641892192
 30
0.0
 40
4.228170840736089
 41
4.228170840736089
  0
SEQEND
  5
49B
  8
PROFILEEDGES
  0
POLYLINE
  5
CB
  8
PROFILEEDGES
 66
     1
 10
0.0
 20
0.0
 30
0.0
  0
VERTEX
  5
289
  8
PROFILEEDGES
 10
-443.9762310294718
 20
-54.86403485801431
 30
0.0
 40
4.228170840736089
 41
4.228170840736089
  0
VERTEX
  5
28A
  8
PROFILEEDGES
 10
363.2576583854265
 20
-54.86403485791426
 30
0.0
 40
4.228170840736089
 41
4.228170840736089
  0
SEQEND
  5
49C
  8
PROFILEEDGES
  0
POLYLINE
  5
CC
  8
PROFILEEDGES
 66
     1
 10
0.0
 20
0.0
 30
0.0
  0
VERTEX
  5
28B
  8
PROFILEEDGES
 10
-443.9762310294718
 20
-54.86403485801431
 30
0.0
 40
4.228170840736089
 41
4.228170840736089
  0
VERTEX
  5
28C
  8
PROFILEEDGES
 10
-449.5547861536914
 20
-54.19488060907017
 30
0.0
 40
4.228170840736089
 41
4.228170840736089
  0
SEQEND
  5
49D
  8
PROFILEEDGES
  0
POLYLINE
  5
CD
  8
PROFILEEDGES
 66
     1
 10
0.0
 20
0.0
 30
0.0
  0
VERTEX
  5
28D
  8
PROFILEEDGES
 10
-449.5547861536914
 20
-54.19488060907017
 30
0.0
 40
4.228170840736089
 41
4.228170840736089
  0
VERTEX
  5
28E
  8
PROFILEEDGES
 10
-455.0116571821542
 20
-52.85674636259197
 30
0.0
 40
4.228170840736089
 41
4.228170840736089
  0
SEQEND
  5
49E
  8
PROFILEEDGES
  0
POLYLINE
  5
CE
  8
PROFILEEDGES
 66
     1
 10
0.0
 20
0.0
 30
0.0
  0
VERTEX
  5
28F
  8
PROFILEEDGES
 10
-455.0116571821542
 20
-52.85674636259197
 30
0.0
 40
4.228170840736089
 41
4.228170840736089
  0
VERTEX
  5
290
  8
PROFILEEDGES
 10
-460.2669235295871
 20
-50.86923024936667
 30
0.0
 40
4.228170840736089
 41
4.228170840736089
  0
SEQEND
  5
49F
  8
PROFILEEDGES
  0
POLYLINE
  5
CF
  8
PROFILEEDGES
 66
     1
 10
0.0
 20
0.0
 30
0.0
  0
VERTEX
  5
291
  8
PROFILEEDGES
 10
-460.2669235295871
 20
-50.86923024936667
 30
0.0
 40
4.228170840736089
 41
4.228170840736089
  0
VERTEX
  5
292
  8
PROFILEEDGES
 10
-465.2436172852746
 20
-48.2614411580158
 30
0.0
 40
4.228170840736089
 41
4.228170840736089
  0
SEQEND
  5
4A0
  8
PROFILEEDGES
  0
POLYLINE
  5
D0
  8
PROFILEEDGES
 66
     1
 10
0.0
 20
0.0
 30
0.0
  0
VERTEX
  5
293
  8
PROFILEEDGES
 10
-465.2436172852746
 20
-48.2614411580158
 30
0.0
 40
4.228170840736089
 41
4.228170840736089
  0
VERTEX
  5
294
  8
PROFILEEDGES
 10
-469.868850474478
 20
-45.0715724101966
 30
0.0
 40
4.228170840736089
 41
4.228170840736089
  0
SEQEND
  5
4A1
  8
PROFILEEDGES
  0
POLYLINE
  5
D1
  8
PROFILEEDGES
 66
     1
 10
0.0
 20
0.0
 30
0.0
  0
VERTEX
  5
295
  8
PROFILEEDGES
 10
-469.868850474478
 20
-45.0715724101966
 30
0.0
 40
4.228170840736089
 41
4.228170840736089
  0
VERTEX
  5
296
  8
PROFILEEDGES
 10
-474.0748825657666
 20
-41.34634238643979
 30
0.0
 40
4.228170840736089
 41
4.228170840736089
  0
SEQEND
  5
4A2
  8
PROFILEEDGES
  0
POLYLINE
  5
D2
  8
PROFILEEDGES
 66
     1
 10
0.0
 20
0.0
 30
0.0
  0
VERTEX
  5
297
  8
PROFILEEDGES
 10
-474.0748825657666
 20
-41.34634238643979
 30
0.0
 40
4.228170840736089
 41
4.228170840736089
  0
VERTEX
  5
298
  8
PROFILEEDGES
 10
-477.8001125895389
 20
-37.14031029516224
 30
0.0
 40
4.228170840736089
 41
4.228170840736089
  0
SEQEND
  5
4A3
  8
PROFILEEDGES
  0
POLYLINE
  5
D3
  8
PROFILEEDGES
 66
     1
 10
0.0
 20
0.0
 30
0.0
  0
VERTEX
  5
299
  8
PROFILEEDGES
 10
-477.8001125895389
 20
-37.14031029516224
 30
0.0
 40
4.228170840736089
 41
4.228170840736089
  0
VERTEX
  5
29A
  8
PROFILEEDGES
 10
-480.9899813373592
 20
-32.51507710596686
 30
0.0
 40
4.228170840736089
 41
4.228170840736089
  0
SEQEND
  5
4A4
  8
PROFILEEDGES
  0
POLYLINE
  5
D4
  8
PROFILEEDGES
 66
     1
 10
0.0
 20
0.0
 30
0.0
  0
VERTEX
  5
29B
  8
PROFILEEDGES
 10
-480.9899813373592
 20
-32.51507710596686
 30
0.0
 40
4.228170840736089
 41
4.228170840736089
  0
VERTEX
  5
29C
  8
PROFILEEDGES
 10
-483.5977704287228
 20
-27.53838335028714
 30
0.0
 40
4.228170840736089
 41
4.228170840736089
  0
SEQEND
  5
4A5
  8
PROFILEEDGES
  0
POLYLINE
  5
D5
  8
PROFILEEDGES
 66
     1
 10
0.0
 20
0.0
 30
0.0
  0
VERTEX
  5
29D
  8
PROFILEEDGES
 10
-483.5977704287228
 20
-27.53838335028714
 30
0.0
 40
4.228170840736089
 41
4.228170840736089
  0
VERTEX
  5
29E
  8
PROFILEEDGES
 10
-485.5852865419624
 20
-22.28311700285476
 30
0.0
 40
4.228170840736089
 41
4.228170840736089
  0
SEQEND
  5
4A6
  8
PROFILEEDGES
  0
POLYLINE
  5
D6
  8
PROFILEEDGES
 66
     1
 10
0.0
 20
0.0
 30
0.0
  0
VERTEX
  5
29F
  8
PROFILEEDGES
 10
-485.5852865419624
 20
-22.28311700285476
 30
0.0
 40
4.228170840736089
 41
4.228170840736089
  0
VERTEX
  5
2A0
  8
PROFILEEDGES
 10
-486.923420788452
 20
-16.82624597439948
 30
0.0
 40
4.228170840736089
 41
4.228170840736089
  0
SEQEND
  5
4A7
  8
PROFILEEDGES
  0
POLYLINE
  5
D7
  8
PROFILEEDGES
 66
     1
 10
0.0
 20
0.0
 30
0.0
  0
VERTEX
  5
2A1
  8
PROFILEEDGES
 10
-486.923420788452
 20
-16.82624597439948
 30
0.0
 40
4.228170840736089
 41
4.228170840736089
  0
VERTEX
  5
2A2
  8
PROFILEEDGES
 10
-487.5925750374105
 20
-11.24769085018148
 30
0.0
 40
4.228170840736089
 41
4.228170840736089
  0
SEQEND
  5
4A8
  8
PROFILEEDGES
  0
POLYLINE
  5
D8
  8
PROFILEEDGES
 66
     1
 10
0.0
 20
0.0
 30
0.0
  0
VERTEX
  5
2A3
  8
PROFILEEDGES
 10
-487.5925750374105
 20
-11.24769085018148
 30
0.0
 40
4.228170840736089
 41
4.228170840736089
  0
VERTEX
  5
2A4
  8
PROFILEEDGES
 10
-487.5925750375055
 20
790.5196211341587
 30
0.0
 40
4.228170840736089
 41
4.228170840736089
  0
SEQEND
  5
4A9
  8
PROFILEEDGES
  0
POLYLINE
  5
D9
  8
PROFILEEDGES
 66
     1
 10
0.0
 20
0.0
 30
0.0
  0
VERTEX
  5
2A5
  8
PROFILEEDGES
 10
-487.5925750375055
 20
790.5196211341587
 30
0.0
 40
4.228170840736089
 41
4.228170840736089
  0
VERTEX
  5
2A6
  8
PROFILEEDGES
 10
-487.2486471374136
 20
795.986198564916
 30
0.0
 40
4.228170840736089
 41
4.228170840736089
  0
SEQEND
  5
4AA
  8
PROFILEEDGES
  0
POLYLINE
  5
DA
  8
PROFILEEDGES
 66
     1
 10
0.0
 20
0.0
 30
0.0
  0
VERTEX
  5
2A7
  8
PROFILEEDGES
 10
-487.2486471374136
 20
795.986198564916
 30
0.0
 40
4.228170840736089
 41
4.228170840736089
  0
VERTEX
  5
2A8
  8
PROFILEEDGES
 10
-486.2222873856194
 20
801.3665648040094
 30
0.0
 40
4.228170840736089
 41
4.228170840736089
  0
SEQEND
  5
4AB
  8
PROFILEEDGES
  0
POLYLINE
  5
DB
  8
PROFILEEDGES
 66
     1
 10
0.0
 20
0.0
 30
0.0
  0
VERTEX
  5
2A9
  8
PROFILEEDGES
 10
-486.2222873856194
 20
801.3665648040094
 30
0.0
 40
4.228170840736089
 41
4.228170840736089
  0
VERTEX
  5
2AA
  8
PROFILEEDGES
 10
-484.5296820885198
 20
806.5758682617808
 30
0.0
 40
4.228170840736089
 41
4.228170840736089
  0
SEQEND
  5
4AC
  8
PROFILEEDGES
  0
POLYLINE
  5
DC
  8
PROFILEEDGES
 66
     1
 10
0.0
 20
0.0
 30
0.0
  0
VERTEX
  5
2AB
  8
PROFILEEDGES
 10
-484.5296820885198
 20
806.5758682617808
 30
0.0
 40
4.228170840736089
 41
4.228170840736089
  0
VERTEX
  5
2AC
  8
PROFILEEDGES
 10
-482.1975246427691
 20
811.5319551108112
 30
0.0
 40
4.228170840736089
 41
4.228170840736089
  0
SEQEND
  5
4AD
  8
PROFILEEDGES
  0
POLYLINE
  5
DD
  8
PROFILEEDGES
 66
     1
 10
0.0
 20
0.0
 30
0.0
  0
VERTEX
  5
2AD
  8
PROFILEEDGES
 10
-482.1975246427691
 20
811.5319551108112
 30
0.0
 40
4.228170840736089
 41
4.228170840736089
  0
VERTEX
  5
2AE
  8
PROFILEEDGES
 10
-479.2625945644455
 20
816.1566649008698
 30
0.0
 40
4.228170840736089
 41
4.228170840736089
  0
SEQEND
  5
4AE
  8
PROFILEEDGES
  0
POLYLINE
  5
DE
  8
PROFILEEDGES
 66
     1
 10
0.0
 20
0.0
 30
0.0
  0
VERTEX
  5
2AF
  8
PROFILEEDGES
 10
-479.2625945644455
 20
816.1566649008698
 30
0.0
 40
4.228170840736089
 41
4.228170840736089
  0
VERTEX
  5
2B0
  8
PROFILEEDGES
 10
-475.7711774541267
 20
820.3770631958986
 30
0.0
 40
4.228170840736089
 41
4.228170840736089
  0
SEQEND
  5
4AF
  8
PROFILEEDGES
  0
POLYLINE
  5
DF
  8
PROFILEEDGES
 66
     1
 10
0.0
 20
0.0
 30
0.0
  0
VERTEX
  5
2B1
  8
PROFILEEDGES
 10
-475.7711774541267
 20
820.3770631958986
 30
0.0
 40
4.228170840736089
 41
4.228170840736089
  0
VERTEX
  5
2B2
  8
PROFILEEDGES
 10
-471.7783350453141
 20
824.126591793645
 30
0.0
 40
4.228170840736089
 41
4.228170840736089
  0
SEQEND
  5
4B0
  8
PROFILEEDGES
  0
POLYLINE
  5
E0
  8
PROFILEEDGES
 66
     1
 10
0.0
 20
0.0
 30
0.0
  0
VERTEX
  5
2B3
  8
PROFILEEDGES
 10
-471.7783350453141
 20
824.126591793645
 30
0.0
 40
4.228170840736089
 41
4.228170840736089
  0
VERTEX
  5
2B4
  8
PROFILEEDGES
 10
-467.3470368480093
 20
827.3461183882599
 30
0.0
 40
4.228170840736089
 41
4.228170840736089
  0
SEQEND
  5
4B1
  8
PROFILEEDGES
  0
POLYLINE
  5
E1
  8
PROFILEEDGES
 66
     1
 10
0.0
 20
0.0
 30
0.0
  0
VERTEX
  5
2B5
  8
PROFILEEDGES
 10
-467.3470368480093
 20
827.3461183882599
 30
0.0
 40
4.228170840736089
 41
4.228170840736089
  0
VERTEX
  5
2B6
  8
PROFILEEDGES
 10
-462.5471670819022
 20
829.9848691220959
 30
0.0
 40
4.228170840736089
 41
4.228170840736089
  0
SEQEND
  5
4B2
  8
PROFILEEDGES
  0
POLYLINE
  5
E2
  8
PROFILEEDGES
 66
     1
 10
0.0
 20
0.0
 30
0.0
  0
VERTEX
  5
2B7
  8
PROFILEEDGES
 10
-462.5471670819022
 20
829.9848691220959
 30
0.0
 40
4.228170840736089
 41
4.228170840736089
  0
VERTEX
  5
2B8
  8
PROFILEEDGES
 10
-457.4544225605154
 20
832.0012293197692
 30
0.0
 40
4.228170840736089
 41
4.228170840736089
  0
SEQEND
  5
4B3
  8
PROFILEEDGES
  0
POLYLINE
  5
E3
  8
PROFILEEDGES
 66
     1
 10
0.0
 20
0.0
 30
0.0
  0
VERTEX
  5
2B9
  8
PROFILEEDGES
 10
-457.4544225605154
 20
832.0012293197692
 30
0.0
 40
4.228170840736089
 41
4.228170840736089
  0
VERTEX
  5
2BA
  8
PROFILEEDGES
 10
-452.1491189071971
 20
833.3633997764438
 30
0.0
 40
4.228170840736089
 41
4.228170840736089
  0
SEQEND
  5
4B4
  8
PROFILEEDGES
  0
POLYLINE
  5
E4
  8
PROFILEEDGES
 66
     1
 10
0.0
 20
0.0
 30
0.0
  0
VERTEX
  5
2BB
  8
PROFILEEDGES
 10
357.791080954559
 20
834.0498982503988
 30
0.0
 40
4.228170840736089
 41
4.228170840736089
  0
VERTEX
  5
2BC
  8
PROFILEEDGES
 10
363.4770493693291
 20
833.6776901587141
 30
0.0
 40
4.228170840736089
 41
4.228170840736089
  0
SEQEND
  5
4B5
  8
PROFILEEDGES
  0
POLYLINE
  5
E5
  8
PROFILEEDGES
 66
     1
 10
0.0
 20
0.0
 30
0.0
  0
VERTEX
  5
2BD
  8
PROFILEEDGES
 10
363.4770493693291
 20
833.6776901587141
 30
0.0
 40
4.228170840736089
 41
4.228170840736089
  0
VERTEX
  5
2BE
  8
PROFILEEDGES
 10
369.0659734594203
 20
832.567418483647
 30
0.0
 40
4.228170840736089
 41
4.228170840736089
  0
SEQEND
  5
4B6
  8
PROFILEEDGES
  0
POLYLINE
  5
E6
  8
PROFILEEDGES
 66
     1
 10
0.0
 20
0.0
 30
0.0
  0
VERTEX
  5
2BF
  8
PROFILEEDGES
 10
369.0659734594203
 20
832.567418483647
 30
0.0
 40
4.228170840736089
 41
4.228170840736089
  0
VERTEX
  5
2C0
  8
PROFILEEDGES
 10
374.4624651881052
 20
830.7380326032239
 30
0.0
 40
4.228170840736089
 41
4.228170840736089
  0
SEQEND
  5
4B7
  8
PROFILEEDGES
  0
POLYLINE
  5
E7
  8
PROFILEEDGES
 66
     1
 10
0.0
 20
0.0
 30
0.0
  0
VERTEX
  5
2C1
  8
PROFILEEDGES
 10
374.4624651881052
 20
830.7380326032239
 30
0.0
 40
4.228170840736089
 41
4.228170840736089
  0
VERTEX
  5
2C2
  8
PROFILEEDGES
 10
379.57442082612
 20
828.2207552581226
 30
0.0
 40
4.228170840736089
 41
4.228170840736089
  0
SEQEND
  5
4B8
  8
PROFILEEDGES
  0
POLYLINE
  5
E8
  8
PROFILEEDGES
 66
     1
 10
0.0
 20
0.0
 30
0.0
  0
VERTEX
  5
2C3
  8
PROFILEEDGES
 10
379.57442082612
 20
828.2207552581226
 30
0.0
 40
4.228170840736089
 41
4.228170840736089
  0
VERTEX
  5
2C4
  8
PROFILEEDGES
 10
384.3145929168489
 20
825.058549662729
 30
0.0
 40
4.228170840736089
 41
4.228170840736089
  0
SEQEND
  5
4B9
  8
PROFILEEDGES
  0
POLYLINE
  5
E9
  8
PROFILEEDGES
 66
     1
 10
0.0
 20
0.0
 30
0.0
  0
VERTEX
  5
2C5
  8
PROFILEEDGES
 10
384.3145929168489
 20
825.058549662729
 30
0.0
 40
4.228170840736089
 41
4.228170840736089
  0
VERTEX
  5
2C6
  8
PROFILEEDGES
 10
388.6020793578017
 20
821.3053862375773
 30
0.0
 40
4.228170840736089
 41
4.228170840736089
  0
SEQEND
  5
4BA
  8
PROFILEEDGES
  0
POLYLINE
  5
EA
  8
PROFILEEDGES
 66
     1
 10
0.0
 20
0.0
 30
0.0
  0
VERTEX
  5
2C7
  8
PROFILEEDGES
 10
388.6020793578017
 20
821.3053862375773
 30
0.0
 40
4.228170840736089
 41
4.228170840736089
  0
VERTEX
  5
2C8
  8
PROFILEEDGES
 10
392.3637041838898
 20
817.0253214781359
 30
0.0
 40
4.228170840736089
 41
4.228170840736089
  0
SEQEND
  5
4BB
  8
PROFILEEDGES
  0
POLYLINE
  5
EB
  8
PROFILEEDGES
 66
     1
 10
0.0
 20
0.0
 30
0.0
  0
VERTEX
  5
2C9
  8
PROFILEEDGES
 10
392.3637041838898
 20
817.0253214781359
 30
0.0
 40
4.228170840736089
 41
4.228170840736089
  0
VERTEX
  5
2CA
  8
PROFILEEDGES
 10
395.535266486082
 20
812.2914046811724
 30
0.0
 40
4.228170840736089
 41
4.228170840736089
  0
SEQEND
  5
4BC
  8
PROFILEEDGES
  0
POLYLINE
  5
EC
  8
PROFILEEDGES
 66
     1
 10
0.0
 20
0.0
 30
0.0
  0
VERTEX
  5
2CB
  8
PROFILEEDGES
 10
395.535266486082
 20
812.2914046811724
 30
0.0
 40
4.228170840736089
 41
4.228170840736089
  0
VERTEX
  5
2CC
  8
PROFILEEDGES
 10
398.0626361497964
 20
807.1844311879844
 30
0.0
 40
4.228170840736089
 41
4.228170840736089
  0
SEQEND
  5
4BD
  8
PROFILEEDGES
  0
POLYLINE
  5
ED
  8
PROFILEEDGES
 66
     1
 10
0.0
 20
0.0
 30
0.0
  0
VERTEX
  5
2CD
  8
PROFILEEDGES
 10
398.0626361497964
 20
807.1844311879844
 30
0.0
 40
4.228170840736089
 41
4.228170840736089
  0
VERTEX
  5
2CE
  8
PROFILEEDGES
 10
399.9026777116848
 20
801.7915634232606
 30
0.0
 40
4.228170840736089
 41
4.228170840736089
  0
SEQEND
  5
4BE
  8
PROFILEEDGES
  0
POLYLINE
  5
EE
  8
PROFILEEDGES
 66
     1
 10
0.0
 20
0.0
 30
0.0
  0
VERTEX
  5
2CF
  8
PROFILEEDGES
 10
399.9026777116848
 20
801.7915634232606
 30
0.0
 40
4.228170840736089
 41
4.228170840736089
  0
VERTEX
  5
2D0
  8
PROFILEEDGES
 10
401.0239865669737
 20
796.204843264857
 30
0.0
 40
4.228170840736089
 41
4.228170840736089
  0
SEQEND
  5
4BF
  8
PROFILEEDGES
  0
POLYLINE
  5
EF
  8
PROFILEEDGES
 66
     1
 10
0.0
 20
0.0
 30
0.0
  0
VERTEX
  5
2D1
  8
PROFILEEDGES
 10
401.0239865669737
 20
796.204843264857
 30
0.0
 40
4.228170840736089
 41
4.228170840736089
  0
VERTEX
  5
2D2
  8
PROFILEEDGES
 10
401.4074249624054
 20
790.5196211342687
 30
0.0
 40
4.228170840736089
 41
4.228170840736089
  0
SEQEND
  5
4C0
  8
PROFILEEDGES
  0
POLYLINE
  5
F0
  8
PROFILEEDGES
 66
     1
 10
0.0
 20
0.0
 30
0.0
  0
VERTEX
  5
2D3
  8
PROFILEEDGES
 10
401.4074249624054
 20
790.5196211342687
 30
0.0
 40
4.228170840736089
 41
4.228170840736089
  0
VERTEX
  5
2D4
  8
PROFILEEDGES
 10
401.4074249624917
 20
-11.2476908500729
 30
0.0
 40
4.228170840736089
 41
4.228170840736089
  0
SEQEND
  5
4C1
  8
PROFILEEDGES
  0
POLYLINE
  5
F1
  8
PROFILEEDGES
 66
     1
 10
0.0
 20
0.0
 30
0.0
  0
VERTEX
  5
2D5
  8
PROFILEEDGES
 10
401.0921393236404
 20
-16.50609157940563
 30
0.0
 40
4.228170840736089
 41
4.228170840736089
  0
VERTEX
  5
2D6
  8
PROFILEEDGES
 10
401.4074249624917
 20
-11.2476908500729
 30
0.0
 40
4.228170840736089
 41
4.228170840736089
  0
SEQEND
  5
4C2
  8
PROFILEEDGES
  0
POLYLINE
  5
F2
  8
PROFILEEDGES
 66
     1
 10
0.0
 20
0.0
 30
0.0
  0
VERTEX
  5
2D7
  8
PROFILEEDGES
 10
400.1507999959313
 20
-21.68914700399969
 30
0.0
 40
4.228170840736089
 41
4.228170840736089
  0
VERTEX
  5
2D8
  8
PROFILEEDGES
 10
401.0921393236404
 20
-16.50609157940563
 30
0.0
 40
4.228170840736089
 41
4.228170840736089
  0
SEQEND
  5
4C3
  8
PROFILEEDGES
  0
POLYLINE
  5
F3
  8
PROFILEEDGES
 66
     1
 10
0.0
 20
0.0
 30
0.0
  0
VERTEX
  5
2D9
  8
PROFILEEDGES
 10
398.5968950154006
 20
-26.72259140875478
 30
0.0
 40
4.228170840736089
 41
4.228170840736089
  0
VERTEX
  5
2DA
  8
PROFILEEDGES
 10
400.1507999959313
 20
-21.68914700399969
 30
0.0
 40
4.228170840736089
 41
4.228170840736089
  0
SEQEND
  5
4C4
  8
PROFILEEDGES
  0
POLYLINE
  5
F4
  8
PROFILEEDGES
 66
     1
 10
0.0
 20
0.0
 30
0.0
  0
VERTEX
  5
2DB
  8
PROFILEEDGES
 10
396.4526896011328
 20
-31.53430278888987
 30
0.0
 40
4.228170840736089
 41
4.228170840736089
  0
VERTEX
  5
2DC
  8
PROFILEEDGES
 10
398.5968950154006
 20
-26.72259140875478
 30
0.0
 40
4.228170840736089
 41
4.228170840736089
  0
SEQEND
  5
4C5
  8
PROFILEEDGES
  0
POLYLINE
  5
F5
  8
PROFILEEDGES
 66
     1
 10
0.0
 20
0.0
 30
0.0
  0
VERTEX
  5
2DD
  8
PROFILEEDGES
 10
393.7489071267713
 20
-36.05533625432984
 30
0.0
 40
4.228170840736089
 41
4.228170840736089
  0
VERTEX
  5
2DE
  8
PROFILEEDGES
 10
396.4526896011328
 20
-31.53430278888987
 30
0.0
 40
4.228170840736089
 41
4.228170840736089
  0
SEQEND
  5
4C6
  8
PROFILEEDGES
  0
POLYLINE
  5
F6
  8
PROFILEEDGES
 66
     1
 10
0.0
 20
0.0
 30
0.0
  0
VERTEX
  5
2DF
  8
PROFILEEDGES
 10
390.5242888988363
 20
-40.22091191063077
 30
0.0
 40
4.228170840736089
 41
4.228170840736089
  0
VERTEX
  5
2E0
  8
PROFILEEDGES
 10
393.7489071267713
 20
-36.05533625432984
 30
0.0
 40
4.228170840736089
 41
4.228170840736089
  0
SEQEND
  5
4C7
  8
PROFILEEDGES
  0
POLYLINE
  5
F7
  8
PROFILEEDGES
 66
     1
 10
0.0
 20
0.0
 30
0.0
  0
VERTEX
  5
2E1
  8
PROFILEEDGES
 10
386.8250390496474
 20
-43.97134306151973
 30
0.0
 40
4.228170840736089
 41
4.228170840736089
  0
VERTEX
  5
2E2
  8
PROFILEEDGES
 10
390.5242888988363
 20
-40.22091191063077
 30
0.0
 40
4.228170840736089
 41
4.228170840736089
  0
SEQEND
  5
4C8
  8
PROFILEEDGES
  0
POLYLINE
  5
F8
  8
PROFILEEDGES
 66
     1
 10
0.0
 20
0.0
 30
0.0
  0
VERTEX
  5
2E3
  8
PROFILEEDGES
 10
382.7041624986634
 20
-47.25289143322583
 30
0.0
 40
4.228170840736089
 41
4.228170840736089
  0
VERTEX
  5
2E4
  8
PROFILEEDGES
 10
386.8250390496474
 20
-43.97134306151973
 30
0.0
 40
4.228170840736089
 41
4.228170840736089
  0
SEQEND
  5
4C9
  8
PROFILEEDGES
  0
POLYLINE
  5
F9
  8
PROFILEEDGES
 66
     1
 10
0.0
 20
0.0
 30
0.0
  0
VERTEX
  5
2E5
  8
PROFILEEDGES
 10
378.2207054683985
 20
-50.01853716652126
 30
0.0
 40
4.228170840736089
 41
4.228170840736089
  0
VERTEX
  5
2E6
  8
PROFILEEDGES
 10
382.7041624986634
 20
-47.25289143322583
 30
0.0
 40
4.228170840736089
 41
4.228170840736089
  0
SEQEND
  5
4CA
  8
PROFILEEDGES
  0
POLYLINE
  5
FA
  8
PROFILEEDGES
 66
     1
 10
0.0
 20
0.0
 30
0.0
  0
VERTEX
  5
2E7
  8
PROFILEEDGES
 10
373.4389094371338
 20
-52.228652543528
 30
0.0
 40
4.228170840736089
 41
4.228170840736089
  0
VERTEX
  5
2E8
  8
PROFILEEDGES
 10
378.2207054683985
 20
-50.01853716652126
 30
0.0
 40
4.228170840736089
 41
4.228170840736089
  0
SEQEND
  5
4CB
  8
PROFILEEDGES
  0
POLYLINE
  5
FB
  8
PROFILEEDGES
 66
     1
 10
0.0
 20
0.0
 30
0.0
  0
VERTEX
  5
2E9
  8
PROFILEEDGES
 10
368.427290651102
 20
-53.85156979582371
 30
0.0
 40
4.228170840736089
 41
4.228170840736089
  0
VERTEX
  5
2EA
  8
PROFILEEDGES
 10
373.4389094371338
 20
-52.228652543528
 30
0.0
 40
4.228170840736089
 41
4.228170840736089
  0
SEQEND
  5
4CC
  8
PROFILEEDGES
  0
POLYLINE
  5
FC
  8
PROFILEEDGES
 66
     1
 10
0.0
 20
0.0
 30
0.0
  0
VERTEX
  5
2EB
  8
PROFILEEDGES
 10
363.2576583854265
 20
-54.86403485791426
 30
0.0
 40
4.228170840736089
 41
4.228170840736089
  0
VERTEX
  5
2EC
  8
PROFILEEDGES
 10
368.427290651102
 20
-53.85156979582371
 30
0.0
 40
4.228170840736089
 41
4.228170840736089
  0
SEQEND
  5
4CD
  8
PROFILEEDGES
  0
POLYLINE
  5
FD
  8
PROFILEEDGES
 66
     1
 10
0.0
 20
0.0
 30
0.0
  0
VERTEX
  5
2ED
  8
PROFILEEDGES
 10
275.9949249626198
 20
51.49846514218054
 30
0.0
 40
4.228170840736089
 41
4.228170840736089
  0
VERTEX
  5
2EE
  8
PROFILEEDGES
 10
278.4814489244129
 20
51.66144053300865
 30
0.0
 40
4.228170840736089
 41
4.228170840736089
  0
SEQEND
  5
4CE
  8
PROFILEEDGES
  0
POLYLINE
  5
FE
  8
PROFILEEDGES
 66
     1
 10
0.0
 20
0.0
 30
0.0
  0
VERTEX
  5
2EF
  8
PROFILEEDGES
 10
278.4814489244129
 20
51.66144053300865
 30
0.0
 40
4.228170840736089
 41
4.228170840736089
  0
VERTEX
  5
2F0
  8
PROFILEEDGES
 10
280.9254277718181
 20
52.1475781513739
 30
0.0
 40
4.228170840736089
 41
4.228170840736089
  0
SEQEND
  5
4CF
  8
PROFILEEDGES
  0
POLYLINE
  5
FF
  8
PROFILEEDGES
 66
     1
 10
0.0
 20
0.0
 30
0.0
  0
VERTEX
  5
2F1
  8
PROFILEEDGES
 10
280.9254277718181
 20
52.1475781513739
 30
0.0
 40
4.228170840736089
 41
4.228170840736089
  0
VERTEX
  5
2F2
  8
PROFILEEDGES
 10
283.2850443491692
 20
52.94856004783995
 30
0.0
 40
4.228170840736089
 41
4.228170840736089
  0
SEQEND
  5
4D0
  8
PROFILEEDGES
  0
POLYLINE
  5
100
  8
PROFILEEDGES
 66
     1
 10
0.0
 20
0.0
 30
0.0
  0
VERTEX
  5
2F3
  8
PROFILEEDGES
 10
283.2850443491692
 20
52.94856004783995
 30
0.0
 40
4.228170840736089
 41
4.228170840736089
  0
VERTEX
  5
2F4
  8
PROFILEEDGES
 10
285.5199249626195
 20
54.05068120008635
 30
0.0
 40
4.228170840736089
 41
4.228170840736089
  0
SEQEND
  5
4D1
  8
PROFILEEDGES
  0
POLYLINE
  5
101
  8
PROFILEEDGES
 66
     1
 10
0.0
 20
0.0
 30
0.0
  0
VERTEX
  5
2F5
  8
PROFILEEDGES
 10
285.5199249626195
 20
54.05068120008635
 30
0.0
 40
4.228170840736089
 41
4.228170840736089
  0
VERTEX
  5
2F6
  8
PROFILEEDGES
 10
287.5918301852334
 20
55.43508400963207
 30
0.0
 40
4.228170840736089
 41
4.228170840736089
  0
SEQEND
  5
4D2
  8
PROFILEEDGES
  0
POLYLINE
  5
102
  8
PROFILEEDGES
 66
     1
 10
0.0
 20
0.0
 30
0.0
  0
VERTEX
  5
2F7
  8
PROFILEEDGES
 10
287.5918301852334
 20
55.43508400963207
 30
0.0
 40
4.228170840736089
 41
4.228170840736089
  0
VERTEX
  5
2F8
  8
PROFILEEDGES
 10
289.4653091442222
 20
57.07808096057618
 30
0.0
 40
4.228170840736089
 41
4.228170840736089
  0
SEQEND
  5
4D3
  8
PROFILEEDGES
  0
POLYLINE
  5
103
  8
PROFILEEDGES
 66
     1
 10
0.0
 20
0.0
 30
0.0
  0
VERTEX
  5
2F9
  8
PROFILEEDGES
 10
289.4653091442222
 20
57.07808096057618
 30
0.0
 40
4.228170840736089
 41
4.228170840736089
  0
VERTEX
  5
2FA
  8
PROFILEEDGES
 10
291.1083060951645
 20
58.95155991956405
 30
0.0
 40
4.228170840736089
 41
4.228170840736089
  0
SEQEND
  5
4D4
  8
PROFILEEDGES
  0
POLYLINE
  5
104
  8
PROFILEEDGES
 66
     1
 10
0.0
 20
0.0
 30
0.0
  0
VERTEX
  5
2FB
  8
PROFILEEDGES
 10
291.1083060951645
 20
58.95155991956405
 30
0.0
 40
4.228170840736089
 41
4.228170840736089
  0
VERTEX
  5
2FC
  8
PROFILEEDGES
 10
292.4927089047112
 20
61.02346514218112
 30
0.0
 40
4.228170840736089
 41
4.228170840736089
  0
SEQEND
  5
4D5
  8
PROFILEEDGES
  0
POLYLINE
  5
105
  8
PROFILEEDGES
 66
     1
 10
0.0
 20
0.0
 30
0.0
  0
VERTEX
  5
2FD
  8
PROFILEEDGES
 10
292.4927089047112
 20
61.02346514218112
 30
0.0
 40
4.228170840736089
 41
4.228170840736089
  0
VERTEX
  5
2FE
  8
PROFILEEDGES
 10
293.5948300569599
 20
63.25834575562595
 30
0.0
 40
4.228170840736089
 41
4.228170840736089
  0
SEQEND
  5
4D6
  8
PROFILEEDGES
  0
POLYLINE
  5
106
  8
PROFILEEDGES
 66
     1
 10
0.0
 20
0.0
 30
0.0
  0
VERTEX
  5
2FF
  8
PROFILEEDGES
 10
293.5948300569599
 20
63.25834575562595
 30
0.0
 40
4.228170840736089
 41
4.228170840736089
  0
VERTEX
  5
300
  8
PROFILEEDGES
 10
294.3958119534254
 20
65.61796233298013
 30
0.0
 40
4.228170840736089
 41
4.228170840736089
  0
SEQEND
  5
4D7
  8
PROFILEEDGES
  0
POLYLINE
  5
107
  8
PROFILEEDGES
 66
     1
 10
0.0
 20
0.0
 30
0.0
  0
VERTEX
  5
301
  8
PROFILEEDGES
 10
294.3958119534254
 20
65.61796233298013
 30
0.0
 40
4.228170840736089
 41
4.228170840736089
  0
VERTEX
  5
302
  8
PROFILEEDGES
 10
294.8819495717872
 20
68.06194118039129
 30
0.0
 40
4.228170840736089
 41
4.228170840736089
  0
SEQEND
  5
4D8
  8
PROFILEEDGES
  0
POLYLINE
  5
108
  8
PROFILEEDGES
 66
     1
 10
0.0
 20
0.0
 30
0.0
  0
VERTEX
  5
303
  8
PROFILEEDGES
 10
294.8819495717872
 20
68.06194118039129
 30
0.0
 40
4.228170840736089
 41
4.228170840736089
  0
VERTEX
  5
304
  8
PROFILEEDGES
 10
295.0449249626146
 20
70.54846514218144
 30
0.0
 40
4.228170840736089
 41
4.228170840736089
  0
SEQEND
  5
4D9
  8
PROFILEEDGES
  0
POLYLINE
  5
109
  8
PROFILEEDGES
 66
     1
 10
0.0
 20
0.0
 30
0.0
  0
VERTEX
  5
305
  8
PROFILEEDGES
 10
295.0449249626146
 20
70.54846514218144
 30
0.0
 40
4.228170840736089
 41
4.228170840736089
  0
VERTEX
  5
306
  8
PROFILEEDGES
 10
295.0449249625424
 20
708.7234651421472
 30
0.0
 40
4.228170840736089
 41
4.228170840736089
  0
SEQEND
  5
4DA
  8
PROFILEEDGES
  0
POLYLINE
  5
10A
  8
PROFILEEDGES
 66
     1
 10
0.0
 20
0.0
 30
0.0
  0
VERTEX
  5
307
  8
PROFILEEDGES
 10
295.0449249625424
 20
708.7234651421472
 30
0.0
 40
4.228170840736089
 41
4.228170840736089
  0
VERTEX
  5
308
  8
PROFILEEDGES
 10
294.9069523262908
 20
711.0120719219467
 30
0.0
 40
4.228170840736089
 41
4.228170840736089
  0
SEQEND
  5
4DB
  8
PROFILEEDGES
  0
POLYLINE
  5
10B
  8
PROFILEEDGES
 66
     1
 10
0.0
 20
0.0
 30
0.0
  0
VERTEX
  5
309
  8
PROFILEEDGES
 10
294.9069523262908
 20
711.0120719219467
 30
0.0
 40
4.228170840736089
 41
4.228170840736089
  0
VERTEX
  5
30A
  8
PROFILEEDGES
 10
294.4950329948201
 20
713.2675275090174
 30
0.0
 40
4.228170840736089
 41
4.228170840736089
  0
SEQEND
  5
4DC
  8
PROFILEEDGES
  0
POLYLINE
  5
10C
  8
PROFILEEDGES
 66
     1
 10
0.0
 20
0.0
 30
0.0
  0
VERTEX
  5
30B
  8
PROFILEEDGES
 10
294.4950329948201
 20
713.2675275090174
 30
0.0
 40
4.228170840736089
 41
4.228170840736089
  0
VERTEX
  5
30C
  8
PROFILEEDGES
 10
293.8151337498461
 20
715.4571609161417
 30
0.0
 40
4.228170840736089
 41
4.228170840736089
  0
SEQEND
  5
4DD
  8
PROFILEEDGES
  0
POLYLINE
  5
10D
  8
PROFILEEDGES
 66
     1
 10
0.0
 20
0.0
 30
0.0
  0
VERTEX
  5
30D
  8
PROFILEEDGES
 10
-446.7149239298083
 20
834.0498982503005
 30
0.0
 40
4.228170840736089
 41
4.228170840736089
  0
VERTEX
  5
30E
  8
PROFILEEDGES
 10
357.791080954559
 20
834.0498982503988
 30
0.0
 40
4.228170840736089
 41
4.228170840736089
  0
SEQEND
  5
4DE
  8
PROFILEEDGES
  0
POLYLINE
  5
10E
  8
PROFILEEDGES
 66
     1
 10
0.0
 20
0.0
 30
0.0
  0
VERTEX
  5
30F
  8
PROFILEEDGES
 10
-452.1491189071971
 20
833.3633997764438
 30
0.0
 40
4.228170840736089
 41
4.228170840736089
  0
VERTEX
  5
310
  8
PROFILEEDGES
 10
-446.7149239298083
 20
834.0498982503005
 30
0.0
 40
4.228170840736089
 41
4.228170840736089
  0
SEQEND
  5
4DF
  8
PROFILEEDGES
  0
LINE
  5
10F
  8
0
 10
-371.5030947823182
 20
710.5087892629
 30
0.0
 11
-371.1582879961666
 21
711.6620292951242
 31
0.0
  0
LINE
  5
110
  8
0
 10
-371.1582879961666
 20
711.6620292951242
 30
0.0
 11
-370.6757745618267
 21
712.76476910006
 31
0.0
  0
LINE
  5
111
  8
0
 10
-370.6757745618267
 20
712.76476910006
 30
0.0
 11
-370.0627191069988
 21
713.8006345840901
 31
0.0
  0
LINE
  5
112
  8
0
 10
-370.0627191069988
 20
713.8006345840901
 30
0.0
 11
-369.3282246198517
 21
714.7542446406969
 31
0.0
  0
LINE
  5
113
  8
0
 10
-369.3282246198517
 20
714.7542446406969
 30
0.0
 11
-368.4831972828252
 21
715.6114395376646
 31
0.0
  0
LINE
  5
114
  8
0
 10
-368.4831972828252
 20
715.6114395376646
 30
0.0
 11
-367.5401845315606
 21
716.3594911686705
 31
0.0
  0
LINE
  5
115
  8
0
 10
-367.5401845315606
 20
716.3594911686705
 30
0.0
 11
-366.5131887435733
 21
716.9872920472671
 31
0.0
  0
LINE
  5
116
  8
0
 10
-366.5131887435733
 20
716.9872920472671
 30
0.0
 11
-365.4174593232258
 21
717.4855202370354
 31
0.0
  0
LINE
  5
117
  8
0
 10
-365.4174593232258
 20
717.4855202370354
 30
0.0
 11
-364.2692662700287
 21
717.8467777688528
 31
0.0
  0
POLYLINE
  5
118
  8
PROFILEEDGES
 66
     1
 10
0.0
 20
0.0
 30
0.0
  0
VERTEX
  5
311
  8
PROFILEEDGES
 10
281.8182074382205
 20
62.95941566675545
 30
0.0
 40
4.228170840736089
 41
4.228170840736089
  0
VERTEX
  5
312
  8
PROFILEEDGES
 10
282.7589581799761
 20
63.78443192482214
 30
0.0
 40
4.228170840736089
 41
4.228170840736089
  0
SEQEND
  5
4E0
  8
PROFILEEDGES
  0
POLYLINE
  5
119
  8
PROFILEEDGES
 66
     1
 10
0.0
 20
0.0
 30
0.0
  0
VERTEX
  5
313
  8
PROFILEEDGES
 10
282.7589581799761
 20
63.78443192482214
 30
0.0
 40
4.228170840736089
 41
4.228170840736089
  0
VERTEX
  5
314
  8
PROFILEEDGES
 10
283.5839744380382
 20
64.72518266658089
 30
0.0
 40
4.228170840736089
 41
4.228170840736089
  0
SEQEND
  5
4E1
  8
PROFILEEDGES
  0
POLYLINE
  5
11A
  8
PROFILEEDGES
 66
     1
 10
0.0
 20
0.0
 30
0.0
  0
VERTEX
  5
315
  8
PROFILEEDGES
 10
283.5839744380382
 20
64.72518266658089
 30
0.0
 40
4.228170840736089
 41
4.228170840736089
  0
VERTEX
  5
316
  8
PROFILEEDGES
 10
284.2791399554986
 20
65.76557138601585
 30
0.0
 40
4.228170840736089
 41
4.228170840736089
  0
SEQEND
  5
4E2
  8
PROFILEEDGES
  0
POLYLINE
  5
11B
  8
PROFILEEDGES
 66
     1
 10
0.0
 20
0.0
 30
0.0
  0
VERTEX
  5
317
  8
PROFILEEDGES
 10
284.2791399554986
 20
65.76557138601585
 30
0.0
 40
4.228170840736089
 41
4.228170840736089
  0
VERTEX
  5
318
  8
PROFILEEDGES
 10
284.8325602576135
 20
66.88779674368688
 30
0.0
 40
4.228170840736089
 41
4.228170840736089
  0
SEQEND
  5
4E3
  8
PROFILEEDGES
  0
POLYLINE
  5
11C
  8
PROFILEEDGES
 66
     1
 10
0.0
 20
0.0
 30
0.0
  0
VERTEX
  5
319
  8
PROFILEEDGES
 10
284.8325602576135
 20
66.88779674368688
 30
0.0
 40
4.228170840736089
 41
4.228170840736089
  0
VERTEX
  5
31A
  8
PROFILEEDGES
 10
285.2347661695719
 20
68.07265715258546
 30
0.0
 40
4.228170840736089
 41
4.228170840736089
  0
SEQEND
  5
4E4
  8
PROFILEEDGES
  0
POLYLINE
  5
11D
  8
PROFILEEDGES
 66
     1
 10
0.0
 20
0.0
 30
0.0
  0
VERTEX
  5
31B
  8
PROFILEEDGES
 10
285.2347661695719
 20
68.07265715258546
 30
0.0
 40
4.228170840736089
 41
4.228170840736089
  0
VERTEX
  5
31C
  8
PROFILEEDGES
 10
285.4788758367174
 20
69.29987932261051
 30
0.0
 40
4.228170840736089
 41
4.228170840736089
  0
SEQEND
  5
4E5
  8
PROFILEEDGES
  0
POLYLINE
  5
11E
  8
PROFILEEDGES
 66
     1
 10
0.0
 20
0.0
 30
0.0
  0
VERTEX
  5
31D
  8
PROFILEEDGES
 10
285.4788758367174
 20
69.29987932261051
 30
0.0
 40
4.228170840736089
 41
4.228170840736089
  0
VERTEX
  5
31E
  8
PROFILEEDGES
 10
285.5607124749461
 20
70.54846514218029
 30
0.0
 40
4.228170840736089
 41
4.228170840736089
  0
SEQEND
  5
4E6
  8
PROFILEEDGES
  0
POLYLINE
  5
11F
  8
PROFILEEDGES
 66
     1
 10
0.0
 20
0.0
 30
0.0
  0
VERTEX
  5
31F
  8
PROFILEEDGES
 10
285.5607124749461
 20
70.54846514218029
 30
0.0
 40
4.228170840736089
 41
4.228170840736089
  0
VERTEX
  5
320
  8
PROFILEEDGES
 10
285.560712474874
 20
708.4378383193082
 30
0.0
 40
4.228170840736089
 41
4.228170840736089
  0
SEQEND
  5
4E7
  8
PROFILEEDGES
  0
POLYLINE
  5
120
  8
PROFILEEDGES
 66
     1
 10
0.0
 20
0.0
 30
0.0
  0
VERTEX
  5
321
  8
PROFILEEDGES
 10
285.560712474874
 20
708.4378383193082
 30
0.0
 40
4.228170840736089
 41
4.228170840736089
  0
VERTEX
  5
322
  8
PROFILEEDGES
 10
285.4743359524626
 20
709.8705999174293
 30
0.0
 40
4.228170840736089
 41
4.228170840736089
  0
SEQEND
  5
4E8
  8
PROFILEEDGES
  0
POLYLINE
  5
121
  8
PROFILEEDGES
 66
     1
 10
0.0
 20
0.0
 30
0.0
  0
VERTEX
  5
323
  8
PROFILEEDGES
 10
285.4743359524626
 20
709.8705999174293
 30
0.0
 40
4.228170840736089
 41
4.228170840736089
  0
VERTEX
  5
324
  8
PROFILEEDGES
 10
285.2678666743292
 20
711.0011180828337
 30
0.0
 40
4.228170840736089
 41
4.228170840736089
  0
SEQEND
  5
4E9
  8
PROFILEEDGES
  0
POLYLINE
  5
122
  8
PROFILEEDGES
 66
     1
 10
0.0
 20
0.0
 30
0.0
  0
VERTEX
  5
325
  8
PROFILEEDGES
 10
285.2678666743292
 20
711.0011180828337
 30
0.0
 40
4.228170840736089
 41
4.228170840736089
  0
VERTEX
  5
326
  8
PROFILEEDGES
 10
284.9270759039422
 20
712.0986437253342
 30
0.0
 40
4.228170840736089
 41
4.228170840736089
  0
SEQEND
  5
4EA
  8
PROFILEEDGES
  0
POLYLINE
  5
123
  8
PROFILEEDGES
 66
     1
 10
0.0
 20
0.0
 30
0.0
  0
VERTEX
  5
327
  8
PROFILEEDGES
 10
284.9270759039422
 20
712.0986437253342
 30
0.0
 40
4.228170840736089
 41
4.228170840736089
  0
VERTEX
  5
328
  8
PROFILEEDGES
 10
284.456900103358
 20
713.1472788390226
 30
0.0
 40
4.228170840736089
 41
4.228170840736089
  0
SEQEND
  5
4EB
  8
PROFILEEDGES
  0
POLYLINE
  5
124
  8
PROFILEEDGES
 66
     1
 10
0.0
 20
0.0
 30
0.0
  0
VERTEX
  5
329
  8
PROFILEEDGES
 10
284.456900103358
 20
713.1472788390226
 30
0.0
 40
4.228170840736089
 41
4.228170840736089
  0
VERTEX
  5
32A
  8
PROFILEEDGES
 10
283.8641499176739
 20
714.1318336127628
 30
0.0
 40
4.228170840736089
 41
4.228170840736089
  0
SEQEND
  5
4EC
  8
PROFILEEDGES
  0
POLYLINE
  5
125
  8
PROFILEEDGES
 66
     1
 10
0.0
 20
0.0
 30
0.0
  0
VERTEX
  5
32B
  8
PROFILEEDGES
 10
283.8641499176739
 20
714.1318336127628
 30
0.0
 40
4.228170840736089
 41
4.228170840736089
  0
VERTEX
  5
32C
  8
PROFILEEDGES
 10
283.1574115207267
 20
715.0380464594019
 30
0.0
 40
4.228170840736089
 41
4.228170840736089
  0
SEQEND
  5
4ED
  8
PROFILEEDGES
  0
POLYLINE
  5
126
  8
PROFILEEDGES
 66
     1
 10
0.0
 20
0.0
 30
0.0
  0
VERTEX
  5
32D
  8
PROFILEEDGES
 10
283.1574115207267
 20
715.0380464594019
 30
0.0
 40
4.228170840736089
 41
4.228170840736089
  0
VERTEX
  5
32E
  8
PROFILEEDGES
 10
282.346922241635
 20
715.8527905993561
 30
0.0
 40
4.228170840736089
 41
4.228170840736089
  0
SEQEND
  5
4EE
  8
PROFILEEDGES
  0
POLYLINE
  5
127
  8
PROFILEEDGES
 66
     1
 10
0.0
 20
0.0
 30
0.0
  0
VERTEX
  5
32F
  8
PROFILEEDGES
 10
282.346922241635
 20
715.8527905993561
 30
0.0
 40
4.228170840736089
 41
4.228170840736089
  0
VERTEX
  5
330
  8
PROFILEEDGES
 10
281.4444222738243
 20
716.5642642061928
 30
0.0
 40
4.228170840736089
 41
4.228170840736089
  0
SEQEND
  5
4EF
  8
PROFILEEDGES
  0
POLYLINE
  5
128
  8
PROFILEEDGES
 66
     1
 10
0.0
 20
0.0
 30
0.0
  0
VERTEX
  5
331
  8
PROFILEEDGES
 10
281.4444222738243
 20
716.5642642061928
 30
0.0
 40
4.228170840736089
 41
4.228170840736089
  0
VERTEX
  5
332
  8
PROFILEEDGES
 10
280.4629846146512
 20
717.1621613597875
 30
0.0
 40
4.228170840736089
 41
4.228170840736089
  0
SEQEND
  5
4F0
  8
PROFILEEDGES
  0
POLYLINE
  5
129
  8
PROFILEEDGES
 66
     1
 10
0.0
 20
0.0
 30
0.0
  0
VERTEX
  5
333
  8
PROFILEEDGES
 10
280.4629846146512
 20
717.1621613597875
 30
0.0
 40
4.228170840736089
 41
4.228170840736089
  0
VERTEX
  5
334
  8
PROFILEEDGES
 10
279.4168256988842
 20
717.6378213308496
 30
0.0
 40
4.228170840736089
 41
4.228170840736089
  0
SEQEND
  5
4F1
  8
PROFILEEDGES
  0
POLYLINE
  5
12A
  8
PROFILEEDGES
 66
     1
 10
0.0
 20
0.0
 30
0.0
  0
VERTEX
  5
335
  8
PROFILEEDGES
 10
279.4168256988842
 20
717.6378213308496
 30
0.0
 40
4.228170840736089
 41
4.228170840736089
  0
VERTEX
  5
336
  8
PROFILEEDGES
 10
278.3210994691368
 20
717.9843540343265
 30
0.0
 40
4.228170840736089
 41
4.228170840736089
  0
SEQEND
  5
4F2
  8
PROFILEEDGES
  0
POLYLINE
  5
12B
  8
PROFILEEDGES
 66
     1
 10
0.0
 20
0.0
 30
0.0
  0
VERTEX
  5
337
  8
PROFILEEDGES
 10
278.3210994691368
 20
717.9843540343265
 30
0.0
 40
4.228170840736089
 41
4.228170840736089
  0
VERTEX
  5
338
  8
PROFILEEDGES
 10
277.4985252202328
 20
718.1390377145154
 30
0.0
 40
4.228170840736089
 41
4.228170840736089
  0
SEQEND
  5
4F3
  8
PROFILEEDGES
  0
POLYLINE
  5
12C
  8
PROFILEEDGES
 66
     1
 10
0.0
 20
0.0
 30
0.0
  0
VERTEX
  5
339
  8
PROFILEEDGES
 10
-364.6628771026649
 20
51.66631902523697
 30
0.0
 40
4.228170840736089
 41
4.228170840736089
  0
VERTEX
  5
33A
  8
PROFILEEDGES
 10
-362.1800750373517
 20
51.49846514210115
 30
0.0
 40
4.228170840736089
 41
4.228170840736089
  0
SEQEND
  5
4F4
  8
PROFILEEDGES
  0
POLYLINE
  5
12D
  8
PROFILEEDGES
 66
     1
 10
0.0
 20
0.0
 30
0.0
  0
VERTEX
  5
33B
  8
PROFILEEDGES
 10
-367.1026166932075
 20
52.15637183041729
 30
0.0
 40
4.228170840736089
 41
4.228170840736089
  0
VERTEX
  5
33C
  8
PROFILEEDGES
 10
-364.6628771026649
 20
51.66631902523697
 30
0.0
 40
4.228170840736089
 41
4.228170840736089
  0
SEQEND
  5
4F5
  8
PROFILEEDGES
  0
POLYLINE
  5
12E
  8
PROFILEEDGES
 66
     1
 10
0.0
 20
0.0
 30
0.0
  0
VERTEX
  5
33D
  8
PROFILEEDGES
 10
-369.4576628703751
 20
52.9602614527927
 30
0.0
 40
4.228170840736089
 41
4.228170840736089
  0
VERTEX
  5
33E
  8
PROFILEEDGES
 10
-367.1026166932075
 20
52.15637183041729
 30
0.0
 40
4.228170840736089
 41
4.228170840736089
  0
SEQEND
  5
4F6
  8
PROFILEEDGES
  0
POLYLINE
  5
12F
  8
PROFILEEDGES
 66
     1
 10
0.0
 20
0.0
 30
0.0
  0
VERTEX
  5
33F
  8
PROFILEEDGES
 10
-371.6878298769419
 20
54.0642705761165
 30
0.0
 40
4.228170840736089
 41
4.228170840736089
  0
VERTEX
  5
340
  8
PROFILEEDGES
 10
-369.4576628703751
 20
52.9602614527927
 30
0.0
 40
4.228170840736089
 41
4.228170840736089
  0
SEQEND
  5
4F7
  8
PROFILEEDGES
  0
POLYLINE
  5
130
  8
PROFILEEDGES
 66
     1
 10
0.0
 20
0.0
 30
0.0
  0
VERTEX
  5
341
  8
PROFILEEDGES
 10
-373.7550628540382
 20
55.4495607406428
 30
0.0
 40
4.228170840736089
 41
4.228170840736089
  0
VERTEX
  5
342
  8
PROFILEEDGES
 10
-371.6878298769419
 20
54.0642705761165
 30
0.0
 40
4.228170840736089
 41
4.228170840736089
  0
SEQEND
  5
4F8
  8
PROFILEEDGES
  0
POLYLINE
  5
131
  8
PROFILEEDGES
 66
     1
 10
0.0
 20
0.0
 30
0.0
  0
VERTEX
  5
343
  8
PROFILEEDGES
 10
-375.6240871971556
 20
57.09249379661299
 30
0.0
 40
4.228170840736089
 41
4.228170840736089
  0
VERTEX
  5
344
  8
PROFILEEDGES
 10
-373.7550628540382
 20
55.4495607406428
 30
0.0
 40
4.228170840736089
 41
4.228170840736089
  0
SEQEND
  5
4F9
  8
PROFILEEDGES
  0
POLYLINE
  5
132
  8
PROFILEEDGES
 66
     1
 10
0.0
 20
0.0
 30
0.0
  0
VERTEX
  5
345
  8
PROFILEEDGES
 10
-377.263010470701
 20
58.96503525809743
 30
0.0
 40
4.228170840736089
 41
4.228170840736089
  0
VERTEX
  5
346
  8
PROFILEEDGES
 10
-375.6240871971556
 20
57.09249379661299
 30
0.0
 40
4.228170840736089
 41
4.228170840736089
  0
SEQEND
  5
4FA
  8
PROFILEEDGES
  0
POLYLINE
  5
133
  8
PROFILEEDGES
 66
     1
 10
0.0
 20
0.0
 30
0.0
  0
VERTEX
  5
347
  8
PROFILEEDGES
 10
-378.6438666104021
 20
61.03523267452952
 30
0.0
 40
4.228170840736089
 41
4.228170840736089
  0
VERTEX
  5
348
  8
PROFILEEDGES
 10
-377.263010470701
 20
58.96503525809743
 30
0.0
 40
4.228170840736089
 41
4.228170840736089
  0
SEQEND
  5
4FB
  8
PROFILEEDGES
  0
POLYLINE
  5
134
  8
PROFILEEDGES
 66
     1
 10
0.0
 20
0.0
 30
0.0
  0
VERTEX
  5
349
  8
PROFILEEDGES
 10
-379.7430931272796
 20
63.26776085713804
 30
0.0
 40
4.228170840736089
 41
4.228170840736089
  0
VERTEX
  5
34A
  8
PROFILEEDGES
 10
-378.6438666104021
 20
61.03523267452952
 30
0.0
 40
4.228170840736089
 41
4.228170840736089
  0
SEQEND
  5
4FC
  8
PROFILEEDGES
  0
POLYLINE
  5
135
  8
PROFILEEDGES
 66
     1
 10
0.0
 20
0.0
 30
0.0
  0
VERTEX
  5
34B
  8
PROFILEEDGES
 10
-380.5419331704612
 20
65.6245246567052
 30
0.0
 40
4.228170840736089
 41
4.228170840736089
  0
VERTEX
  5
34C
  8
PROFILEEDGES
 10
-379.7430931272796
 20
63.26776085713804
 30
0.0
 40
4.228170840736089
 41
4.228170840736089
  0
SEQEND
  5
4FD
  8
PROFILEEDGES
  0
POLYLINE
  5
136
  8
PROFILEEDGES
 66
     1
 10
0.0
 20
0.0
 30
0.0
  0
VERTEX
  5
34D
  8
PROFILEEDGES
 10
-381.0267555881134
 20
68.06530900705104
 30
0.0
 40
4.228170840736089
 41
4.228170840736089
  0
VERTEX
  5
34E
  8
PROFILEEDGES
 10
-380.5419331704612
 20
65.6245246567052
 30
0.0
 40
4.228170840736089
 41
4.228170840736089
  0
SEQEND
  5
4FE
  8
PROFILEEDGES
  0
POLYLINE
  5
137
  8
PROFILEEDGES
 66
     1
 10
0.0
 20
0.0
 30
0.0
  0
VERTEX
  5
34F
  8
PROFILEEDGES
 10
-381.1892875250572
 20
70.5484651421003
 30
0.0
 40
4.228170840736089
 41
4.228170840736089
  0
VERTEX
  5
350
  8
PROFILEEDGES
 10
-381.0267555881134
 20
68.06530900705104
 30
0.0
 40
4.228170840736089
 41
4.228170840736089
  0
SEQEND
  5
4FF
  8
PROFILEEDGES
  0
POLYLINE
  5
138
  8
PROFILEEDGES
 66
     1
 10
0.0
 20
0.0
 30
0.0
  0
VERTEX
  5
351
  8
PROFILEEDGES
 10
-381.1892875251267
 20
709.9693947538964
 30
0.0
 40
4.228170840736089
 41
4.228170840736089
  0
VERTEX
  5
352
  8
PROFILEEDGES
 10
-381.1892875250572
 20
70.5484651421003
 30
0.0
 40
4.228170840736089
 41
4.228170840736089
  0
SEQEND
  5
500
  8
PROFILEEDGES
  0
POLYLINE
  5
139
  8
PROFILEEDGES
 66
     1
 10
0.0
 20
0.0
 30
0.0
  0
VERTEX
  5
353
  8
PROFILEEDGES
 10
280.6357909370578
 20
727.1995270333192
 30
0.0
 40
4.228170840736089
 41
4.228170840736089
  0
VERTEX
  5
354
  8
PROFILEEDGES
 10
278.3825230619364
 20
727.6232502021841
 30
0.0
 40
4.228170840736089
 41
4.228170840736089
  0
SEQEND
  5
501
  8
PROFILEEDGES
  0
POLYLINE
  5
13A
  8
PROFILEEDGES
 66
     1
 10
0.0
 20
0.0
 30
0.0
  0
VERTEX
  5
355
  8
PROFILEEDGES
 10
282.821834401373
 20
726.508172266916
 30
0.0
 40
4.228170840736089
 41
4.228170840736089
  0
VERTEX
  5
356
  8
PROFILEEDGES
 10
280.6357909370578
 20
727.1995270333192
 30
0.0
 40
4.228170840736089
 41
4.228170840736089
  0
SEQEND
  5
502
  8
PROFILEEDGES
  0
POLYLINE
  5
13B
  8
PROFILEEDGES
 66
     1
 10
0.0
 20
0.0
 30
0.0
  0
VERTEX
  5
357
  8
PROFILEEDGES
 10
284.9089879242003
 20
725.5592003953348
 30
0.0
 40
4.228170840736089
 41
4.228170840736089
  0
VERTEX
  5
358
  8
PROFILEEDGES
 10
282.821834401373
 20
726.508172266916
 30
0.0
 40
4.228170840736089
 41
4.228170840736089
  0
SEQEND
  5
503
  8
PROFILEEDGES
  0
POLYLINE
  5
13C
  8
PROFILEEDGES
 66
     1
 10
0.0
 20
0.0
 30
0.0
  0
VERTEX
  5
359
  8
PROFILEEDGES
 10
286.867018426925
 20
724.3663575761419
 30
0.0
 40
4.228170840736089
 41
4.228170840736089
  0
VERTEX
  5
35A
  8
PROFILEEDGES
 10
284.9089879242003
 20
725.5592003953348
 30
0.0
 40
4.228170840736089
 41
4.228170840736089
  0
SEQEND
  5
504
  8
PROFILEEDGES
  0
POLYLINE
  5
13D
  8
PROFILEEDGES
 66
     1
 10
0.0
 20
0.0
 30
0.0
  0
VERTEX
  5
35B
  8
PROFILEEDGES
 10
288.6675632187059
 20
722.9469225146834
 30
0.0
 40
4.228170840736089
 41
4.228170840736089
  0
VERTEX
  5
35C
  8
PROFILEEDGES
 10
286.867018426925
 20
724.3663575761419
 30
0.0
 40
4.228170840736089
 41
4.228170840736089
  0
SEQEND
  5
505
  8
PROFILEEDGES
  0
POLYLINE
  5
13E
  8
PROFILEEDGES
 66
     1
 10
0.0
 20
0.0
 30
0.0
  0
VERTEX
  5
35D
  8
PROFILEEDGES
 10
290.2845408389979
 20
721.321456176562
 30
0.0
 40
4.228170840736089
 41
4.228170840736089
  0
VERTEX
  5
35E
  8
PROFILEEDGES
 10
288.6675632187059
 20
722.9469225146834
 30
0.0
 40
4.228170840736089
 41
4.228170840736089
  0
SEQEND
  5
506
  8
PROFILEEDGES
  0
POLYLINE
  5
13F
  8
PROFILEEDGES
 66
     1
 10
0.0
 20
0.0
 30
0.0
  0
VERTEX
  5
35F
  8
PROFILEEDGES
 10
291.6945288557855
 20
719.5135039555657
 30
0.0
 40
4.228170840736089
 41
4.228170840736089
  0
VERTEX
  5
360
  8
PROFILEEDGES
 10
290.2845408389979
 20
721.321456176562
 30
0.0
 40
4.228170840736089
 41
4.228170840736089
  0
SEQEND
  5
507
  8
PROFILEEDGES
  0
POLYLINE
  5
140
  8
PROFILEEDGES
 66
     1
 10
0.0
 20
0.0
 30
0.0
  0
VERTEX
  5
361
  8
PROFILEEDGES
 10
292.8771031468914
 20
717.5492546111808
 30
0.0
 40
4.228170840736089
 41
4.228170840736089
  0
VERTEX
  5
362
  8
PROFILEEDGES
 10
291.6945288557855
 20
719.5135039555657
 30
0.0
 40
4.228170840736089
 41
4.228170840736089
  0
SEQEND
  5
508
  8
PROFILEEDGES
  0
POLYLINE
  5
141
  8
PROFILEEDGES
 66
     1
 10
0.0
 20
0.0
 30
0.0
  0
VERTEX
  5
363
  8
PROFILEEDGES
 10
293.8151337498461
 20
715.4571609161417
 30
0.0
 40
4.228170840736089
 41
4.228170840736089
  0
VERTEX
  5
364
  8
PROFILEEDGES
 10
292.8771031468914
 20
717.5492546111808
 30
0.0
 40
4.228170840736089
 41
4.228170840736089
  0
SEQEND
  5
509
  8
PROFILEEDGES
  0
POLYLINE
  5
142
  8
PROFILEEDGES
 66
     1
 10
0.0
 20
0.0
 30
0.0
  0
VERTEX
  5
365
  8
PROFILEEDGES
 10
-362.1800750374429
 20
727.6232502021057
 30
0.0
 40
4.228170840736089
 41
4.228170840736089
  0
VERTEX
  5
366
  8
PROFILEEDGES
 10
-364.5516351030811
 20
727.4751425012071
 30
0.0
 40
4.228170840736089
 41
4.228170840736089
  0
SEQEND
  5
50A
  8
PROFILEEDGES
  0
POLYLINE
  5
143
  8
PROFILEEDGES
 66
     1
 10
0.0
 20
0.0
 30
0.0
  0
VERTEX
  5
367
  8
PROFILEEDGES
 10
-364.5401039887244
 20
717.8246312313171
 30
0.0
 40
4.228170840736089
 41
4.228170840736089
  0
VERTEX
  5
368
  8
PROFILEEDGES
 10
-365.6742025251794
 20
717.4590298436713
 30
0.0
 40
4.228170840736089
 41
4.228170840736089
  0
SEQEND
  5
50B
  8
PROFILEEDGES
  0
POLYLINE
  5
144
  8
PROFILEEDGES
 66
     1
 10
0.0
 20
0.0
 30
0.0
  0
VERTEX
  5
369
  8
PROFILEEDGES
 10
-365.6742025251794
 20
717.4590298436713
 30
0.0
 40
4.228170840736089
 41
4.228170840736089
  0
VERTEX
  5
36A
  8
PROFILEEDGES
 10
-366.754001637958
 20
716.9551670239822
 30
0.0
 40
4.228170840736089
 41
4.228170840736089
  0
SEQEND
  5
50C
  8
PROFILEEDGES
  0
POLYLINE
  5
145
  8
PROFILEEDGES
 66
     1
 10
0.0
 20
0.0
 30
0.0
  0
VERTEX
  5
36B
  8
PROFILEEDGES
 10
-366.754001637958
 20
716.9551670239822
 30
0.0
 40
4.228170840736089
 41
4.228170840736089
  0
VERTEX
  5
36C
  8
PROFILEEDGES
 10
-367.7627210379337
 20
716.3208728988893
 30
0.0
 40
4.228170840736089
 41
4.228170840736089
  0
SEQEND
  5
50D
  8
PROFILEEDGES
  0
POLYLINE
  5
146
  8
PROFILEEDGES
 66
     1
 10
0.0
 20
0.0
 30
0.0
  0
VERTEX
  5
36D
  8
PROFILEEDGES
 10
-367.7627210379337
 20
716.3208728988893
 30
0.0
 40
4.228170840736089
 41
4.228170840736089
  0
VERTEX
  5
36E
  8
PROFILEEDGES
 10
-368.6846850286031
 20
715.5660045229914
 30
0.0
 40
4.228170840736089
 41
4.228170840736089
  0
SEQEND
  5
50E
  8
PROFILEEDGES
  0
POLYLINE
  5
147
  8
PROFILEEDGES
 66
     1
 10
0.0
 20
0.0
 30
0.0
  0
VERTEX
  5
36F
  8
PROFILEEDGES
 10
-368.6846850286031
 20
715.5660045229914
 30
0.0
 40
4.228170840736089
 41
4.228170840736089
  0
VERTEX
  5
370
  8
PROFILEEDGES
 10
-369.505566109461
 20
714.7022926983004
 30
0.0
 40
4.228170840736089
 41
4.228170840736089
  0
SEQEND
  5
50F
  8
PROFILEEDGES
  0
POLYLINE
  5
148
  8
PROFILEEDGES
 66
     1
 10
0.0
 20
0.0
 30
0.0
  0
VERTEX
  5
371
  8
PROFILEEDGES
 10
-369.505566109461
 20
714.7022926983004
 30
0.0
 40
4.228170840736089
 41
4.228170840736089
  0
VERTEX
  5
372
  8
PROFILEEDGES
 10
-370.2126076281654
 20
713.7431596752784
 30
0.0
 40
4.228170840736089
 41
4.228170840736089
  0
SEQEND
  5
510
  8
PROFILEEDGES
  0
POLYLINE
  5
149
  8
PROFILEEDGES
 66
     1
 10
0.0
 20
0.0
 30
0.0
  0
VERTEX
  5
373
  8
PROFILEEDGES
 10
-370.2126076281654
 20
713.7431596752784
 30
0.0
 40
4.228170840736089
 41
4.228170840736089
  0
VERTEX
  5
374
  8
PROFILEEDGES
 10
-370.7948220214156
 20
712.703510568456
 30
0.0
 40
4.228170840736089
 41
4.228170840736089
  0
SEQEND
  5
511
  8
PROFILEEDGES
  0
POLYLINE
  5
14A
  8
PROFILEEDGES
 66
     1
 10
0.0
 20
0.0
 30
0.0
  0
VERTEX
  5
375
  8
PROFILEEDGES
 10
-370.7948220214156
 20
712.703510568456
 30
0.0
 40
4.228170840736089
 41
4.228170840736089
  0
VERTEX
  5
376
  8
PROFILEEDGES
 10
-371.2431615638039
 20
711.5995017280244
 30
0.0
 40
4.228170840736089
 41
4.228170840736089
  0
SEQEND
  5
512
  8
PROFILEEDGES
  0
POLYLINE
  5
14B
  8
PROFILEEDGES
 66
     1
 10
0.0
 20
0.0
 30
0.0
  0
VERTEX
  5
377
  8
PROFILEEDGES
 10
-371.5506589712792
 20
710.448289667014
 30
0.0
 40
4.228170840736089
 41
4.228170840736089
  0
VERTEX
  5
378
  8
PROFILEEDGES
 10
-371.705075037461
 20
709.3221729524437
 30
0.0
 40
4.228170840736089
 41
4.228170840736089
  0
SEQEND
  5
513
  8
PROFILEEDGES
  0
POLYLINE
  5
14C
  8
PROFILEEDGES
 66
     1
 10
0.0
 20
0.0
 30
0.0
  0
VERTEX
  5
379
  8
PROFILEEDGES
 10
-371.705075037461
 20
709.3221729524437
 30
0.0
 40
4.228170840736089
 41
4.228170840736089
  0
VERTEX
  5
37A
  8
PROFILEEDGES
 10
-371.7050750373858
 20
70.5484651421
 30
0.0
 40
4.228170840736089
 41
4.228170840736089
  0
SEQEND
  5
514
  8
PROFILEEDGES
  0
POLYLINE
  5
14D
  8
PROFILEEDGES
 66
     1
 10
0.0
 20
0.0
 30
0.0
  0
VERTEX
  5
37B
  8
PROFILEEDGES
 10
-371.7050750373858
 20
70.5484651421
 30
0.0
 40
4.228170840736089
 41
4.228170840736089
  0
VERTEX
  5
37C
  8
PROFILEEDGES
 10
-371.6234608896891
 20
69.30156760696244
 30
0.0
 40
4.228170840736089
 41
4.228170840736089
  0
SEQEND
  5
515
  8
PROFILEEDGES
  0
POLYLINE
  5
14E
  8
PROFILEEDGES
 66
     1
 10
0.0
 20
0.0
 30
0.0
  0
VERTEX
  5
37D
  8
PROFILEEDGES
 10
-371.6234608896891
 20
69.30156760696244
 30
0.0
 40
4.228170840736089
 41
4.228170840736089
  0
VERTEX
  5
37E
  8
PROFILEEDGES
 10
-371.3800110844174
 20
68.07594673387636
 30
0.0
 40
4.228170840736089
 41
4.228170840736089
  0
SEQEND
  5
516
  8
PROFILEEDGES
  0
POLYLINE
  5
14F
  8
PROFILEEDGES
 66
     1
 10
0.0
 20
0.0
 30
0.0
  0
VERTEX
  5
37F
  8
PROFILEEDGES
 10
-371.3800110844174
 20
68.07594673387636
 30
0.0
 40
4.228170840736089
 41
4.228170840736089
  0
VERTEX
  5
380
  8
PROFILEEDGES
 10
-370.9788797714211
 20
66.89251612671329
 30
0.0
 40
4.228170840736089
 41
4.228170840736089
  0
SEQEND
  5
517
  8
PROFILEEDGES
  0
POLYLINE
  5
150
  8
PROFILEEDGES
 66
     1
 10
0.0
 20
0.0
 30
0.0
  0
VERTEX
  5
381
  8
PROFILEEDGES
 10
-370.9788797714211
 20
66.89251612671329
 30
0.0
 40
4.228170840736089
 41
4.228170840736089
  0
VERTEX
  5
382
  8
PROFILEEDGES
 10
-370.4269117275585
 20
65.77146946809631
 30
0.0
 40
4.228170840736089
 41
4.228170840736089
  0
SEQEND
  5
518
  8
PROFILEEDGES
  0
POLYLINE
  5
151
  8
PROFILEEDGES
 66
     1
 10
0.0
 20
0.0
 30
0.0
  0
VERTEX
  5
383
  8
PROFILEEDGES
 10
-370.4269117275585
 20
65.77146946809631
 30
0.0
 40
4.228170840736089
 41
4.228170840736089
  0
VERTEX
  5
384
  8
PROFILEEDGES
 10
-369.7335255595885
 20
64.73193594083861
 30
0.0
 40
4.228170840736089
 41
4.228170840736089
  0
SEQEND
  5
519
  8
PROFILEEDGES
  0
POLYLINE
  5
152
  8
PROFILEEDGES
 66
     1
 10
0.0
 20
0.0
 30
0.0
  0
VERTEX
  5
385
  8
PROFILEEDGES
 10
-369.7335255595885
 20
64.73193594083861
 30
0.0
 40
4.228170840736089
 41
4.228170840736089
  0
VERTEX
  5
386
  8
PROFILEEDGES
 10
-368.9105529880165
 20
63.79165381366505
 30
0.0
 40
4.228170840736089
 41
4.228170840736089
  0
SEQEND
  5
51A
  8
PROFILEEDGES
  0
POLYLINE
  5
153
  8
PROFILEEDGES
 66
     1
 10
0.0
 20
0.0
 30
0.0
  0
VERTEX
  5
387
  8
PROFILEEDGES
 10
-368.9105529880165
 20
63.79165381366505
 30
0.0
 40
4.228170840736089
 41
4.228170840736089
  0
VERTEX
  5
388
  8
PROFILEEDGES
 10
-367.9720369544717
 20
62.96666776104665
 30
0.0
 40
4.228170840736089
 41
4.228170840736089
  0
SEQEND
  5
51B
  8
PROFILEEDGES
  0
POLYLINE
  5
154
  8
PROFILEEDGES
 66
     1
 10
0.0
 20
0.0
 30
0.0
  0
VERTEX
  5
389
  8
PROFILEEDGES
 10
-367.9720369544717
 20
62.96666776104665
 30
0.0
 40
4.228170840736089
 41
4.228170840736089
  0
VERTEX
  5
38A
  8
PROFILEEDGES
 10
-366.9339919973654
 20
62.27105508199822
 30
0.0
 40
4.228170840736089
 41
4.228170840736089
  0
SEQEND
  5
51C
  8
PROFILEEDGES
  0
POLYLINE
  5
155
  8
PROFILEEDGES
 66
     1
 10
0.0
 20
0.0
 30
0.0
  0
VERTEX
  5
38B
  8
PROFILEEDGES
 10
-366.9339919973654
 20
62.27105508199822
 30
0.0
 40
4.228170840736089
 41
4.228170840736089
  0
VERTEX
  5
38C
  8
PROFILEEDGES
 10
-365.814130984932
 20
61.71668548952115
 30
0.0
 40
4.228170840736089
 41
4.228170840736089
  0
SEQEND
  5
51D
  8
PROFILEEDGES
  0
POLYLINE
  5
156
  8
PROFILEEDGES
 66
     1
 10
0.0
 20
0.0
 30
0.0
  0
VERTEX
  5
38D
  8
PROFILEEDGES
 10
-365.814130984932
 20
61.71668548952115
 30
0.0
 40
4.228170840736089
 41
4.228170840736089
  0
VERTEX
  5
38E
  8
PROFILEEDGES
 10
-364.6315628684905
 20
61.31301856962244
 30
0.0
 40
4.228170840736089
 41
4.228170840736089
  0
SEQEND
  5
51E
  8
PROFILEEDGES
  0
POLYLINE
  5
157
  8
PROFILEEDGES
 66
     1
 10
0.0
 20
0.0
 30
0.0
  0
VERTEX
  5
38F
  8
PROFILEEDGES
 10
-364.6315628684905
 20
61.31301856962244
 30
0.0
 40
4.228170840736089
 41
4.228170840736089
  0
VERTEX
  5
390
  8
PROFILEEDGES
 10
-363.4064666134084
 20
61.06694236593945
 30
0.0
 40
4.228170840736089
 41
4.228170840736089
  0
SEQEND
  5
51F
  8
PROFILEEDGES
  0
POLYLINE
  5
158
  8
PROFILEEDGES
 66
     1
 10
0.0
 20
0.0
 30
0.0
  0
VERTEX
  5
391
  8
PROFILEEDGES
 10
-363.4064666134084
 20
61.06694236593945
 30
0.0
 40
4.228170840736089
 41
4.228170840736089
  0
VERTEX
  5
392
  8
PROFILEEDGES
 10
-362.1597468716389
 20
60.98265584436579
 30
0.0
 40
4.228170840736089
 41
4.228170840736089
  0
SEQEND
  5
520
  8
PROFILEEDGES
  0
POLYLINE
  5
159
  8
PROFILEEDGES
 66
     1
 10
0.0
 20
0.0
 30
0.0
  0
VERTEX
  5
393
  8
PROFILEEDGES
 10
275.9949249626158
 20
60.98267762984908
 30
0.0
 40
4.228170840736089
 41
4.228170840736089
  0
VERTEX
  5
394
  8
PROFILEEDGES
 10
277.2435107821827
 20
61.06451426808533
 30
0.0
 40
4.228170840736089
 41
4.228170840736089
  0
SEQEND
  5
521
  8
PROFILEEDGES
  0
POLYLINE
  5
15A
  8
PROFILEEDGES
 66
     1
 10
0.0
 20
0.0
 30
0.0
  0
VERTEX
  5
395
  8
PROFILEEDGES
 10
277.2435107821827
 20
61.06451426808533
 30
0.0
 40
4.228170840736089
 41
4.228170840736089
  0
VERTEX
  5
396
  8
PROFILEEDGES
 10
278.470732952212
 20
61.30862393522537
 30
0.0
 40
4.228170840736089
 41
4.228170840736089
  0
SEQEND
  5
522
  8
PROFILEEDGES
  0
POLYLINE
  5
15B
  8
PROFILEEDGES
 66
     1
 10
0.0
 20
0.0
 30
0.0
  0
VERTEX
  5
397
  8
PROFILEEDGES
 10
278.470732952212
 20
61.30862393522537
 30
0.0
 40
4.228170840736089
 41
4.228170840736089
  0
VERTEX
  5
398
  8
PROFILEEDGES
 10
279.6555933611075
 20
61.71082984718396
 30
0.0
 40
4.228170840736089
 41
4.228170840736089
  0
SEQEND
  5
523
  8
PROFILEEDGES
  0
POLYLINE
  5
15C
  8
PROFILEEDGES
 66
     1
 10
0.0
 20
0.0
 30
0.0
  0
VERTEX
  5
399
  8
PROFILEEDGES
 10
279.6555933611075
 20
61.71082984718396
 30
0.0
 40
4.228170840736089
 41
4.228170840736089
  0
VERTEX
  5
39A
  8
PROFILEEDGES
 10
280.7778187187871
 20
62.26425014929488
 30
0.0
 40
4.228170840736089
 41
4.228170840736089
  0
SEQEND
  5
524
  8
PROFILEEDGES
  0
POLYLINE
  5
15D
  8
PROFILEEDGES
 66
     1
 10
0.0
 20
0.0
 30
0.0
  0
VERTEX
  5
39B
  8
PROFILEEDGES
 10
280.7778187187871
 20
62.26425014929488
 30
0.0
 40
4.228170840736089
 41
4.228170840736089
  0
VERTEX
  5
39C
  8
PROFILEEDGES
 10
281.8182074382205
 20
62.95941566675545
 30
0.0
 40
4.228170840736089
 41
4.228170840736089
  0
SEQEND
  5
525
  8
PROFILEEDGES
  0
POLYLINE
  5
15E
  8
PROFILEEDGES
 66
     1
 10
0.0
 20
0.0
 30
0.0
  0
VERTEX
  5
39D
  8
PROFILEEDGES
 10
-28.76238109944899
 20
-614.5273911738756
 30
0.0
 40
4.228170840736089
 41
4.228170840736089
  0
VERTEX
  5
39E
  8
PROFILEEDGES
 10
-25.24590518951492
 20
-611.0109152639408
 30
0.0
 40
4.228170840736089
 41
4.228170840736089
  0
SEQEND
  5
526
  8
PROFILEEDGES
  0
POLYLINE
  5
15F
  8
PROFILEEDGES
 66
     1
 10
0.0
 20
0.0
 30
0.0
  0
VERTEX
  5
39F
  8
PROFILEEDGES
 10
-28.76238109944899
 20
-614.5273911738756
 30
0.0
 40
4.228170840736089
 41
4.228170840736089
  0
VERTEX
  5
3A0
  8
PROFILEEDGES
 10
-33.06916693551022
 20
-617.013915135654
 30
0.0
 40
4.228170840736089
 41
4.228170840736089
  0
SEQEND
  5
527
  8
PROFILEEDGES
  0
LINE
  5
160
  8
0
 10
-443.9762310294873
 20
-829.2062538947993
 30
0.0
 11
-443.9762310294878
 21
-825.4562538947994
 31
0.0
  0
LINE
  5
161
  8
0
 10
363.2576583854109
 20
-829.2062538947008
 30
0.0
 11
363.2576583854104
 21
-825.4562538947007
 31
0.0
  0
POLYLINE
  5
162
  8
PROFILEEDGES
 66
     1
 10
0.0
 20
0.0
 30
0.0
  0
VERTEX
  5
3A1
  8
PROFILEEDGES
 10
-487.5925750374207
 20
-829.2062538948013
 30
0.0
 40
4.228170840736089
 41
4.228170840736089
  0
VERTEX
  5
3A2
  8
PROFILEEDGES
 10
-487.5925750374212
 20
-825.4562538948012
 30
0.0
 40
4.228170840736089
 41
4.228170840736089
  0
SEQEND
  5
528
  8
PROFILEEDGES
  0
POLYLINE
  5
163
  8
PROFILEEDGES
 66
     1
 10
0.0
 20
0.0
 30
0.0
  0
VERTEX
  5
3A3
  8
PROFILEEDGES
 10
401.4074249624931
 20
-829.2062538946302
 30
0.0
 40
4.228170840736089
 41
4.228170840736089
  0
VERTEX
  5
3A4
  8
PROFILEEDGES
 10
401.4074249624926
 20
-825.4562538946301
 30
0.0
 40
4.228170840736089
 41
4.228170840736089
  0
SEQEND
  5
529
  8
PROFILEEDGES
  0
POLYLINE
  5
164
  8
PROFILEEDGES
 66
     1
 10
0.0
 20
0.0
 30
0.0
  0
VERTEX
  5
3A5
  8
PROFILEEDGES
 10
275.9949249626168
 20
-825.4562538947032
 30
0.0
 40
4.228170840736089
 41
4.228170840736089
  0
VERTEX
  5
3A6
  8
PROFILEEDGES
 10
-362.1800750373547
 20
-825.4562538947811
 30
0.0
 40
4.228170840736089
 41
4.228170840736089
  0
SEQEND
  5
52A
  8
PROFILEEDGES
  0
LINE
  5
165
  8
0
 10
275.9949249626168
 20
-825.4562538947032
 30
0.0
 11
275.9949249625386
 21
-184.6822542623381
 31
0.0
  0
LINE
  5
166
  8
0
 10
-362.1800750373547
 20
-825.4562538947811
 30
0.0
 11
-362.180075037433
 21
-184.6822542624161
 31
0.0
  0
POLYLINE
  5
167
  8
PROFILEEDGES
 66
     1
 10
0.0
 20
0.0
 30
0.0
  0
VERTEX
  5
3A7
  8
PROFILEEDGES
 10
-51.95619154468856
 20
-614.5273911738784
 30
0.0
 40
4.228170840736089
 41
4.228170840736089
  0
VERTEX
  5
3A8
  8
PROFILEEDGES
 10
-47.64940570862083
 20
-617.013915135671
 30
0.0
 40
4.228170840736089
 41
4.228170840736089
  0
SEQEND
  5
52B
  8
PROFILEEDGES
  0
POLYLINE
  5
168
  8
PROFILEEDGES
 66
     1
 10
0.0
 20
0.0
 30
0.0
  0
VERTEX
  5
3A9
  8
PROFILEEDGES
 10
-47.64940570862083
 20
-617.013915135671
 30
0.0
 40
4.228170840736089
 41
4.228170840736089
  0
VERTEX
  5
3AA
  8
PROFILEEDGES
 10
-42.84581028385839
 20
-618.3010346504983
 30
0.0
 40
4.228170840736089
 41
4.228170840736089
  0
SEQEND
  5
52C
  8
PROFILEEDGES
  0
POLYLINE
  5
169
  8
PROFILEEDGES
 66
     1
 10
0.0
 20
0.0
 30
0.0
  0
VERTEX
  5
3AB
  8
PROFILEEDGES
 10
-42.84581028385839
 20
-618.3010346504983
 30
0.0
 40
4.228170840736089
 41
4.228170840736089
  0
VERTEX
  5
3AC
  8
PROFILEEDGES
 10
-37.87276236028097
 20
-618.3010346504976
 30
0.0
 40
4.228170840736089
 41
4.228170840736089
  0
SEQEND
  5
52D
  8
PROFILEEDGES
  0
POLYLINE
  5
16A
  8
PROFILEEDGES
 66
     1
 10
0.0
 20
0.0
 30
0.0
  0
VERTEX
  5
3AD
  8
PROFILEEDGES
 10
-37.87276236028097
 20
-618.3010346504976
 30
0.0
 40
4.228170840736089
 41
4.228170840736089
  0
VERTEX
  5
3AE
  8
PROFILEEDGES
 10
-33.06916693551022
 20
-617.013915135654
 30
0.0
 40
4.228170840736089
 41
4.228170840736089
  0
SEQEND
  5
52E
  8
PROFILEEDGES
  0
POLYLINE
  5
16B
  8
PROFILEEDGES
 66
     1
 10
0.0
 20
0.0
 30
0.0
  0
VERTEX
  5
3AF
  8
PROFILEEDGES
 10
-25.24590518951492
 20
-611.0109152639408
 30
0.0
 40
4.228170840736089
 41
4.228170840736089
  0
VERTEX
  5
3B0
  8
PROFILEEDGES
 10
-22.75938122772241
 20
-606.7041294278788
 30
0.0
 40
4.228170840736089
 41
4.228170840736089
  0
SEQEND
  5
52F
  8
PROFILEEDGES
  0
POLYLINE
  5
16C
  8
PROFILEEDGES
 66
     1
 10
0.0
 20
0.0
 30
0.0
  0
VERTEX
  5
3B1
  8
PROFILEEDGES
 10
-22.75938122772241
 20
-606.7041294278788
 30
0.0
 40
4.228170840736089
 41
4.228170840736089
  0
VERTEX
  5
3B2
  8
PROFILEEDGES
 10
-21.47226171289233
 20
-601.9005340031164
 30
0.0
 40
4.228170840736089
 41
4.228170840736089
  0
SEQEND
  5
530
  8
PROFILEEDGES
  0
POLYLINE
  5
16D
  8
PROFILEEDGES
 66
     1
 10
0.0
 20
0.0
 30
0.0
  0
VERTEX
  5
3B3
  8
PROFILEEDGES
 10
-21.47226171289233
 20
-601.9005340031164
 30
0.0
 40
4.228170840736089
 41
4.228170840736089
  0
VERTEX
  5
3B4
  8
PROFILEEDGES
 10
-21.47226171289576
 20
-596.9274860795304
 30
0.0
 40
4.228170840736089
 41
4.228170840736089
  0
SEQEND
  5
531
  8
PROFILEEDGES
  0
POLYLINE
  5
16E
  8
PROFILEEDGES
 66
     1
 10
0.0
 20
0.0
 30
0.0
  0
VERTEX
  5
3B5
  8
PROFILEEDGES
 10
-21.47226171289576
 20
-596.9274860795304
 30
0.0
 40
4.228170840736089
 41
4.228170840736089
  0
VERTEX
  5
3B6
  8
PROFILEEDGES
 10
-22.75938122772711
 20
-592.1238906547683
 30
0.0
 40
4.228170840736089
 41
4.228170840736089
  0
SEQEND
  5
532
  8
PROFILEEDGES
  0
POLYLINE
  5
16F
  8
PROFILEEDGES
 66
     1
 10
0.0
 20
0.0
 30
0.0
  0
VERTEX
  5
3B7
  8
PROFILEEDGES
 10
-22.75938122772711
 20
-592.1238906547683
 30
0.0
 40
4.228170840736089
 41
4.228170840736089
  0
VERTEX
  5
3B8
  8
PROFILEEDGES
 10
-25.24590518951203
 20
-587.817104818707
 30
0.0
 40
4.228170840736089
 41
4.228170840736089
  0
SEQEND
  5
533
  8
PROFILEEDGES
  0
POLYLINE
  5
170
  8
PROFILEEDGES
 66
     1
 10
0.0
 20
0.0
 30
0.0
  0
VERTEX
  5
3B9
  8
PROFILEEDGES
 10
-25.24590518951203
 20
-587.817104818707
 30
0.0
 40
4.228170840736089
 41
4.228170840736089
  0
VERTEX
  5
3BA
  8
PROFILEEDGES
 10
-28.76238109945549
 20
-584.3006289087729
 30
0.0
 40
4.228170840736089
 41
4.228170840736089
  0
SEQEND
  5
534
  8
PROFILEEDGES
  0
POLYLINE
  5
171
  8
PROFILEEDGES
 66
     1
 10
0.0
 20
0.0
 30
0.0
  0
VERTEX
  5
3BB
  8
PROFILEEDGES
 10
-28.76238109945549
 20
-584.3006289087729
 30
0.0
 40
4.228170840736089
 41
4.228170840736089
  0
VERTEX
  5
3BC
  8
PROFILEEDGES
 10
-33.06916693551455
 20
-581.8141049469804
 30
0.0
 40
4.228170840736089
 41
4.228170840736089
  0
SEQEND
  5
535
  8
PROFILEEDGES
  0
POLYLINE
  5
172
  8
PROFILEEDGES
 66
     1
 10
0.0
 20
0.0
 30
0.0
  0
VERTEX
  5
3BD
  8
PROFILEEDGES
 10
-33.06916693551455
 20
-581.8141049469804
 30
0.0
 40
4.228170840736089
 41
4.228170840736089
  0
VERTEX
  5
3BE
  8
PROFILEEDGES
 10
-37.87276236027699
 20
-580.5269854321532
 30
0.0
 40
4.228170840736089
 41
4.228170840736089
  0
SEQEND
  5
536
  8
PROFILEEDGES
  0
POLYLINE
  5
173
  8
PROFILEEDGES
 66
     1
 10
0.0
 20
0.0
 30
0.0
  0
VERTEX
  5
3BF
  8
PROFILEEDGES
 10
-37.87276236027699
 20
-580.5269854321532
 30
0.0
 40
4.228170840736089
 41
4.228170840736089
  0
VERTEX
  5
3C0
  8
PROFILEEDGES
 10
-42.84581028386597
 20
-580.5269854321539
 30
0.0
 40
4.228170840736089
 41
4.228170840736089
  0
SEQEND
  5
537
  8
PROFILEEDGES
  0
POLYLINE
  5
174
  8
PROFILEEDGES
 66
     1
 10
0.0
 20
0.0
 30
0.0
  0
VERTEX
  5
3C1
  8
PROFILEEDGES
 10
-42.84581028386597
 20
-580.5269854321539
 30
0.0
 40
4.228170840736089
 41
4.228170840736089
  0
VERTEX
  5
3C2
  8
PROFILEEDGES
 10
-47.64940570862228
 20
-581.8141049469822
 30
0.0
 40
4.228170840736089
 41
4.228170840736089
  0
SEQEND
  5
538
  8
PROFILEEDGES
  0
POLYLINE
  5
175
  8
PROFILEEDGES
 66
     1
 10
0.0
 20
0.0
 30
0.0
  0
VERTEX
  5
3C3
  8
PROFILEEDGES
 10
-47.64940570862228
 20
-581.8141049469822
 30
0.0
 40
4.228170840736089
 41
4.228170840736089
  0
VERTEX
  5
3C4
  8
PROFILEEDGES
 10
-51.95619154468639
 20
-584.3006289087758
 30
0.0
 40
4.228170840736089
 41
4.228170840736089
  0
SEQEND
  5
539
  8
PROFILEEDGES
  0
POLYLINE
  5
176
  8
PROFILEEDGES
 66
     1
 10
0.0
 20
0.0
 30
0.0
  0
VERTEX
  5
3C5
  8
PROFILEEDGES
 10
-51.95619154468639
 20
-584.3006289087758
 30
0.0
 40
4.228170840736089
 41
4.228170840736089
  0
VERTEX
  5
3C6
  8
PROFILEEDGES
 10
-55.47266745461469
 20
-587.8171048187107
 30
0.0
 40
4.228170840736089
 41
4.228170840736089
  0
SEQEND
  5
53A
  8
PROFILEEDGES
  0
POLYLINE
  5
177
  8
PROFILEEDGES
 66
     1
 10
0.0
 20
0.0
 30
0.0
  0
VERTEX
  5
3C7
  8
PROFILEEDGES
 10
-55.47266745461469
 20
-587.8171048187107
 30
0.0
 40
4.228170840736089
 41
4.228170840736089
  0
VERTEX
  5
3C8
  8
PROFILEEDGES
 10
-57.95919141641586
 20
-592.1238906547726
 30
0.0
 40
4.228170840736089
 41
4.228170840736089
  0
SEQEND
  5
53B
  8
PROFILEEDGES
  0
POLYLINE
  5
178
  8
PROFILEEDGES
 66
     1
 10
0.0
 20
0.0
 30
0.0
  0
VERTEX
  5
3C9
  8
PROFILEEDGES
 10
-57.95919141641586
 20
-592.1238906547726
 30
0.0
 40
4.228170840736089
 41
4.228170840736089
  0
VERTEX
  5
3CA
  8
PROFILEEDGES
 10
-59.24631093124017
 20
-596.927486079535
 30
0.0
 40
4.228170840736089
 41
4.228170840736089
  0
SEQEND
  5
53C
  8
PROFILEEDGES
  0
POLYLINE
  5
179
  8
PROFILEEDGES
 66
     1
 10
0.0
 20
0.0
 30
0.0
  0
VERTEX
  5
3CB
  8
PROFILEEDGES
 10
-59.24631093124017
 20
-596.927486079535
 30
0.0
 40
4.228170840736089
 41
4.228170840736089
  0
VERTEX
  5
3CC
  8
PROFILEEDGES
 10
-59.24631093123963
 20
-601.900534003121
 30
0.0
 40
4.228170840736089
 41
4.228170840736089
  0
SEQEND
  5
53D
  8
PROFILEEDGES
  0
POLYLINE
  5
17A
  8
PROFILEEDGES
 66
     1
 10
0.0
 20
0.0
 30
0.0
  0
VERTEX
  5
3CD
  8
PROFILEEDGES
 10
-59.24631093123963
 20
-601.900534003121
 30
0.0
 40
4.228170840736089
 41
4.228170840736089
  0
VERTEX
  5
3CE
  8
PROFILEEDGES
 10
-57.95919141641405
 20
-606.7041294278831
 30
0.0
 40
4.228170840736089
 41
4.228170840736089
  0
SEQEND
  5
53E
  8
PROFILEEDGES
  0
POLYLINE
  5
17B
  8
PROFILEEDGES
 66
     1
 10
0.0
 20
0.0
 30
0.0
  0
VERTEX
  5
3CF
  8
PROFILEEDGES
 10
-57.95919141641405
 20
-606.7041294278831
 30
0.0
 40
4.228170840736089
 41
4.228170840736089
  0
VERTEX
  5
3D0
  8
PROFILEEDGES
 10
-55.47266745461758
 20
-611.0109152639445
 30
0.0
 40
4.228170840736089
 41
4.228170840736089
  0
SEQEND
  5
53F
  8
PROFILEEDGES
  0
POLYLINE
  5
17C
  8
PROFILEEDGES
 66
     1
 10
0.0
 20
0.0
 30
0.0
  0
VERTEX
  5
3D1
  8
PROFILEEDGES
 10
-55.47266745461758
 20
-611.0109152639445
 30
0.0
 40
4.228170840736089
 41
4.228170840736089
  0
VERTEX
  5
3D2
  8
PROFILEEDGES
 10
-51.95619154468856
 20
-614.5273911738784
 30
0.0
 40
4.228170840736089
 41
4.228170840736089
  0
SEQEND
  5
540
  8
PROFILEEDGES
  0
POLYLINE
  5
17D
  8
PROFILEEDGES
 66
     1
 10
0.0
 20
0.0
 30
0.0
  0
VERTEX
  5
3D3
  8
PROFILEEDGES
 10
-58.76017331290003
 20
-346.8952702563315
 30
0.0
 40
4.228170840736089
 41
4.228170840736089
  0
VERTEX
  5
3D4
  8
PROFILEEDGES
 10
-56.85707026419626
 20
-351.48976744713
 30
0.0
 40
4.228170840736089
 41
4.228170840736089
  0
SEQEND
  5
541
  8
PROFILEEDGES
  0
POLYLINE
  5
17E
  8
PROFILEEDGES
 66
     1
 10
0.0
 20
0.0
 30
0.0
  0
VERTEX
  5
3D5
  8
PROFILEEDGES
 10
-56.85707026419626
 20
-351.48976744713
 30
0.0
 40
4.228170840736089
 41
4.228170840736089
  0
VERTEX
  5
3D6
  8
PROFILEEDGES
 10
-53.82967050370348
 20
-355.4351516287356
 30
0.0
 40
4.228170840736089
 41
4.228170840736089
  0
SEQEND
  5
542
  8
PROFILEEDGES
  0
POLYLINE
  5
17F
  8
PROFILEEDGES
 66
     1
 10
0.0
 20
0.0
 30
0.0
  0
VERTEX
  5
3D7
  8
PROFILEEDGES
 10
-53.82967050370348
 20
-355.4351516287356
 30
0.0
 40
4.228170840736089
 41
4.228170840736089
  0
VERTEX
  5
3D8
  8
PROFILEEDGES
 10
-49.88428632209711
 20
-358.4625513892274
 30
0.0
 40
4.228170840736089
 41
4.228170840736089
  0
SEQEND
  5
543
  8
PROFILEEDGES
  0
POLYLINE
  5
180
  8
PROFILEEDGES
 66
     1
 10
0.0
 20
0.0
 30
0.0
  0
VERTEX
  5
3D9
  8
PROFILEEDGES
 10
-49.88428632209711
 20
-358.4625513892274
 30
0.0
 40
4.228170840736089
 41
4.228170840736089
  0
VERTEX
  5
3DA
  8
PROFILEEDGES
 10
-45.28978913129817
 20
-360.3656544379358
 30
0.0
 40
4.228170840736089
 41
4.228170840736089
  0
SEQEND
  5
544
  8
PROFILEEDGES
  0
POLYLINE
  5
181
  8
PROFILEEDGES
 66
     1
 10
0.0
 20
0.0
 30
0.0
  0
VERTEX
  5
3DB
  8
PROFILEEDGES
 10
-45.28978913129817
 20
-360.3656544379358
 30
0.0
 40
4.228170840736089
 41
4.228170840736089
  0
VERTEX
  5
3DC
  8
PROFILEEDGES
 10
-40.35928632209684
 20
-361.014767447128
 30
0.0
 40
4.228170840736089
 41
4.228170840736089
  0
SEQEND
  5
545
  8
PROFILEEDGES
  0
POLYLINE
  5
182
  8
PROFILEEDGES
 66
     1
 10
0.0
 20
0.0
 30
0.0
  0
VERTEX
  5
3DD
  8
PROFILEEDGES
 10
-40.35928632209684
 20
-361.014767447128
 30
0.0
 40
4.228170840736089
 41
4.228170840736089
  0
VERTEX
  5
3DE
  8
PROFILEEDGES
 10
-35.42878351289568
 20
-360.3656544379347
 30
0.0
 40
4.228170840736089
 41
4.228170840736089
  0
SEQEND
  5
546
  8
PROFILEEDGES
  0
POLYLINE
  5
183
  8
PROFILEEDGES
 66
     1
 10
0.0
 20
0.0
 30
0.0
  0
VERTEX
  5
3DF
  8
PROFILEEDGES
 10
-35.42878351289568
 20
-360.3656544379347
 30
0.0
 40
4.228170840736089
 41
4.228170840736089
  0
VERTEX
  5
3E0
  8
PROFILEEDGES
 10
-30.83428632209711
 20
-358.4625513892251
 30
0.0
 40
4.228170840736089
 41
4.228170840736089
  0
SEQEND
  5
547
  8
PROFILEEDGES
  0
POLYLINE
  5
184
  8
PROFILEEDGES
 66
     1
 10
0.0
 20
0.0
 30
0.0
  0
VERTEX
  5
3E1
  8
PROFILEEDGES
 10
-30.83428632209711
 20
-358.4625513892251
 30
0.0
 40
4.228170840736089
 41
4.228170840736089
  0
VERTEX
  5
3E2
  8
PROFILEEDGES
 10
-26.88890214049436
 20
-355.4351516287323
 30
0.0
 40
4.228170840736089
 41
4.228170840736089
  0
SEQEND
  5
548
  8
PROFILEEDGES
  0
POLYLINE
  5
185
  8
PROFILEEDGES
 66
     1
 10
0.0
 20
0.0
 30
0.0
  0
VERTEX
  5
3E3
  8
PROFILEEDGES
 10
-26.88890214049436
 20
-355.4351516287323
 30
0.0
 40
4.228170840736089
 41
4.228170840736089
  0
VERTEX
  5
3E4
  8
PROFILEEDGES
 10
-23.86150237999976
 20
-351.4897674471259
 30
0.0
 40
4.228170840736089
 41
4.228170840736089
  0
SEQEND
  5
549
  8
PROFILEEDGES
  0
POLYLINE
  5
186
  8
PROFILEEDGES
 66
     1
 10
0.0
 20
0.0
 30
0.0
  0
VERTEX
  5
3E5
  8
PROFILEEDGES
 10
-23.86150237999976
 20
-351.4897674471259
 30
0.0
 40
4.228170840736089
 41
4.228170840736089
  0
VERTEX
  5
3E6
  8
PROFILEEDGES
 10
-21.95839933128842
 20
-346.8952702563269
 30
0.0
 40
4.228170840736089
 41
4.228170840736089
  0
SEQEND
  5
54A
  8
PROFILEEDGES
  0
POLYLINE
  5
187
  8
PROFILEEDGES
 66
     1
 10
0.0
 20
0.0
 30
0.0
  0
VERTEX
  5
3E7
  8
PROFILEEDGES
 10
-21.95839933128842
 20
-346.8952702563269
 30
0.0
 40
4.228170840736089
 41
4.228170840736089
  0
VERTEX
  5
3E8
  8
PROFILEEDGES
 10
-21.30928632210207
 20
-341.9647674471256
 30
0.0
 40
4.228170840736089
 41
4.228170840736089
  0
SEQEND
  5
54B
  8
PROFILEEDGES
  0
POLYLINE
  5
188
  8
PROFILEEDGES
 66
     1
 10
0.0
 20
0.0
 30
0.0
  0
VERTEX
  5
3E9
  8
PROFILEEDGES
 10
-21.30928632210207
 20
-341.9647674471256
 30
0.0
 40
4.228170840736089
 41
4.228170840736089
  0
VERTEX
  5
3EA
  8
PROFILEEDGES
 10
-21.95839933129248
 20
-337.0342646379244
 30
0.0
 40
4.228170840736089
 41
4.228170840736089
  0
SEQEND
  5
54C
  8
PROFILEEDGES
  0
POLYLINE
  5
189
  8
PROFILEEDGES
 66
     1
 10
0.0
 20
0.0
 30
0.0
  0
VERTEX
  5
3EB
  8
PROFILEEDGES
 10
-21.95839933129248
 20
-337.0342646379244
 30
0.0
 40
4.228170840736089
 41
4.228170840736089
  0
VERTEX
  5
3EC
  8
PROFILEEDGES
 10
-23.86150238000202
 20
-332.4397674471259
 30
0.0
 40
4.228170840736089
 41
4.228170840736089
  0
SEQEND
  5
54D
  8
PROFILEEDGES
  0
POLYLINE
  5
18A
  8
PROFILEEDGES
 66
     1
 10
0.0
 20
0.0
 30
0.0
  0
VERTEX
  5
3ED
  8
PROFILEEDGES
 10
-23.86150238000202
 20
-332.4397674471259
 30
0.0
 40
4.228170840736089
 41
4.228170840736089
  0
VERTEX
  5
3EE
  8
PROFILEEDGES
 10
-26.88890214049481
 20
-328.4943832655202
 30
0.0
 40
4.228170840736089
 41
4.228170840736089
  0
SEQEND
  5
54E
  8
PROFILEEDGES
  0
POLYLINE
  5
18B
  8
PROFILEEDGES
 66
     1
 10
0.0
 20
0.0
 30
0.0
  0
VERTEX
  5
3EF
  8
PROFILEEDGES
 10
-26.88890214049481
 20
-328.4943832655202
 30
0.0
 40
4.228170840736089
 41
4.228170840736089
  0
VERTEX
  5
3F0
  8
PROFILEEDGES
 10
-30.8342863220954
 20
-325.4669835050285
 30
0.0
 40
4.228170840736089
 41
4.228170840736089
  0
SEQEND
  5
54F
  8
PROFILEEDGES
  0
POLYLINE
  5
18C
  8
PROFILEEDGES
 66
     1
 10
0.0
 20
0.0
 30
0.0
  0
VERTEX
  5
3F1
  8
PROFILEEDGES
 10
-30.8342863220954
 20
-325.4669835050285
 30
0.0
 40
4.228170840736089
 41
4.228170840736089
  0
VERTEX
  5
3F2
  8
PROFILEEDGES
 10
-35.42878351290011
 20
-323.5638804563201
 30
0.0
 40
4.228170840736089
 41
4.228170840736089
  0
SEQEND
  5
550
  8
PROFILEEDGES
  0
POLYLINE
  5
18D
  8
PROFILEEDGES
 66
     1
 10
0.0
 20
0.0
 30
0.0
  0
VERTEX
  5
3F3
  8
PROFILEEDGES
 10
-35.42878351290011
 20
-323.5638804563201
 30
0.0
 40
4.228170840736089
 41
4.228170840736089
  0
VERTEX
  5
3F4
  8
PROFILEEDGES
 10
-40.35928632210144
 20
-322.914767447128
 30
0.0
 40
4.228170840736089
 41
4.228170840736089
  0
SEQEND
  5
551
  8
PROFILEEDGES
  0
POLYLINE
  5
18E
  8
PROFILEEDGES
 66
     1
 10
0.0
 20
0.0
 30
0.0
  0
VERTEX
  5
3F5
  8
PROFILEEDGES
 10
-40.35928632210144
 20
-322.914767447128
 30
0.0
 40
4.228170840736089
 41
4.228170840736089
  0
VERTEX
  5
3F6
  8
PROFILEEDGES
 10
-45.28978913129682
 20
-323.5638804563212
 30
0.0
 40
4.228170840736089
 41
4.228170840736089
  0
SEQEND
  5
552
  8
PROFILEEDGES
  0
POLYLINE
  5
18F
  8
PROFILEEDGES
 66
     1
 10
0.0
 20
0.0
 30
0.0
  0
VERTEX
  5
3F7
  8
PROFILEEDGES
 10
-45.28978913129682
 20
-323.5638804563212
 30
0.0
 40
4.228170840736089
 41
4.228170840736089
  0
VERTEX
  5
3F8
  8
PROFILEEDGES
 10
-49.88428632210117
 20
-325.4669835050308
 30
0.0
 40
4.228170840736089
 41
4.228170840736089
  0
SEQEND
  5
553
  8
PROFILEEDGES
  0
POLYLINE
  5
190
  8
PROFILEEDGES
 66
     1
 10
0.0
 20
0.0
 30
0.0
  0
VERTEX
  5
3F9
  8
PROFILEEDGES
 10
-49.88428632210117
 20
-325.4669835050308
 30
0.0
 40
4.228170840736089
 41
4.228170840736089
  0
VERTEX
  5
3FA
  8
PROFILEEDGES
 10
-53.82967050370392
 20
-328.4943832655235
 30
0.0
 40
4.228170840736089
 41
4.228170840736089
  0
SEQEND
  5
554
  8
PROFILEEDGES
  0
POLYLINE
  5
191
  8
PROFILEEDGES
 66
     1
 10
0.0
 20
0.0
 30
0.0
  0
VERTEX
  5
3FB
  8
PROFILEEDGES
 10
-53.82967050370392
 20
-328.4943832655235
 30
0.0
 40
4.228170840736089
 41
4.228170840736089
  0
VERTEX
  5
3FC
  8
PROFILEEDGES
 10
-56.85707026419852
 20
-332.43976744713
 30
0.0
 40
4.228170840736089
 41
4.228170840736089
  0
SEQEND
  5
555
  8
PROFILEEDGES
  0
POLYLINE
  5
192
  8
PROFILEEDGES
 66
     1
 10
0.0
 20
0.0
 30
0.0
  0
VERTEX
  5
3FD
  8
PROFILEEDGES
 10
-56.85707026419852
 20
-332.43976744713
 30
0.0
 40
4.228170840736089
 41
4.228170840736089
  0
VERTEX
  5
3FE
  8
PROFILEEDGES
 10
-58.76017331290409
 20
-337.034264637929
 30
0.0
 40
4.228170840736089
 41
4.228170840736089
  0
SEQEND
  5
556
  8
PROFILEEDGES
  0
POLYLINE
  5
193
  8
PROFILEEDGES
 66
     1
 10
0.0
 20
0.0
 30
0.0
  0
VERTEX
  5
3FF
  8
PROFILEEDGES
 10
-58.76017331290409
 20
-337.034264637929
 30
0.0
 40
4.228170840736089
 41
4.228170840736089
  0
VERTEX
  5
400
  8
PROFILEEDGES
 10
-59.40928632209918
 20
-341.9647674471302
 30
0.0
 40
4.228170840736089
 41
4.228170840736089
  0
SEQEND
  5
557
  8
PROFILEEDGES
  0
POLYLINE
  5
194
  8
PROFILEEDGES
 66
     1
 10
0.0
 20
0.0
 30
0.0
  0
VERTEX
  5
401
  8
PROFILEEDGES
 10
-59.40928632209918
 20
-341.9647674471302
 30
0.0
 40
4.228170840736089
 41
4.228170840736089
  0
VERTEX
  5
402
  8
PROFILEEDGES
 10
-58.76017331290003
 20
-346.8952702563315
 30
0.0
 40
4.228170840736089
 41
4.228170840736089
  0
SEQEND
  5
558
  8
PROFILEEDGES
  0
POLYLINE
  5
195
  8
PROFILEEDGES
 66
     1
 10
0.0
 20
0.0
 30
0.0
  0
VERTEX
  5
403
  8
PROFILEEDGES
 10
-381.1892875250579
 20
-825.4562538947819
 30
0.0
 40
4.228170840736089
 41
4.228170840736089
  0
VERTEX
  5
404
  8
PROFILEEDGES
 10
-381.1892875251276
 20
-184.6822542623671
 30
0.0
 40
4.228170840736089
 41
4.228170840736089
  0
SEQEND
  5
559
  8
PROFILEEDGES
  0
POLYLINE
  5
196
  8
PROFILEEDGES
 66
     1
 10
0.0
 20
0.0
 30
0.0
  0
VERTEX
  5
405
  8
PROFILEEDGES
 10
295.0449249626139
 20
-825.4562538946992
 30
0.0
 40
4.228170840736089
 41
4.228170840736089
  0
VERTEX
  5
406
  8
PROFILEEDGES
 10
295.0449249625415
 20
-184.6822542622846
 30
0.0
 40
4.228170840736089
 41
4.228170840736089
  0
SEQEND
  5
55A
  8
PROFILEEDGES
  0
POLYLINE
  5
197
  8
PROFILEEDGES
 66
     1
 10
0.0
 20
0.0
 30
0.0
  0
VERTEX
  5
407
  8
PROFILEEDGES
 10
-371.5506589712792
 20
710.448289667014
 30
0.0
 40
4.228170840736089
 41
4.228170840736089
  0
VERTEX
  5
408
  8
PROFILEEDGES
 10
-371.5030947823182
 20
710.5087892629
 30
0.0
 40
4.228170840736089
 41
4.228170840736089
  0
SEQEND
  5
55B
  8
PROFILEEDGES
  0
POLYLINE
  5
198
  8
PROFILEEDGES
 66
     1
 10
0.0
 20
0.0
 30
0.0
  0
VERTEX
  5
409
  8
PROFILEEDGES
 10
-364.2692662700287
 20
717.8467777688528
 30
0.0
 40
4.228170840736089
 41
4.228170840736089
  0
VERTEX
  5
40A
  8
PROFILEEDGES
 10
-363.3693301413929
 20
718.0462896699422
 30
0.0
 40
4.228170840736089
 41
4.228170840736089
  0
SEQEND
  5
55C
  8
PROFILEEDGES
  0
POLYLINE
  5
199
  8
PROFILEEDGES
 66
     1
 10
0.0
 20
0.0
 30
0.0
  0
VERTEX
  5
40B
  8
PROFILEEDGES
 10
-364.2692662700287
 20
717.8467777688528
 30
0.0
 40
4.228170840736089
 41
4.228170840736089
  0
VERTEX
  5
40C
  8
PROFILEEDGES
 10
-364.5401039887244
 20
717.8246312313171
 30
0.0
 40
4.228170840736089
 41
4.228170840736089
  0
SEQEND
  5
55D
  8
PROFILEEDGES
  0
POLYLINE
  5
19A
  8
PROFILEEDGES
 66
     1
 10
0.0
 20
0.0
 30
0.0
  0
VERTEX
  5
40D
  8
PROFILEEDGES
 10
-371.2431615638039
 20
711.5995017280244
 30
0.0
 40
4.228170840736089
 41
4.228170840736089
  0
VERTEX
  5
40E
  8
PROFILEEDGES
 10
-371.5030947823182
 20
710.5087892629
 30
0.0
 40
4.228170840736089
 41
4.228170840736089
  0
SEQEND
  5
55E
  8
PROFILEEDGES
  0
POLYLINE
  5
19B
  8
PROFILEEDGES
 66
     1
 10
0.0
 20
0.0
 30
0.0
  0
VERTEX
  5
40F
  8
PROFILEEDGES
 10
275.9949249626168
 20
-825.4562538947032
 30
0.0
 40
4.228170840736089
 41
4.228170840736089
  0
VERTEX
  5
410
  8
PROFILEEDGES
 10
295.0449249626139
 20
-825.4562538946992
 30
0.0
 40
4.228170840736089
 41
4.228170840736089
  0
SEQEND
  5
55F
  8
PROFILEEDGES
  0
POLYLINE
  5
19C
  8
PROFILEEDGES
 66
     1
 10
0.0
 20
0.0
 30
0.0
  0
VERTEX
  5
411
  8
PROFILEEDGES
 10
-363.3693301413929
 20
718.0462896699422
 30
0.0
 40
4.228170840736089
 41
4.228170840736089
  0
VERTEX
  5
412
  8
PROFILEEDGES
 10
-361.8842111559695
 20
718.1390377144372
 30
0.0
 40
4.228170840736089
 41
4.228170840736089
  0
SEQEND
  5
560
  8
PROFILEEDGES
  0
POLYLINE
  5
19D
  8
PROFILEEDGES
 66
     1
 10
0.0
 20
0.0
 30
0.0
  0
VERTEX
  5
413
  8
PROFILEEDGES
 10
-362.1800750373517
 20
51.49846514210115
 30
0.0
 40
4.228170840736089
 41
4.228170840736089
  0
VERTEX
  5
414
  8
PROFILEEDGES
 10
275.9949249626198
 20
51.49846514218054
 30
0.0
 40
4.228170840736089
 41
4.228170840736089
  0
SEQEND
  5
561
  8
PROFILEEDGES
  0
POLYLINE
  5
19E
  8
PROFILEEDGES
 66
     1
 10
0.0
 20
0.0
 30
0.0
  0
VERTEX
  5
415
  8
PROFILEEDGES
 10
278.3825230619364
 20
727.6232502021841
 30
0.0
 40
4.228170840736089
 41
4.228170840736089
  0
VERTEX
  5
416
  8
PROFILEEDGES
 10
-362.1800750374429
 20
727.6232502021057
 30
0.0
 40
4.228170840736089
 41
4.228170840736089
  0
SEQEND
  5
562
  8
PROFILEEDGES
  0
POLYLINE
  5
19F
  8
PROFILEEDGES
 66
     1
 10
0.0
 20
0.0
 30
0.0
  0
VERTEX
  5
417
  8
PROFILEEDGES
 10
275.9949249626158
 20
60.98267762984908
 30
0.0
 40
4.228170840736089
 41
4.228170840736089
  0
VERTEX
  5
418
  8
PROFILEEDGES
 10
-362.1597468716389
 20
60.98265584436579
 30
0.0
 40
4.228170840736089
 41
4.228170840736089
  0
SEQEND
  5
563
  8
PROFILEEDGES
  0
POLYLINE
  5
1A0
  8
PROFILEEDGES
 66
     1
 10
0.0
 20
0.0
 30
0.0
  0
VERTEX
  5
419
  8
PROFILEEDGES
 10
-361.8842111559695
 20
718.1390377144372
 30
0.0
 40
4.228170840736089
 41
4.228170840736089
  0
VERTEX
  5
41A
  8
PROFILEEDGES
 10
277.4985252202328
 20
718.1390377145154
 30
0.0
 40
4.228170840736089
 41
4.228170840736089
  0
SEQEND
  5
564
  8
PROFILEEDGES
  0
POLYLINE
  5
1A1
  8
PROFILEEDGES
 66
     1
 10
0.0
 20
0.0
 30
0.0
  0
VERTEX
  5
41B
  8
PROFILEEDGES
 10
-443.9762310294878
 20
-825.4562538947994
 30
0.0
 40
4.228170840736089
 41
4.228170840736089
  0
VERTEX
  5
41C
  8
PROFILEEDGES
 10
-381.1892875250579
 20
-825.4562538947819
 30
0.0
 40
4.228170840736089
 41
4.228170840736089
  0
SEQEND
  5
565
  8
PROFILEEDGES
  0
POLYLINE
  5
1A2
  8
PROFILEEDGES
 66
     1
 10
0.0
 20
0.0
 30
0.0
  0
VERTEX
  5
41D
  8
PROFILEEDGES
 10
295.0449249626139
 20
-825.4562538946992
 30
0.0
 40
4.228170840736089
 41
4.228170840736089
  0
VERTEX
  5
41E
  8
PROFILEEDGES
 10
363.2576583854104
 20
-825.4562538947007
 30
0.0
 40
4.228170840736089
 41
4.228170840736089
  0
SEQEND
  5
566
  8
PROFILEEDGES
  0
POLYLINE
  5
1A3
  8
PROFILEEDGES
 66
     1
 10
0.0
 20
0.0
 30
0.0
  0
VERTEX
  5
41F
  8
PROFILEEDGES
 10
-487.5925750374212
 20
-825.4562538948012
 30
0.0
 40
4.228170840736089
 41
4.228170840736089
  0
VERTEX
  5
420
  8
PROFILEEDGES
 10
-443.9762310294878
 20
-825.4562538947994
 30
0.0
 40
4.228170840736089
 41
4.228170840736089
  0
SEQEND
  5
567
  8
PROFILEEDGES
  0
POLYLINE
  5
1A4
  8
PROFILEEDGES
 66
     1
 10
0.0
 20
0.0
 30
0.0
  0
VERTEX
  5
421
  8
PROFILEEDGES
 10
363.2576583854109
 20
-829.2062538947008
 30
0.0
 40
4.228170840736089
 41
4.228170840736089
  0
VERTEX
  5
422
  8
PROFILEEDGES
 10
401.4074249624931
 20
-829.2062538946302
 30
0.0
 40
4.228170840736089
 41
4.228170840736089
  0
SEQEND
  5
568
  8
PROFILEEDGES
  0
POLYLINE
  5
1A5
  8
PROFILEEDGES
 66
     1
 10
0.0
 20
0.0
 30
0.0
  0
VERTEX
  5
423
  8
PROFILEEDGES
 10
363.2576583854104
 20
-825.4562538947007
 30
0.0
 40
4.228170840736089
 41
4.228170840736089
  0
VERTEX
  5
424
  8
PROFILEEDGES
 10
401.4074249624926
 20
-825.4562538946301
 30
0.0
 40
4.228170840736089
 41
4.228170840736089
  0
SEQEND
  5
569
  8
PROFILEEDGES
  0
POLYLINE
  5
1A6
  8
PROFILEEDGES
 66
     1
 10
0.0
 20
0.0
 30
0.0
  0
VERTEX
  5
425
  8
PROFILEEDGES
 10
-362.1800750373547
 20
-825.4562538947811
 30
0.0
 40
4.228170840736089
 41
4.228170840736089
  0
VERTEX
  5
426
  8
PROFILEEDGES
 10
-381.1892875250579
 20
-825.4562538947819
 30
0.0
 40
4.228170840736089
 41
4.228170840736089
  0
SEQEND
  5
56A
  8
PROFILEEDGES
  0
POLYLINE
  5
1A7
  8
PROFILEEDGES
 66
     1
 10
0.0
 20
0.0
 30
0.0
  0
VERTEX
  5
427
  8
PROFILEEDGES
 10
-443.9762310294873
 20
-829.2062538947993
 30
0.0
 40
4.228170840736089
 41
4.228170840736089
  0
VERTEX
  5
428
  8
PROFILEEDGES
 10
-487.5925750374207
 20
-829.2062538948013
 30
0.0
 40
4.228170840736089
 41
4.228170840736089
  0
SEQEND
  5
56B
  8
PROFILEEDGES
  0
POLYLINE
  5
1A8
  8
PROFILEEDGES
 66
     1
 10
0.0
 20
0.0
 30
0.0
  0
VERTEX
  5
429
  8
PROFILEEDGES
 10
363.2576583854109
 20
-829.2062538947008
 30
0.0
 40
4.228170840736089
 41
4.228170840736089
  0
VERTEX
  5
42A
  8
PROFILEEDGES
 10
-443.9762310294873
 20
-829.2062538947993
 30
0.0
 40
4.228170840736089
 41
4.228170840736089
  0
SEQEND
  5
56C
  8
PROFILEEDGES
  0
POLYLINE
  5
1A9
  8
PROFILEEDGES
 66
     1
 10
0.0
 20
0.0
 30
0.0
  0
VERTEX
  5
42B
  8
PROFILEEDGES
 10
275.9949249625386
 20
-184.6822542623381
 30
0.0
 40
4.228170840736089
 41
4.228170840736089
  0
VERTEX
  5
42C
  8
PROFILEEDGES
 10
295.0449249625415
 20
-184.6822542622846
 30
0.0
 40
4.228170840736089
 41
4.228170840736089
  0
SEQEND
  5
56D
  8
PROFILEEDGES
  0
POLYLINE
  5
1AA
  8
PROFILEEDGES
 66
     1
 10
0.0
 20
0.0
 30
0.0
  0
VERTEX
  5
42D
  8
PROFILEEDGES
 10
-362.180075037433
 20
-184.6822542624161
 30
0.0
 40
4.228170840736089
 41
4.228170840736089
  0
VERTEX
  5
42E
  8
PROFILEEDGES
 10
275.9949249625386
 20
-184.6822542623381
 30
0.0
 40
4.228170840736089
 41
4.228170840736089
  0
SEQEND
  5
56E
  8
PROFILEEDGES
  0
POLYLINE
  5
1AB
  8
PROFILEEDGES
 66
     1
 10
0.0
 20
0.0
 30
0.0
  0
VERTEX
  5
42F
  8
PROFILEEDGES
 10
-381.1892875251276
 20
-184.6822542623671
 30
0.0
 40
4.228170840736089
 41
4.228170840736089
  0
VERTEX
  5
430
  8
PROFILEEDGES
 10
-362.180075037433
 20
-184.6822542624161
 30
0.0
 40
4.228170840736089
 41
4.228170840736089
  0
SEQEND
  5
56F
  8
PROFILEEDGES
  0
ENDSEC
  0
EOF
