  0
SECTION
  2
HEADER
  9
$ACADVER
  1
AC1009
  9
$DWGCODEPAGE
  3
ansi_1252
  9
$INSBASE
 10
0.0
 20
0.0
 30
0.0
  9
$EXTMIN
 10
1.000000000000000E+20
 20
1.000000000000000E+20
 30
1.000000000000000E+20
  9
$EXTMAX
 10
-1.000000000000000E+20
 20
-1.000000000000000E+20
 30
-1.000000000000000E+20
  9
$LIMMIN
 10
0.0
 20
0.0
  9
$LIMMAX
 10
12.0
 20
9.0
  9
$ORTHOMODE
 70
     0
  9
$REGENMODE
 70
     1
  9
$FILLMODE
 70
     1
  9
$QTEXTMODE
 70
     0
  9
$MIRRTEXT
 70
     1
  9
$DRAGMODE
 70
     2
  9
$LTSCALE
 40
1.0
  9
$OSMODE
 70
    37
  9
$ATTMODE
 70
     1
  9
$TEXTSIZE
 40
0.2
  9
$TRACEWID
 40
0.05
  9
$TEXTSTYLE
  7
STANDARD
  9
$CLAYER
  8
0
  9
$CELTYPE
  6
BYLAYER
  9
$CECOLOR
 62
   256
  9
$DIMSCALE
 40
1.0
  9
$DIMASZ
 40
0.18
  9
$DIMEXO
 40
0.0625
  9
$DIMDLI
 40
0.38
  9
$DIMRND
 40
0.0
  9
$DIMDLE
 40
0.0
  9
$DIMEXE
 40
0.18
  9
$DIMTP
 40
0.0
  9
$DIMTM
 40
0.0
  9
$DIMTXT
 40
0.18
  9
$DIMCEN
 40
0.09
  9
$DIMTSZ
 40
0.0
  9
$DIMTOL
 70
     0
  9
$DIMLIM
 70
     0
  9
$DIMTIH
 70
     1
  9
$DIMTOH
 70
     1
  9
$DIMSE1
 70
     0
  9
$DIMSE2
 70
     0
  9
$DIMTAD
 70
     0
  9
$DIMZIN
 70
     0
  9
$DIMBLK
  1

  9
$DIMASO
 70
     1
  9
$DIMSHO
 70
     1
  9
$DIMPOST
  1

  9
$DIMAPOST
  1

  9
$DIMALT
 70
     0
  9
$DIMALTD
 70
     2
  9
$DIMALTF
 40
25.4
  9
$DIMLFAC
 40
1.0
  9
$DIMTOFL
 70
     0
  9
$DIMTVP
 40
0.0
  9
$DIMTIX
 70
     0
  9
$DIMSOXD
 70
     0
  9
$DIMSAH
 70
     0
  9
$DIMBLK1
  1

  9
$DIMBLK2
  1

  9
$DIMSTYLE
  2
STANDARD
  9
$DIMCLRD
 70
     0
  9
$DIMCLRE
 70
     0
  9
$DIMCLRT
 70
     0
  9
$DIMTFAC
 40
1.0
  9
$DIMGAP
 40
0.09
  9
$LUNITS
 70
     2
  9
$LUPREC
 70
     4
  9
$SKETCHINC
 40
0.1
  9
$FILLETRAD
 40
0.0
  9
$AUNITS
 70
     0
  9
$AUPREC
 70
     0
  9
$MENU
  1
.
  9
$ELEVATION
 40
0.0
  9
$PELEVATION
 40
0.0
  9
$THICKNESS
 40
0.0
  9
$LIMCHECK
 70
     0
  9
$CHAMFERA
 40
0.0
  9
$CHAMFERB
 40
0.0
  9
$SKPOLY
 70
     0
  9
$TDCREATE
 40
2460273.399478519
  9
$TDUPDATE
 40
2460273.399478635
  9
$TDINDWG
 40
0.0000000116
  9
$TDUSRTIMER
 40
0.0000000116
  9
$USRTIMER
 70
     1
  9
$ANGBASE
 50
0.0
  9
$ANGDIR
 70
     0
  9
$PDMODE
 70
     0
  9
$PDSIZE
 40
0.0
  9
$PLINEWID
 40
0.0
  9
$COORDS
 70
     1
  9
$SPLFRAME
 70
     0
  9
$SPLINETYPE
 70
     6
  9
$SPLINESEGS
 70
     8
  9
$ATTDIA
 70
     0
  9
$ATTREQ
 70
     1
  9
$HANDLING
 70
     1
  9
$HANDSEED
  5
20C
  9
$SURFTAB1
 70
     6
  9
$SURFTAB2
 70
     6
  9
$SURFTYPE
 70
     6
  9
$SURFU
 70
     6
  9
$SURFV
 70
     6
  9
$UCSNAME
  2

  9
$UCSORG
 10
0.0
 20
0.0
 30
0.0
  9
$UCSXDIR
 10
1.0
 20
0.0
 30
0.0
  9
$UCSYDIR
 10
0.0
 20
1.0
 30
0.0
  9
$PUCSNAME
  2

  9
$PUCSORG
 10
0.0
 20
0.0
 30
0.0
  9
$PUCSXDIR
 10
1.0
 20
0.0
 30
0.0
  9
$PUCSYDIR
 10
0.0
 20
1.0
 30
0.0
  9
$USERI1
 70
     0
  9
$USERI2
 70
     0
  9
$USERI3
 70
     0
  9
$USERI4
 70
     0
  9
$USERI5
 70
     0
  9
$USERR1
 40
0.0
  9
$USERR2
 40
0.0
  9
$USERR3
 40
0.0
  9
$USERR4
 40
0.0
  9
$USERR5
 40
0.0
  9
$WORLDVIEW
 70
     1
  9
$SHADEDGE
 70
     3
  9
$SHADEDIF
 70
    70
  9
$TILEMODE
 70
     1
  9
$MAXACTVP
 70
    64
  9
$PLIMCHECK
 70
     0
  9
$PEXTMIN
 10
1.000000000000000E+20
 20
1.000000000000000E+20
 30
1.000000000000000E+20
  9
$PEXTMAX
 10
-1.000000000000000E+20
 20
-1.000000000000000E+20
 30
-1.000000000000000E+20
  9
$PLIMMIN
 10
0.0
 20
0.0
  9
$PLIMMAX
 10
12.0
 20
9.0
  9
$UNITMODE
 70
     0
  9
$VISRETAIN
 70
     1
  9
$PLINEGEN
 70
     0
  9
$PSLTSCALE
 70
     1
  0
ENDSEC
  0
SECTION
  2
TABLES
  0
TABLE
  2
VPORT
 70
     1
  0
VPORT
  2
*ACTIVE
 70
     0
 10
0.0
 20
0.0
 11
1.0
 21
1.0
 12
0.0
 22
0.0
 13
0.0
 23
0.0
 14
0.5
 24
0.5
 15
0.5
 25
0.5
 16
0.0
 26
0.0
 36
1.0
 17
0.0
 27
0.0
 37
-1000.0
 40
753.8299766470532
 41
1.658454647256439
 42
50.0
 43
735.0664105028056
 44
1319.163270205543
 50
0.0
 51
0.0
 71
     0
 72
   100
 73
     1
 74
     3
 75
     0
 76
     0
 77
     0
 78
     0
  0
ENDTAB
  0
TABLE
  2
LTYPE
 70
     1
  0
LTYPE
  2
CONTINUOUS
 70
     0
  3
Solid line
 72
    65
 73
     0
 40
0.0
  0
ENDTAB
  0
TABLE
  2
LAYER
 70
     3
  0
LAYER
  2
0
 70
     0
 62
     7
  6
CONTINUOUS
  0
LAYER
  2
PROFILEEDGES
 70
     0
 62
     7
  6
CONTINUOUS
  0
LAYER
  2
SECTIONCUTEDGES
 70
     0
 62
     7
  6
CONTINUOUS
  0
ENDTAB
  0
TABLE
  2
STYLE
 70
     1
  0
STYLE
  2
STANDARD
 70
     0
 40
0.0
 41
1.0
 50
0.0
 71
     0
 42
0.2
  3
txt
  4

  0
ENDTAB
  0
TABLE
  2
VIEW
 70
     0
  0
ENDTAB
  0
TABLE
  2
UCS
 70
     0
  0
ENDTAB
  0
TABLE
  2
APPID
 70
     1
  0
APPID
  2
ACAD
 70
     0
  0
ENDTAB
  0
TABLE
  2
DIMSTYLE
 70
     1
  0
DIMSTYLE
  2
STANDARD
 70
     0
  3

  4

  5

  6

  7

 40
1.0
 41
0.18
 42
0.0625
 43
0.38
 44
0.18
 45
0.0
 46
0.0
 47
0.0
 48
0.0
140
0.18
141
0.09
142
0.0
143
25.4
144
1.0
145
0.0
146
1.0
147
0.09
 71
     0
 72
     0
 73
     1
 74
     1
 75
     0
 76
     0
 77
     0
 78
     0
170
     0
171
     2
172
     0
173
     0
174
     0
175
     0
176
     0
177
     0
178
     0
  0
ENDTAB
  0
ENDSEC
  0
SECTION
  2
BLOCKS
  0
BLOCK
  8
0
  2
$MODEL_SPACE
 70
     0
 10
0.0
 20
0.0
 30
0.0
  3
$MODEL_SPACE
  1

  0
ENDBLK
  5
21
  8
0
  0
BLOCK
 67
     1
  8
0
  2
$PAPER_SPACE
 70
     0
 10
0.0
 20
0.0
 30
0.0
  3
$PAPER_SPACE
  1

  0
ENDBLK
  5
1D
 67
     1
  8
0
  0
ENDSEC
  0
SECTION
  2
ENTITIES
  0
POLYLINE
  5
60
  8
PROFILEEDGES
 66
     1
 10
0.0
 20
0.0
 30
0.0
  0
VERTEX
  5
F2
  8
PROFILEEDGES
 10
-337.9784534037327
 20
-163.7128578214362
 30
0.0
 40
1.688309018246479
 41
1.688309018246479
  0
VERTEX
  5
F3
  8
PROFILEEDGES
 10
-313.3875189613718
 20
-192.5051427435764
 30
0.0
 40
1.688309018246479
 41
1.688309018246479
  0
SEQEND
  5
1AE
  8
PROFILEEDGES
  0
POLYLINE
  5
61
  8
PROFILEEDGES
 66
     1
 10
0.0
 20
0.0
 30
0.0
  0
VERTEX
  5
F4
  8
PROFILEEDGES
 10
-284.5952340392314
 20
-217.0960771859372
 30
0.0
 40
1.688309018246479
 41
1.688309018246479
  0
VERTEX
  5
F5
  8
PROFILEEDGES
 10
-252.3105602482103
 20
-236.8801507299156
 30
0.0
 40
1.688309018246479
 41
1.688309018246479
  0
SEQEND
  5
1AF
  8
PROFILEEDGES
  0
POLYLINE
  5
62
  8
PROFILEEDGES
 66
     1
 10
0.0
 20
0.0
 30
0.0
  0
VERTEX
  5
F6
  8
PROFILEEDGES
 10
-33.21474507390502
 20
-236.8801507299155
 30
0.0
 40
1.688309018246479
 41
1.688309018246479
  0
VERTEX
  5
F7
  8
PROFILEEDGES
 10
-0.930071282883878
 20
-217.0960771859372
 30
0.0
 40
1.688309018246479
 41
1.688309018246479
  0
SEQEND
  5
1B0
  8
PROFILEEDGES
  0
POLYLINE
  5
63
  8
PROFILEEDGES
 66
     1
 10
0.0
 20
0.0
 30
0.0
  0
VERTEX
  5
F8
  8
PROFILEEDGES
 10
-180.5102890752656
 20
-260.2094730288691
 30
0.0
 40
1.688309018246479
 41
1.688309018246479
  0
VERTEX
  5
F9
  8
PROFILEEDGES
 10
-142.762652661058
 20
-263.1802764432624
 30
0.0
 40
1.688309018246479
 41
1.688309018246479
  0
SEQEND
  5
1B1
  8
PROFILEEDGES
  0
POLYLINE
  5
64
  8
PROFILEEDGES
 66
     1
 10
0.0
 20
0.0
 30
0.0
  0
VERTEX
  5
FA
  8
PROFILEEDGES
 10
-357.7625269477111
 20
-131.4281840304151
 30
0.0
 40
1.688309018246479
 41
1.688309018246479
  0
VERTEX
  5
FB
  8
PROFILEEDGES
 10
-337.9784534037327
 20
-163.7128578214362
 30
0.0
 40
1.688309018246479
 41
1.688309018246479
  0
SEQEND
  5
1B2
  8
PROFILEEDGES
  0
POLYLINE
  5
65
  8
PROFILEEDGES
 66
     1
 10
0.0
 20
0.0
 30
0.0
  0
VERTEX
  5
FC
  8
PROFILEEDGES
 10
-68.19685191838336
 20
-251.3702138252829
 30
0.0
 40
1.688309018246479
 41
1.688309018246479
  0
VERTEX
  5
FD
  8
PROFILEEDGES
 10
-33.21474507390502
 20
-236.8801507299155
 30
0.0
 40
1.688309018246479
 41
1.688309018246479
  0
SEQEND
  5
1B3
  8
PROFILEEDGES
  0
POLYLINE
  5
66
  8
PROFILEEDGES
 66
     1
 10
0.0
 20
0.0
 30
0.0
  0
VERTEX
  5
FE
  8
PROFILEEDGES
 10
-142.762652661058
 20
-263.1802764432624
 30
0.0
 40
1.688309018246479
 41
1.688309018246479
  0
VERTEX
  5
FF
  8
PROFILEEDGES
 10
-105.0150162468505
 20
-260.2094730288691
 30
0.0
 40
1.688309018246479
 41
1.688309018246479
  0
SEQEND
  5
1B4
  8
PROFILEEDGES
  0
POLYLINE
  5
67
  8
PROFILEEDGES
 66
     1
 10
0.0
 20
0.0
 30
0.0
  0
VERTEX
  5
100
  8
PROFILEEDGES
 10
-372.2525900430782
 20
-96.44607718593726
 30
0.0
 40
1.688309018246479
 41
1.688309018246479
  0
VERTEX
  5
101
  8
PROFILEEDGES
 10
-357.7625269477111
 20
-131.4281840304151
 30
0.0
 40
1.688309018246479
 41
1.688309018246479
  0
SEQEND
  5
1B5
  8
PROFILEEDGES
  0
POLYLINE
  5
68
  8
PROFILEEDGES
 66
     1
 10
0.0
 20
0.0
 30
0.0
  0
VERTEX
  5
102
  8
PROFILEEDGES
 10
-0.930071282883878
 20
-217.0960771859372
 30
0.0
 40
1.688309018246479
 41
1.688309018246479
  0
VERTEX
  5
103
  8
PROFILEEDGES
 10
21.03196723604076
 20
-199.0722979700933
 30
0.0
 40
1.688309018246479
 41
1.688309018246479
  0
SEQEND
  5
1B6
  8
PROFILEEDGES
  0
POLYLINE
  5
69
  8
PROFILEEDGES
 66
     1
 10
0.0
 20
0.0
 30
0.0
  0
VERTEX
  5
104
  8
PROFILEEDGES
 10
-313.3875189613718
 20
-192.5051427435764
 30
0.0
 40
1.688309018246479
 41
1.688309018246479
  0
VERTEX
  5
105
  8
PROFILEEDGES
 10
-284.5952340392314
 20
-217.0960771859372
 30
0.0
 40
1.688309018246479
 41
1.688309018246479
  0
SEQEND
  5
1B7
  8
PROFILEEDGES
  0
POLYLINE
  5
6A
  8
PROFILEEDGES
 66
     1
 10
0.0
 20
0.0
 30
0.0
  0
VERTEX
  5
106
  8
PROFILEEDGES
 10
-217.3284534037327
 20
-251.370213825283
 30
0.0
 40
1.688309018246479
 41
1.688309018246479
  0
VERTEX
  5
107
  8
PROFILEEDGES
 10
-180.5102890752656
 20
-260.2094730288691
 30
0.0
 40
1.688309018246479
 41
1.688309018246479
  0
SEQEND
  5
1B8
  8
PROFILEEDGES
  0
POLYLINE
  5
6B
  8
PROFILEEDGES
 66
     1
 10
0.0
 20
0.0
 30
0.0
  0
VERTEX
  5
108
  8
PROFILEEDGES
 10
-105.0150162468505
 20
-260.2094730288691
 30
0.0
 40
1.688309018246479
 41
1.688309018246479
  0
VERTEX
  5
109
  8
PROFILEEDGES
 10
-68.19685191838336
 20
-251.3702138252829
 30
0.0
 40
1.688309018246479
 41
1.688309018246479
  0
SEQEND
  5
1B9
  8
PROFILEEDGES
  0
POLYLINE
  5
6C
  8
PROFILEEDGES
 66
     1
 10
0.0
 20
0.0
 30
0.0
  0
VERTEX
  5
10A
  8
PROFILEEDGES
 10
-252.3105602482103
 20
-236.8801507299156
 30
0.0
 40
1.688309018246479
 41
1.688309018246479
  0
VERTEX
  5
10B
  8
PROFILEEDGES
 10
-217.3284534037327
 20
-251.370213825283
 30
0.0
 40
1.688309018246479
 41
1.688309018246479
  0
SEQEND
  5
1BA
  8
PROFILEEDGES
  0
POLYLINE
  5
6D
  8
PROFILEEDGES
 66
     1
 10
0.0
 20
0.0
 30
0.0
  0
VERTEX
  5
10C
  8
PROFILEEDGES
 10
-142.762652661058
 20
219.4197235567376
 30
0.0
 40
1.688309018246479
 41
1.688309018246479
  0
VERTEX
  5
10D
  8
PROFILEEDGES
 10
-180.5102890752656
 20
216.4489201423444
 30
0.0
 40
1.688309018246479
 41
1.688309018246479
  0
SEQEND
  5
1BB
  8
PROFILEEDGES
  0
POLYLINE
  5
6E
  8
PROFILEEDGES
 66
     1
 10
0.0
 20
0.0
 30
0.0
  0
VERTEX
  5
10E
  8
PROFILEEDGES
 10
-217.3284534037327
 20
207.6096609387582
 30
0.0
 40
1.688309018246479
 41
1.688309018246479
  0
VERTEX
  5
10F
  8
PROFILEEDGES
 10
-252.310560248211
 20
193.1195978433907
 30
0.0
 40
1.688309018246479
 41
1.688309018246479
  0
SEQEND
  5
1BC
  8
PROFILEEDGES
  0
POLYLINE
  5
6F
  8
PROFILEEDGES
 66
     1
 10
0.0
 20
0.0
 30
0.0
  0
VERTEX
  5
110
  8
PROFILEEDGES
 10
-372.2525900430782
 20
52.68552429941238
 30
0.0
 40
1.688309018246479
 41
1.688309018246479
  0
VERTEX
  5
111
  8
PROFILEEDGES
 10
-381.0918492466644
 20
15.86735997094524
 30
0.0
 40
1.688309018246479
 41
1.688309018246479
  0
SEQEND
  5
1BD
  8
PROFILEEDGES
  0
POLYLINE
  5
70
  8
PROFILEEDGES
 66
     1
 10
0.0
 20
0.0
 30
0.0
  0
VERTEX
  5
112
  8
PROFILEEDGES
 10
-384.062652661058
 20
-21.88027644326245
 30
0.0
 40
1.688309018246479
 41
1.688309018246479
  0
VERTEX
  5
113
  8
PROFILEEDGES
 10
-381.0918492466644
 20
-59.62791285747014
 30
0.0
 40
1.688309018246479
 41
1.688309018246479
  0
SEQEND
  5
1BE
  8
PROFILEEDGES
  0
POLYLINE
  5
71
  8
PROFILEEDGES
 66
     1
 10
0.0
 20
0.0
 30
0.0
  0
VERTEX
  5
114
  8
PROFILEEDGES
 10
-284.5952340392321
 20
173.3355242994124
 30
0.0
 40
1.688309018246479
 41
1.688309018246479
  0
VERTEX
  5
115
  8
PROFILEEDGES
 10
-313.3875189613718
 20
148.7445898570514
 30
0.0
 40
1.688309018246479
 41
1.688309018246479
  0
SEQEND
  5
1BF
  8
PROFILEEDGES
  0
POLYLINE
  5
72
  8
PROFILEEDGES
 66
     1
 10
0.0
 20
0.0
 30
0.0
  0
VERTEX
  5
116
  8
PROFILEEDGES
 10
-381.0918492466644
 20
15.86735997094524
 30
0.0
 40
1.688309018246479
 41
1.688309018246479
  0
VERTEX
  5
117
  8
PROFILEEDGES
 10
-384.062652661058
 20
-21.88027644326245
 30
0.0
 40
1.688309018246479
 41
1.688309018246479
  0
SEQEND
  5
1C0
  8
PROFILEEDGES
  0
POLYLINE
  5
73
  8
PROFILEEDGES
 66
     1
 10
0.0
 20
0.0
 30
0.0
  0
VERTEX
  5
118
  8
PROFILEEDGES
 10
-357.7625269477111
 20
87.66763114389022
 30
0.0
 40
1.688309018246479
 41
1.688309018246479
  0
VERTEX
  5
119
  8
PROFILEEDGES
 10
-372.2525900430782
 20
52.68552429941238
 30
0.0
 40
1.688309018246479
 41
1.688309018246479
  0
SEQEND
  5
1C1
  8
PROFILEEDGES
  0
POLYLINE
  5
74
  8
PROFILEEDGES
 66
     1
 10
0.0
 20
0.0
 30
0.0
  0
VERTEX
  5
11A
  8
PROFILEEDGES
 10
-180.5102890752656
 20
216.4489201423444
 30
0.0
 40
1.688309018246479
 41
1.688309018246479
  0
VERTEX
  5
11B
  8
PROFILEEDGES
 10
-217.3284534037327
 20
207.6096609387582
 30
0.0
 40
1.688309018246479
 41
1.688309018246479
  0
SEQEND
  5
1C2
  8
PROFILEEDGES
  0
POLYLINE
  5
75
  8
PROFILEEDGES
 66
     1
 10
0.0
 20
0.0
 30
0.0
  0
VERTEX
  5
11C
  8
PROFILEEDGES
 10
-252.310560248211
 20
193.1195978433907
 30
0.0
 40
1.688309018246479
 41
1.688309018246479
  0
VERTEX
  5
11D
  8
PROFILEEDGES
 10
-284.5952340392321
 20
173.3355242994124
 30
0.0
 40
1.688309018246479
 41
1.688309018246479
  0
SEQEND
  5
1C3
  8
PROFILEEDGES
  0
POLYLINE
  5
76
  8
PROFILEEDGES
 66
     1
 10
0.0
 20
0.0
 30
0.0
  0
VERTEX
  5
11E
  8
PROFILEEDGES
 10
-313.3875189613718
 20
148.7445898570514
 30
0.0
 40
1.688309018246479
 41
1.688309018246479
  0
VERTEX
  5
11F
  8
PROFILEEDGES
 10
-337.9784534037327
 20
119.9523049349113
 30
0.0
 40
1.688309018246479
 41
1.688309018246479
  0
SEQEND
  5
1C4
  8
PROFILEEDGES
  0
POLYLINE
  5
77
  8
PROFILEEDGES
 66
     1
 10
0.0
 20
0.0
 30
0.0
  0
VERTEX
  5
120
  8
PROFILEEDGES
 10
-68.19685191838336
 20
207.6096609387582
 30
0.0
 40
1.688309018246479
 41
1.688309018246479
  0
VERTEX
  5
121
  8
PROFILEEDGES
 10
-105.0150162468505
 20
216.4489201423444
 30
0.0
 40
1.688309018246479
 41
1.688309018246479
  0
SEQEND
  5
1C5
  8
PROFILEEDGES
  0
POLYLINE
  5
78
  8
PROFILEEDGES
 66
     1
 10
0.0
 20
0.0
 30
0.0
  0
VERTEX
  5
122
  8
PROFILEEDGES
 10
-105.0150162468505
 20
216.4489201423444
 30
0.0
 40
1.688309018246479
 41
1.688309018246479
  0
VERTEX
  5
123
  8
PROFILEEDGES
 10
-142.762652661058
 20
219.4197235567376
 30
0.0
 40
1.688309018246479
 41
1.688309018246479
  0
SEQEND
  5
1C6
  8
PROFILEEDGES
  0
POLYLINE
  5
79
  8
PROFILEEDGES
 66
     1
 10
0.0
 20
0.0
 30
0.0
  0
VERTEX
  5
124
  8
PROFILEEDGES
 10
-33.21474507390502
 20
193.1195978433907
 30
0.0
 40
1.688309018246479
 41
1.688309018246479
  0
VERTEX
  5
125
  8
PROFILEEDGES
 10
-68.19685191838336
 20
207.6096609387582
 30
0.0
 40
1.688309018246479
 41
1.688309018246479
  0
SEQEND
  5
1C7
  8
PROFILEEDGES
  0
POLYLINE
  5
7A
  8
PROFILEEDGES
 66
     1
 10
0.0
 20
0.0
 30
0.0
  0
VERTEX
  5
126
  8
PROFILEEDGES
 10
-337.9784534037327
 20
119.9523049349113
 30
0.0
 40
1.688309018246479
 41
1.688309018246479
  0
VERTEX
  5
127
  8
PROFILEEDGES
 10
-357.7625269477111
 20
87.66763114389022
 30
0.0
 40
1.688309018246479
 41
1.688309018246479
  0
SEQEND
  5
1C8
  8
PROFILEEDGES
  0
POLYLINE
  5
7B
  8
PROFILEEDGES
 66
     1
 10
0.0
 20
0.0
 30
0.0
  0
VERTEX
  5
128
  8
PROFILEEDGES
 10
-381.0918492466644
 20
-59.62791285747014
 30
0.0
 40
1.688309018246479
 41
1.688309018246479
  0
VERTEX
  5
129
  8
PROFILEEDGES
 10
-372.2525900430782
 20
-96.44607718593726
 30
0.0
 40
1.688309018246479
 41
1.688309018246479
  0
SEQEND
  5
1C9
  8
PROFILEEDGES
  0
POLYLINE
  5
7C
  8
PROFILEEDGES
 66
     1
 10
0.0
 20
0.0
 30
0.0
  0
VERTEX
  5
12A
  8
PROFILEEDGES
 10
91.87020913090123
 20
-78.21064274169237
 30
0.0
 40
1.688309018246479
 41
1.688309018246479
  0
VERTEX
  5
12B
  8
PROFILEEDGES
 10
96.86476600216604
 20
-50.24205044983861
 30
0.0
 40
1.688309018246479
 41
1.688309018246479
  0
SEQEND
  5
1CA
  8
PROFILEEDGES
  0
POLYLINE
  5
7D
  8
PROFILEEDGES
 66
     1
 10
0.0
 20
0.0
 30
0.0
  0
VERTEX
  5
12C
  8
PROFILEEDGES
 10
96.86476600216604
 20
-50.24205044983861
 30
0.0
 40
1.688309018246479
 41
1.688309018246479
  0
VERTEX
  5
12D
  8
PROFILEEDGES
 10
98.53734733894198
 20
-21.8802764432624
 30
0.0
 40
1.688309018246479
 41
1.688309018246479
  0
SEQEND
  5
1CB
  8
PROFILEEDGES
  0
POLYLINE
  5
7E
  8
PROFILEEDGES
 66
     1
 10
0.0
 20
0.0
 30
0.0
  0
VERTEX
  5
12E
  8
PROFILEEDGES
 10
83.62291669703737
 20
-105.3983223160614
 30
0.0
 40
1.688309018246479
 41
1.688309018246479
  0
VERTEX
  5
12F
  8
PROFILEEDGES
 10
91.87020913090123
 20
-78.21064274169237
 30
0.0
 40
1.688309018246479
 41
1.688309018246479
  0
SEQEND
  5
1CC
  8
PROFILEEDGES
  0
POLYLINE
  5
7F
  8
PROFILEEDGES
 66
     1
 10
0.0
 20
0.0
 30
0.0
  0
VERTEX
  5
130
  8
PROFILEEDGES
 10
72.23722162559513
 20
-131.428184030415
 30
0.0
 40
1.688309018246479
 41
1.688309018246479
  0
VERTEX
  5
131
  8
PROFILEEDGES
 10
83.62291669703737
 20
-105.3983223160614
 30
0.0
 40
1.688309018246479
 41
1.688309018246479
  0
SEQEND
  5
1CD
  8
PROFILEEDGES
  0
POLYLINE
  5
80
  8
PROFILEEDGES
 66
     1
 10
0.0
 20
0.0
 30
0.0
  0
VERTEX
  5
132
  8
PROFILEEDGES
 10
21.03196723604076
 20
-199.0722979700933
 30
0.0
 40
1.688309018246479
 41
1.688309018246479
  0
VERTEX
  5
133
  8
PROFILEEDGES
 10
40.7233068382293
 20
-178.5920905053357
 30
0.0
 40
1.688309018246479
 41
1.688309018246479
  0
SEQEND
  5
1CE
  8
PROFILEEDGES
  0
POLYLINE
  5
81
  8
PROFILEEDGES
 66
     1
 10
0.0
 20
0.0
 30
0.0
  0
VERTEX
  5
134
  8
PROFILEEDGES
 10
40.7233068382293
 20
-178.5920905053357
 30
0.0
 40
1.688309018246479
 41
1.688309018246479
  0
VERTEX
  5
135
  8
PROFILEEDGES
 10
57.87096478754647
 20
-155.9393736708924
 30
0.0
 40
1.688309018246479
 41
1.688309018246479
  0
SEQEND
  5
1CF
  8
PROFILEEDGES
  0
POLYLINE
  5
82
  8
PROFILEEDGES
 66
     1
 10
0.0
 20
0.0
 30
0.0
  0
VERTEX
  5
136
  8
PROFILEEDGES
 10
57.87096478754647
 20
-155.9393736708924
 30
0.0
 40
1.688309018246479
 41
1.688309018246479
  0
VERTEX
  5
137
  8
PROFILEEDGES
 10
72.23722162559513
 20
-131.428184030415
 30
0.0
 40
1.688309018246479
 41
1.688309018246479
  0
SEQEND
  5
1D0
  8
PROFILEEDGES
  0
LINE
  5
83
  8
0
 10
-327.703937575171
 20
-156.2479851173218
 30
0.0
 11
-346.446744090519
 21
-125.6625046837228
 31
0.0
  0
POLYLINE
  5
84
  8
PROFILEEDGES
 66
     1
 10
0.0
 20
0.0
 30
0.0
  0
VERTEX
  5
138
  8
PROFILEEDGES
 10
-335.1309612333269
 20
-119.8968253370306
 30
0.0
 40
1.688309018246479
 41
1.688309018246479
  0
VERTEX
  5
139
  8
PROFILEEDGES
 10
-317.4294217466095
 20
-148.7831124132074
 30
0.0
 40
1.688309018246479
 41
1.688309018246479
  0
SEQEND
  5
1D1
  8
PROFILEEDGES
  0
POLYLINE
  5
85
  8
PROFILEEDGES
 66
     1
 10
0.0
 20
0.0
 30
0.0
  0
VERTEX
  5
13A
  8
PROFILEEDGES
 10
-348.0957545291813
 20
-88.5970455288136
 30
0.0
 40
1.688309018246479
 41
1.688309018246479
  0
VERTEX
  5
13B
  8
PROFILEEDGES
 10
-335.1309612333269
 20
-119.8968253370306
 30
0.0
 40
1.688309018246479
 41
1.688309018246479
  0
SEQEND
  5
1D2
  8
PROFILEEDGES
  0
LINE
  5
86
  8
0
 10
-371.362652661058
 20
-21.88027644326245
 30
0.0
 11
-368.5482073211063
 21
13.88064226493434
 31
0.0
  0
POLYLINE
  5
87
  8
PROFILEEDGES
 66
     1
 10
0.0
 20
0.0
 30
0.0
  0
VERTEX
  5
13C
  8
PROFILEEDGES
 10
-317.4294217466095
 20
-148.7831124132074
 30
0.0
 40
1.688309018246479
 41
1.688309018246479
  0
VERTEX
  5
13D
  8
PROFILEEDGES
 10
-295.4270067192334
 20
-174.5446305014381
 30
0.0
 40
1.688309018246479
 41
1.688309018246479
  0
SEQEND
  5
1D3
  8
PROFILEEDGES
  0
LINE
  5
88
  8
0
 10
-346.446744090519
 20
-125.6625046837228
 30
0.0
 11
-360.1741722861301
 21
-92.5215613573754
 31
0.0
  0
LINE
  5
89
  8
0
 10
-304.4072628403026
 20
-183.5248866225072
 30
0.0
 11
-327.703937575171
 21
-156.2479851173218
 31
0.0
  0
POLYLINE
  5
8A
  8
PROFILEEDGES
 66
     1
 10
0.0
 20
0.0
 30
0.0
  0
VERTEX
  5
13E
  8
PROFILEEDGES
 10
-295.4270067192334
 20
130.7840776149132
 30
0.0
 40
1.688309018246479
 41
1.688309018246479
  0
VERTEX
  5
13F
  8
PROFILEEDGES
 10
-317.4294217466095
 20
105.0225595266825
 30
0.0
 40
1.688309018246479
 41
1.688309018246479
  0
SEQEND
  5
1D4
  8
PROFILEEDGES
  0
LINE
  5
8B
  8
0
 10
-213.4039375751711
 20
195.5312431818097
 30
0.0
 11
-178.5235713692549
 21
203.9052782167861
 31
0.0
  0
POLYLINE
  5
8C
  8
PROFILEEDGES
 66
     1
 10
0.0
 20
0.0
 30
0.0
  0
VERTEX
  5
140
  8
PROFILEEDGES
 10
-356.0045653955482
 20
-55.65447744544826
 30
0.0
 40
1.688309018246479
 41
1.688309018246479
  0
VERTEX
  5
141
  8
PROFILEEDGES
 10
-348.0957545291813
 20
-88.5970455288136
 30
0.0
 40
1.688309018246479
 41
1.688309018246479
  0
SEQEND
  5
1D5
  8
PROFILEEDGES
  0
POLYLINE
  5
8D
  8
PROFILEEDGES
 66
     1
 10
0.0
 20
0.0
 30
0.0
  0
VERTEX
  5
142
  8
PROFILEEDGES
 10
-356.0045653955482
 20
11.89392455892341
 30
0.0
 40
1.688309018246479
 41
1.688309018246479
  0
VERTEX
  5
143
  8
PROFILEEDGES
 10
-358.662652661058
 20
-21.88027644326245
 30
0.0
 40
1.688309018246479
 41
1.688309018246479
  0
SEQEND
  5
1D6
  8
PROFILEEDGES
  0
POLYLINE
  5
8E
  8
PROFILEEDGES
 66
     1
 10
0.0
 20
0.0
 30
0.0
  0
VERTEX
  5
144
  8
PROFILEEDGES
 10
-335.1309612333269
 20
76.13627245050573
 30
0.0
 40
1.688309018246479
 41
1.688309018246479
  0
VERTEX
  5
145
  8
PROFILEEDGES
 10
-348.095754529182
 20
44.83649264228869
 30
0.0
 40
1.688309018246479
 41
1.688309018246479
  0
SEQEND
  5
1D7
  8
PROFILEEDGES
  0
LINE
  5
8F
  8
0
 10
-360.1741722861301
 20
-92.5215613573754
 30
0.0
 11
-368.5482073211063
 21
-57.64119515145925
 31
0.0
  0
POLYLINE
  5
90
  8
PROFILEEDGES
 66
     1
 10
0.0
 20
0.0
 30
0.0
  0
VERTEX
  5
146
  8
PROFILEEDGES
 10
-348.095754529182
 20
44.83649264228869
 30
0.0
 40
1.688309018246479
 41
1.688309018246479
  0
VERTEX
  5
147
  8
PROFILEEDGES
 10
-356.0045653955482
 20
11.89392455892341
 30
0.0
 40
1.688309018246479
 41
1.688309018246479
  0
SEQEND
  5
1D8
  8
PROFILEEDGES
  0
POLYLINE
  5
91
  8
PROFILEEDGES
 66
     1
 10
0.0
 20
0.0
 30
0.0
  0
VERTEX
  5
148
  8
PROFILEEDGES
 10
-269.6654886310029
 20
152.7864926422887
 30
0.0
 40
1.688309018246479
 41
1.688309018246479
  0
VERTEX
  5
149
  8
PROFILEEDGES
 10
-295.4270067192334
 20
130.7840776149132
 30
0.0
 40
1.688309018246479
 41
1.688309018246479
  0
SEQEND
  5
1D9
  8
PROFILEEDGES
  0
LINE
  5
92
  8
0
 10
-327.703937575171
 20
112.4874322307969
 30
0.0
 11
-304.4072628403026
 21
139.7643337359823
 31
0.0
  0
POLYLINE
  5
93
  8
PROFILEEDGES
 66
     1
 10
0.0
 20
0.0
 30
0.0
  0
VERTEX
  5
14A
  8
PROFILEEDGES
 10
-142.762652661058
 20
194.0197235567376
 30
0.0
 40
1.688309018246479
 41
1.688309018246479
  0
VERTEX
  5
14B
  8
PROFILEEDGES
 10
-176.5368536632436
 20
191.3616362912278
 30
0.0
 40
1.688309018246479
 41
1.688309018246479
  0
SEQEND
  5
1DA
  8
PROFILEEDGES
  0
POLYLINE
  5
94
  8
PROFILEEDGES
 66
     1
 10
0.0
 20
0.0
 30
0.0
  0
VERTEX
  5
14C
  8
PROFILEEDGES
 10
-176.5368536632436
 20
191.3616362912278
 30
0.0
 40
1.688309018246479
 41
1.688309018246479
  0
VERTEX
  5
14D
  8
PROFILEEDGES
 10
-209.4794217466095
 20
183.4528254248613
 30
0.0
 40
1.688309018246479
 41
1.688309018246479
  0
SEQEND
  5
1DB
  8
PROFILEEDGES
  0
LINE
  5
95
  8
0
 10
-142.762652661058
 20
206.7197235567376
 30
0.0
 11
-107.0017339528611
 21
203.9052782167861
 31
0.0
  0
LINE
  5
96
  8
0
 10
-368.5482073211063
 20
13.88064226493434
 30
0.0
 11
-360.1741722861301
 21
48.76100847085056
 31
0.0
  0
LINE
  5
97
  8
0
 10
-346.446744090519
 20
81.90195179719798
 30
0.0
 11
-327.703937575171
 21
112.4874322307969
 31
0.0
  0
POLYLINE
  5
98
  8
PROFILEEDGES
 66
     1
 10
0.0
 20
0.0
 30
0.0
  0
VERTEX
  5
14E
  8
PROFILEEDGES
 10
-317.4294217466095
 20
105.0225595266825
 30
0.0
 40
1.688309018246479
 41
1.688309018246479
  0
VERTEX
  5
14F
  8
PROFILEEDGES
 10
-335.1309612333269
 20
76.13627245050573
 30
0.0
 40
1.688309018246479
 41
1.688309018246479
  0
SEQEND
  5
1DC
  8
PROFILEEDGES
  0
POLYLINE
  5
99
  8
PROFILEEDGES
 66
     1
 10
0.0
 20
0.0
 30
0.0
  0
VERTEX
  5
150
  8
PROFILEEDGES
 10
-240.7792015548265
 20
170.4880321290062
 30
0.0
 40
1.688309018246479
 41
1.688309018246479
  0
VERTEX
  5
151
  8
PROFILEEDGES
 10
-269.6654886310029
 20
152.7864926422887
 30
0.0
 40
1.688309018246479
 41
1.688309018246479
  0
SEQEND
  5
1DD
  8
PROFILEEDGES
  0
LINE
  5
9A
  8
0
 10
-178.5235713692549
 20
203.9052782167861
 30
0.0
 11
-142.762652661058
 21
206.7197235567376
 31
0.0
  0
LINE
  5
9B
  8
0
 10
-368.5482073211063
 20
-57.64119515145925
 30
0.0
 11
-371.362652661058
 21
-21.88027644326245
 31
0.0
  0
LINE
  5
9C
  8
0
 10
-304.4072628403026
 20
139.7643337359823
 30
0.0
 11
-277.1303613351171
 21
163.0610084708505
 31
0.0
  0
LINE
  5
9D
  8
0
 10
-246.5448809015184
 20
181.8038149861984
 30
0.0
 11
-213.4039375751711
 21
195.5312431818097
 31
0.0
  0
POLYLINE
  5
9E
  8
PROFILEEDGES
 66
     1
 10
0.0
 20
0.0
 30
0.0
  0
VERTEX
  5
152
  8
PROFILEEDGES
 10
-209.4794217466095
 20
183.4528254248613
 30
0.0
 40
1.688309018246479
 41
1.688309018246479
  0
VERTEX
  5
153
  8
PROFILEEDGES
 10
-240.7792015548265
 20
170.4880321290062
 30
0.0
 40
1.688309018246479
 41
1.688309018246479
  0
SEQEND
  5
1DE
  8
PROFILEEDGES
  0
POLYLINE
  5
9F
  8
PROFILEEDGES
 66
     1
 10
0.0
 20
0.0
 30
0.0
  0
VERTEX
  5
154
  8
PROFILEEDGES
 10
-358.662652661058
 20
-21.88027644326245
 30
0.0
 40
1.688309018246479
 41
1.688309018246479
  0
VERTEX
  5
155
  8
PROFILEEDGES
 10
-356.0045653955482
 20
-55.65447744544826
 30
0.0
 40
1.688309018246479
 41
1.688309018246479
  0
SEQEND
  5
1DF
  8
PROFILEEDGES
  0
LINE
  5
A0
  8
0
 10
-277.1303613351171
 20
163.0610084708505
 30
0.0
 11
-246.5448809015184
 21
181.8038149861984
 31
0.0
  0
LINE
  5
A1
  8
0
 10
-360.1741722861301
 20
48.76100847085056
 30
0.0
 11
-346.446744090519
 21
81.90195179719798
 31
0.0
  0
POLYLINE
  5
A2
  8
PROFILEEDGES
 66
     1
 10
0.0
 20
0.0
 30
0.0
  0
VERTEX
  5
156
  8
PROFILEEDGES
 10
70.47926007343219
 20
11.89392455892346
 30
0.0
 40
1.688309018246479
 41
1.688309018246479
  0
VERTEX
  5
157
  8
PROFILEEDGES
 10
62.57044920706529
 20
44.83649264228874
 30
0.0
 40
1.688309018246479
 41
1.688309018246479
  0
SEQEND
  5
1E0
  8
PROFILEEDGES
  0
LINE
  5
A3
  8
0
 10
18.88195751818661
 20
139.7643337359824
 30
0.0
 11
42.17863225305503
 21
112.487432230797
 31
0.0
  0
LINE
  5
A4
  8
0
 10
74.6488669640141
 20
48.76100847085056
 30
0.0
 11
83.0229019989903
 21
13.8806422649344
 31
0.0
  0
POLYLINE
  5
A5
  8
PROFILEEDGES
 66
     1
 10
0.0
 20
0.0
 30
0.0
  0
VERTEX
  5
158
  8
PROFILEEDGES
 10
-44.74610376729023
 20
170.4880321290062
 30
0.0
 40
1.688309018246479
 41
1.688309018246479
  0
VERTEX
  5
159
  8
PROFILEEDGES
 10
-76.04588357550655
 20
183.4528254248613
 30
0.0
 40
1.688309018246479
 41
1.688309018246479
  0
SEQEND
  5
1E1
  8
PROFILEEDGES
  0
LINE
  5
A6
  8
0
 10
-8.394943986998875
 20
163.0610084708505
 30
0.0
 11
18.88195751818661
 21
139.7643337359824
 31
0.0
  0
POLYLINE
  5
A7
  8
PROFILEEDGES
 66
     1
 10
0.0
 20
0.0
 30
0.0
  0
VERTEX
  5
15A
  8
PROFILEEDGES
 10
-108.9884516588724
 20
191.3616362912278
 30
0.0
 40
1.688309018246479
 41
1.688309018246479
  0
VERTEX
  5
15B
  8
PROFILEEDGES
 10
-142.762652661058
 20
194.0197235567376
 30
0.0
 40
1.688309018246479
 41
1.688309018246479
  0
SEQEND
  5
1E2
  8
PROFILEEDGES
  0
LINE
  5
A8
  8
0
 10
42.17863225305503
 20
112.487432230797
 30
0.0
 11
60.92143876840301
 21
81.90195179719798
 31
0.0
  0
LINE
  5
A9
  8
0
 10
-72.12136774694496
 20
195.5312431818097
 30
0.0
 11
-38.98042442059763
 21
181.8038149861985
 31
0.0
  0
POLYLINE
  5
AA
  8
PROFILEEDGES
 66
     1
 10
0.0
 20
0.0
 30
0.0
  0
VERTEX
  5
15C
  8
PROFILEEDGES
 10
31.90411642449344
 20
105.0225595266825
 30
0.0
 40
1.688309018246479
 41
1.688309018246479
  0
VERTEX
  5
15D
  8
PROFILEEDGES
 10
9.901701397117384
 20
130.7840776149133
 30
0.0
 40
1.688309018246479
 41
1.688309018246479
  0
SEQEND
  5
1E3
  8
PROFILEEDGES
  0
POLYLINE
  5
AB
  8
PROFILEEDGES
 66
     1
 10
0.0
 20
0.0
 30
0.0
  0
VERTEX
  5
15E
  8
PROFILEEDGES
 10
62.57044920706529
 20
44.83649264228874
 30
0.0
 40
1.688309018246479
 41
1.688309018246479
  0
VERTEX
  5
15F
  8
PROFILEEDGES
 10
49.60565591121089
 20
76.13627245050573
 30
0.0
 40
1.688309018246479
 41
1.688309018246479
  0
SEQEND
  5
1E4
  8
PROFILEEDGES
  0
LINE
  5
AC
  8
0
 10
-38.98042442059763
 20
181.8038149861985
 30
0.0
 11
-8.394943986998875
 21
163.0610084708505
 31
0.0
  0
POLYLINE
  5
AD
  8
PROFILEEDGES
 66
     1
 10
0.0
 20
0.0
 30
0.0
  0
VERTEX
  5
160
  8
PROFILEEDGES
 10
-15.85981669111315
 20
152.7864926422888
 30
0.0
 40
1.688309018246479
 41
1.688309018246479
  0
VERTEX
  5
161
  8
PROFILEEDGES
 10
-44.74610376729023
 20
170.4880321290062
 30
0.0
 40
1.688309018246479
 41
1.688309018246479
  0
SEQEND
  5
1E5
  8
PROFILEEDGES
  0
LINE
  5
AE
  8
0
 10
83.0229019989903
 20
13.8806422649344
 30
0.0
 11
85.83734733894198
 21
-21.8802764432624
 31
0.0
  0
POLYLINE
  5
AF
  8
PROFILEEDGES
 66
     1
 10
0.0
 20
0.0
 30
0.0
  0
VERTEX
  5
162
  8
PROFILEEDGES
 10
9.901701397117384
 20
130.7840776149133
 30
0.0
 40
1.688309018246479
 41
1.688309018246479
  0
VERTEX
  5
163
  8
PROFILEEDGES
 10
-15.85981669111315
 20
152.7864926422888
 30
0.0
 40
1.688309018246479
 41
1.688309018246479
  0
SEQEND
  5
1E6
  8
PROFILEEDGES
  0
POLYLINE
  5
B0
  8
PROFILEEDGES
 66
     1
 10
0.0
 20
0.0
 30
0.0
  0
VERTEX
  5
164
  8
PROFILEEDGES
 10
49.60565591121089
 20
76.13627245050573
 30
0.0
 40
1.688309018246479
 41
1.688309018246479
  0
VERTEX
  5
165
  8
PROFILEEDGES
 10
31.90411642449344
 20
105.0225595266825
 30
0.0
 40
1.688309018246479
 41
1.688309018246479
  0
SEQEND
  5
1E7
  8
PROFILEEDGES
  0
POLYLINE
  5
B1
  8
PROFILEEDGES
 66
     1
 10
0.0
 20
0.0
 30
0.0
  0
VERTEX
  5
166
  8
PROFILEEDGES
 10
-76.04588357550655
 20
183.4528254248613
 30
0.0
 40
1.688309018246479
 41
1.688309018246479
  0
VERTEX
  5
167
  8
PROFILEEDGES
 10
-108.9884516588724
 20
191.3616362912278
 30
0.0
 40
1.688309018246479
 41
1.688309018246479
  0
SEQEND
  5
1E8
  8
PROFILEEDGES
  0
LINE
  5
B2
  8
0
 10
60.92143876840301
 20
81.90195179719798
 30
0.0
 11
74.6488669640141
 21
48.76100847085056
 31
0.0
  0
POLYLINE
  5
B3
  8
PROFILEEDGES
 66
     1
 10
0.0
 20
0.0
 30
0.0
  0
VERTEX
  5
168
  8
PROFILEEDGES
 10
73.13734733894198
 20
-21.8802764432624
 30
0.0
 40
1.688309018246479
 41
1.688309018246479
  0
VERTEX
  5
169
  8
PROFILEEDGES
 10
70.47926007343219
 20
11.89392455892346
 30
0.0
 40
1.688309018246479
 41
1.688309018246479
  0
SEQEND
  5
1E9
  8
PROFILEEDGES
  0
LINE
  5
B4
  8
0
 10
-107.0017339528611
 20
203.9052782167861
 30
0.0
 11
-72.12136774694496
 21
195.5312431818097
 31
0.0
  0
POLYLINE
  5
B5
  8
PROFILEEDGES
 66
     1
 10
0.0
 20
0.0
 30
0.0
  0
VERTEX
  5
16A
  8
PROFILEEDGES
 10
71.64082719551045
 20
-47.25660055440953
 30
0.0
 40
1.688309018246479
 41
1.688309018246479
  0
VERTEX
  5
16B
  8
PROFILEEDGES
 10
73.13734733894198
 20
-21.8802764432624
 30
0.0
 40
1.688309018246479
 41
1.688309018246479
  0
SEQEND
  5
1EA
  8
PROFILEEDGES
  0
POLYLINE
  5
B6
  8
PROFILEEDGES
 66
     1
 10
0.0
 20
0.0
 30
0.0
  0
VERTEX
  5
16C
  8
PROFILEEDGES
 10
-76.04588357550655
 20
-227.213378311386
 30
0.0
 40
1.688309018246479
 41
1.688309018246479
  0
VERTEX
  5
16D
  8
PROFILEEDGES
 10
-44.74610376728951
 20
-214.248585015531
 30
0.0
 40
1.688309018246479
 41
1.688309018246479
  0
SEQEND
  5
1EB
  8
PROFILEEDGES
  0
POLYLINE
  5
B7
  8
PROFILEEDGES
 66
     1
 10
0.0
 20
0.0
 30
0.0
  0
VERTEX
  5
16E
  8
PROFILEEDGES
 10
67.1720131528001
 20
-72.28113049975234
 30
0.0
 40
1.688309018246479
 41
1.688309018246479
  0
VERTEX
  5
16F
  8
PROFILEEDGES
 10
71.64082719551045
 20
-47.25660055440953
 30
0.0
 40
1.688309018246479
 41
1.688309018246479
  0
SEQEND
  5
1EC
  8
PROFILEEDGES
  0
POLYLINE
  5
B8
  8
PROFILEEDGES
 66
     1
 10
0.0
 20
0.0
 30
0.0
  0
VERTEX
  5
170
  8
PROFILEEDGES
 10
49.60565591121089
 20
-119.8968253370305
 30
0.0
 40
1.688309018246479
 41
1.688309018246479
  0
VERTEX
  5
171
  8
PROFILEEDGES
 10
59.79285676460631
 20
-96.60694906629313
 30
0.0
 40
1.688309018246479
 41
1.688309018246479
  0
SEQEND
  5
1ED
  8
PROFILEEDGES
  0
LINE
  5
B9
  8
0
 10
31.06615107510929
 20
-170.3441002915424
 30
0.0
 11
12.41119776777225
 21
-189.7464021002601
 31
0.0
  0
LINE
  5
BA
  8
0
 10
71.7078867308222
 20
-101.0026356911773
 30
0.0
 11
60.92143876840301
 21
-125.6625046837228
 31
0.0
  0
POLYLINE
  5
BB
  8
PROFILEEDGES
 66
     1
 10
0.0
 20
0.0
 30
0.0
  0
VERTEX
  5
172
  8
PROFILEEDGES
 10
3.790428299504467
 20
-180.4205062304269
 30
0.0
 40
1.688309018246479
 41
1.688309018246479
  0
VERTEX
  5
173
  8
PROFILEEDGES
 10
21.40899531198857
 20
-162.096110077749
 30
0.0
 40
1.688309018246479
 41
1.688309018246479
  0
SEQEND
  5
1EE
  8
PROFILEEDGES
  0
POLYLINE
  5
BC
  8
PROFILEEDGES
 66
     1
 10
0.0
 20
0.0
 30
0.0
  0
VERTEX
  5
174
  8
PROFILEEDGES
 10
-142.762652661058
 20
-237.7802764432624
 30
0.0
 40
1.688309018246479
 41
1.688309018246479
  0
VERTEX
  5
175
  8
PROFILEEDGES
 10
-108.9884516588724
 20
-235.1221891777526
 30
0.0
 40
1.688309018246479
 41
1.688309018246479
  0
SEQEND
  5
1EF
  8
PROFILEEDGES
  0
LINE
  5
BD
  8
0
 10
79.52111114185067
 20
-75.24588662072235
 30
0.0
 11
71.7078867308222
 21
-101.0026356911773
 31
0.0
  0
POLYLINE
  5
BE
  8
PROFILEEDGES
 66
     1
 10
0.0
 20
0.0
 30
0.0
  0
VERTEX
  5
176
  8
PROFILEEDGES
 10
59.79285676460631
 20
-96.60694906629313
 30
0.0
 40
1.688309018246479
 41
1.688309018246479
  0
VERTEX
  5
177
  8
PROFILEEDGES
 10
67.1720131528001
 20
-72.28113049975234
 30
0.0
 40
1.688309018246479
 41
1.688309018246479
  0
SEQEND
  5
1F0
  8
PROFILEEDGES
  0
LINE
  5
BF
  8
0
 10
84.25279659883789
 20
-48.74932550212407
 30
0.0
 11
79.52111114185067
 21
-75.24588662072235
 31
0.0
  0
LINE
  5
C0
  8
0
 10
-38.98042442059763
 20
-225.5643678727233
 30
0.0
 11
-72.12136774694496
 21
-239.2917960683345
 31
0.0
  0
POLYLINE
  5
C1
  8
PROFILEEDGES
 66
     1
 10
0.0
 20
0.0
 30
0.0
  0
VERTEX
  5
178
  8
PROFILEEDGES
 10
21.40899531198857
 20
-162.096110077749
 30
0.0
 40
1.688309018246479
 41
1.688309018246479
  0
VERTEX
  5
179
  8
PROFILEEDGES
 10
36.75163663506157
 20
-141.8278897521945
 30
0.0
 40
1.688309018246479
 41
1.688309018246479
  0
SEQEND
  5
1F1
  8
PROFILEEDGES
  0
LINE
  5
C2
  8
0
 10
12.41119776777225
 20
-189.7464021002601
 30
0.0
 11
-8.394943986998879
 21
-206.8215613573753
 31
0.0
  0
LINE
  5
C3
  8
0
 10
-107.0017339528611
 20
-247.6658311033109
 30
0.0
 11
-142.762652661058
 21
-250.4802764432624
 31
0.0
  0
LINE
  5
C4
  8
0
 10
47.31130071130401
 20
-148.8836317115434
 30
0.0
 11
31.06615107510929
 21
-170.3441002915424
 31
0.0
  0
POLYLINE
  5
C5
  8
PROFILEEDGES
 66
     1
 10
0.0
 20
0.0
 30
0.0
  0
VERTEX
  5
17A
  8
PROFILEEDGES
 10
36.75163663506157
 20
-141.8278897521945
 30
0.0
 40
1.688309018246479
 41
1.688309018246479
  0
VERTEX
  5
17B
  8
PROFILEEDGES
 10
49.60565591121089
 20
-119.8968253370305
 30
0.0
 40
1.688309018246479
 41
1.688309018246479
  0
SEQEND
  5
1F2
  8
PROFILEEDGES
  0
POLYLINE
  5
C6
  8
PROFILEEDGES
 66
     1
 10
0.0
 20
0.0
 30
0.0
  0
VERTEX
  5
17C
  8
PROFILEEDGES
 10
-15.85981669111315
 20
-196.5470455288135
 30
0.0
 40
1.688309018246479
 41
1.688309018246479
  0
VERTEX
  5
17D
  8
PROFILEEDGES
 10
3.790428299504467
 20
-180.4205062304269
 30
0.0
 40
1.688309018246479
 41
1.688309018246479
  0
SEQEND
  5
1F3
  8
PROFILEEDGES
  0
LINE
  5
C7
  8
0
 10
-72.12136774694496
 20
-239.2917960683345
 30
0.0
 11
-107.0017339528611
 21
-247.6658311033109
 31
0.0
  0
POLYLINE
  5
C8
  8
PROFILEEDGES
 66
     1
 10
0.0
 20
0.0
 30
0.0
  0
VERTEX
  5
17E
  8
PROFILEEDGES
 10
-108.9884516588724
 20
-235.1221891777526
 30
0.0
 40
1.688309018246479
 41
1.688309018246479
  0
VERTEX
  5
17F
  8
PROFILEEDGES
 10
-76.04588357550655
 20
-227.213378311386
 30
0.0
 40
1.688309018246479
 41
1.688309018246479
  0
SEQEND
  5
1F4
  8
PROFILEEDGES
  0
POLYLINE
  5
C9
  8
PROFILEEDGES
 66
     1
 10
0.0
 20
0.0
 30
0.0
  0
VERTEX
  5
180
  8
PROFILEEDGES
 10
-44.74610376728951
 20
-214.248585015531
 30
0.0
 40
1.688309018246479
 41
1.688309018246479
  0
VERTEX
  5
181
  8
PROFILEEDGES
 10
-15.85981669111315
 20
-196.5470455288135
 30
0.0
 40
1.688309018246479
 41
1.688309018246479
  0
SEQEND
  5
1F5
  8
PROFILEEDGES
  0
LINE
  5
CA
  8
0
 10
-142.762652661058
 20
-250.4802764432624
 30
0.0
 11
-178.5235713692549
 21
-247.6658311033109
 31
0.0
  0
LINE
  5
CB
  8
0
 10
85.83734733894198
 20
-21.8802764432624
 30
0.0
 11
84.25279659883789
 21
-48.74932550212407
 31
0.0
  0
LINE
  5
CC
  8
0
 10
-8.394943986998879
 20
-206.8215613573753
 30
0.0
 11
-38.98042442059763
 21
-225.5643678727233
 31
0.0
  0
LINE
  5
CD
  8
0
 10
60.92143876840301
 20
-125.6625046837228
 30
0.0
 11
47.31130071130401
 21
-148.8836317115434
 31
0.0
  0
POLYLINE
  5
CE
  8
PROFILEEDGES
 66
     1
 10
0.0
 20
0.0
 30
0.0
  0
VERTEX
  5
182
  8
PROFILEEDGES
 10
-269.6654886310029
 20
-196.5470455288136
 30
0.0
 40
1.688309018246479
 41
1.688309018246479
  0
VERTEX
  5
183
  8
PROFILEEDGES
 10
-240.7792015548258
 20
-214.248585015531
 30
0.0
 40
1.688309018246479
 41
1.688309018246479
  0
SEQEND
  5
1F6
  8
PROFILEEDGES
  0
LINE
  5
CF
  8
0
 10
-213.4039375751711
 20
-239.2917960683345
 30
0.0
 11
-246.5448809015184
 21
-225.5643678727233
 31
0.0
  0
POLYLINE
  5
D0
  8
PROFILEEDGES
 66
     1
 10
0.0
 20
0.0
 30
0.0
  0
VERTEX
  5
184
  8
PROFILEEDGES
 10
95.56654392454843
 20
15.86735997094533
 30
0.0
 40
1.688309018246479
 41
1.688309018246479
  0
VERTEX
  5
185
  8
PROFILEEDGES
 10
86.72728472096219
 20
52.68552429941242
 30
0.0
 40
1.688309018246479
 41
1.688309018246479
  0
SEQEND
  5
1F7
  8
PROFILEEDGES
  0
POLYLINE
  5
D1
  8
PROFILEEDGES
 66
     1
 10
0.0
 20
0.0
 30
0.0
  0
VERTEX
  5
186
  8
PROFILEEDGES
 10
52.45314808161663
 20
119.9523049349114
 30
0.0
 40
1.688309018246479
 41
1.688309018246479
  0
VERTEX
  5
187
  8
PROFILEEDGES
 10
27.86221363925583
 20
148.7445898570515
 30
0.0
 40
1.688309018246479
 41
1.688309018246479
  0
SEQEND
  5
1F8
  8
PROFILEEDGES
  0
LINE
  5
D2
  8
0
 10
-277.1303613351171
 20
-206.8215613573753
 30
0.0
 11
-304.4072628403026
 21
-183.5248866225072
 31
0.0
  0
POLYLINE
  5
D3
  8
PROFILEEDGES
 66
     1
 10
0.0
 20
0.0
 30
0.0
  0
VERTEX
  5
188
  8
PROFILEEDGES
 10
-0.930071282883878
 20
173.3355242994124
 30
0.0
 40
1.688309018246479
 41
1.688309018246479
  0
VERTEX
  5
189
  8
PROFILEEDGES
 10
-33.21474507390502
 20
193.1195978433907
 30
0.0
 40
1.688309018246479
 41
1.688309018246479
  0
SEQEND
  5
1F9
  8
PROFILEEDGES
  0
POLYLINE
  5
D4
  8
PROFILEEDGES
 66
     1
 10
0.0
 20
0.0
 30
0.0
  0
VERTEX
  5
18A
  8
PROFILEEDGES
 10
-176.5368536632436
 20
-235.1221891777526
 30
0.0
 40
1.688309018246479
 41
1.688309018246479
  0
VERTEX
  5
18B
  8
PROFILEEDGES
 10
-142.762652661058
 20
-237.7802764432624
 30
0.0
 40
1.688309018246479
 41
1.688309018246479
  0
SEQEND
  5
1FA
  8
PROFILEEDGES
  0
POLYLINE
  5
D5
  8
PROFILEEDGES
 66
     1
 10
0.0
 20
0.0
 30
0.0
  0
VERTEX
  5
18C
  8
PROFILEEDGES
 10
27.86221363925583
 20
148.7445898570515
 30
0.0
 40
1.688309018246479
 41
1.688309018246479
  0
VERTEX
  5
18D
  8
PROFILEEDGES
 10
-0.930071282883878
 20
173.3355242994124
 30
0.0
 40
1.688309018246479
 41
1.688309018246479
  0
SEQEND
  5
1FB
  8
PROFILEEDGES
  0
POLYLINE
  5
D6
  8
PROFILEEDGES
 66
     1
 10
0.0
 20
0.0
 30
0.0
  0
VERTEX
  5
18E
  8
PROFILEEDGES
 10
72.23722162559513
 20
87.66763114389022
 30
0.0
 40
1.688309018246479
 41
1.688309018246479
  0
VERTEX
  5
18F
  8
PROFILEEDGES
 10
52.45314808161663
 20
119.9523049349114
 30
0.0
 40
1.688309018246479
 41
1.688309018246479
  0
SEQEND
  5
1FC
  8
PROFILEEDGES
  0
LINE
  5
D7
  8
0
 10
-178.5235713692549
 20
-247.6658311033109
 30
0.0
 11
-213.4039375751711
 21
-239.2917960683345
 31
0.0
  0
POLYLINE
  5
D8
  8
PROFILEEDGES
 66
     1
 10
0.0
 20
0.0
 30
0.0
  0
VERTEX
  5
190
  8
PROFILEEDGES
 10
-209.4794217466095
 20
-227.2133783113861
 30
0.0
 40
1.688309018246479
 41
1.688309018246479
  0
VERTEX
  5
191
  8
PROFILEEDGES
 10
-176.5368536632436
 20
-235.1221891777526
 30
0.0
 40
1.688309018246479
 41
1.688309018246479
  0
SEQEND
  5
1FD
  8
PROFILEEDGES
  0
LINE
  5
D9
  8
0
 10
-246.5448809015184
 20
-225.5643678727233
 30
0.0
 11
-277.1303613351171
 21
-206.8215613573753
 31
0.0
  0
POLYLINE
  5
DA
  8
PROFILEEDGES
 66
     1
 10
0.0
 20
0.0
 30
0.0
  0
VERTEX
  5
192
  8
PROFILEEDGES
 10
-295.4270067192334
 20
-174.5446305014381
 30
0.0
 40
1.688309018246479
 41
1.688309018246479
  0
VERTEX
  5
193
  8
PROFILEEDGES
 10
-269.6654886310029
 20
-196.5470455288136
 30
0.0
 40
1.688309018246479
 41
1.688309018246479
  0
SEQEND
  5
1FE
  8
PROFILEEDGES
  0
POLYLINE
  5
DB
  8
PROFILEEDGES
 66
     1
 10
0.0
 20
0.0
 30
0.0
  0
VERTEX
  5
194
  8
PROFILEEDGES
 10
98.53734733894198
 20
-21.8802764432624
 30
0.0
 40
1.688309018246479
 41
1.688309018246479
  0
VERTEX
  5
195
  8
PROFILEEDGES
 10
95.56654392454843
 20
15.86735997094533
 30
0.0
 40
1.688309018246479
 41
1.688309018246479
  0
SEQEND
  5
1FF
  8
PROFILEEDGES
  0
POLYLINE
  5
DC
  8
PROFILEEDGES
 66
     1
 10
0.0
 20
0.0
 30
0.0
  0
VERTEX
  5
196
  8
PROFILEEDGES
 10
-240.7792015548258
 20
-214.248585015531
 30
0.0
 40
1.688309018246479
 41
1.688309018246479
  0
VERTEX
  5
197
  8
PROFILEEDGES
 10
-209.4794217466095
 20
-227.2133783113861
 30
0.0
 40
1.688309018246479
 41
1.688309018246479
  0
SEQEND
  5
200
  8
PROFILEEDGES
  0
POLYLINE
  5
DD
  8
PROFILEEDGES
 66
     1
 10
0.0
 20
0.0
 30
0.0
  0
VERTEX
  5
198
  8
PROFILEEDGES
 10
86.72728472096219
 20
52.68552429941242
 30
0.0
 40
1.688309018246479
 41
1.688309018246479
  0
VERTEX
  5
199
  8
PROFILEEDGES
 10
72.23722162559513
 20
87.66763114389022
 30
0.0
 40
1.688309018246479
 41
1.688309018246479
  0
SEQEND
  5
201
  8
PROFILEEDGES
  0
POLYLINE
  5
DE
  8
PROFILEEDGES
 66
     1
 10
0.0
 20
0.0
 30
0.0
  0
VERTEX
  5
19A
  8
PROFILEEDGES
 10
275.3467821222313
 20
-259.6003199184606
 30
0.0
 40
1.688309018246479
 41
1.688309018246479
  0
VERTEX
  5
19B
  8
PROFILEEDGES
 10
247.387347338942
 20
-250.4802764432624
 30
0.0
 40
1.688309018246479
 41
1.688309018246479
  0
SEQEND
  5
202
  8
PROFILEEDGES
  0
POLYLINE
  5
DF
  8
PROFILEEDGES
 66
     1
 10
0.0
 20
0.0
 30
0.0
  0
VERTEX
  5
19C
  8
PROFILEEDGES
 10
304.5373473389421
 20
-263.1802764432624
 30
0.0
 40
1.688309018246479
 41
1.688309018246479
  0
VERTEX
  5
19D
  8
PROFILEEDGES
 10
275.3467821222313
 20
-259.6003199184606
 30
0.0
 40
1.688309018246479
 41
1.688309018246479
  0
SEQEND
  5
203
  8
PROFILEEDGES
  0
POLYLINE
  5
E0
  8
PROFILEEDGES
 66
     1
 10
0.0
 20
0.0
 30
0.0
  0
VERTEX
  5
19E
  8
PROFILEEDGES
 10
275.3467821222313
 20
215.8397670319357
 30
0.0
 40
1.688309018246479
 41
1.688309018246479
  0
VERTEX
  5
19F
  8
PROFILEEDGES
 10
247.387347338942
 20
206.7197235567376
 30
0.0
 40
1.688309018246479
 41
1.688309018246479
  0
SEQEND
  5
204
  8
PROFILEEDGES
  0
POLYLINE
  5
E1
  8
PROFILEEDGES
 66
     1
 10
0.0
 20
0.0
 30
0.0
  0
VERTEX
  5
1A0
  8
PROFILEEDGES
 10
361.687347338942
 20
-250.4802764432624
 30
0.0
 40
1.688309018246479
 41
1.688309018246479
  0
VERTEX
  5
1A1
  8
PROFILEEDGES
 10
333.7279125556528
 20
-259.6003199184606
 30
0.0
 40
1.688309018246479
 41
1.688309018246479
  0
SEQEND
  5
205
  8
PROFILEEDGES
  0
POLYLINE
  5
E2
  8
PROFILEEDGES
 66
     1
 10
0.0
 20
0.0
 30
0.0
  0
VERTEX
  5
1A2
  8
PROFILEEDGES
 10
304.5373473389421
 20
219.4197235567376
 30
0.0
 40
1.688309018246479
 41
1.688309018246479
  0
VERTEX
  5
1A3
  8
PROFILEEDGES
 10
275.3467821222313
 20
215.8397670319357
 30
0.0
 40
1.688309018246479
 41
1.688309018246479
  0
SEQEND
  5
206
  8
PROFILEEDGES
  0
POLYLINE
  5
E3
  8
PROFILEEDGES
 66
     1
 10
0.0
 20
0.0
 30
0.0
  0
VERTEX
  5
1A4
  8
PROFILEEDGES
 10
333.7279125556528
 20
-259.6003199184606
 30
0.0
 40
1.688309018246479
 41
1.688309018246479
  0
VERTEX
  5
1A5
  8
PROFILEEDGES
 10
304.5373473389421
 20
-263.1802764432624
 30
0.0
 40
1.688309018246479
 41
1.688309018246479
  0
SEQEND
  5
207
  8
PROFILEEDGES
  0
POLYLINE
  5
E4
  8
PROFILEEDGES
 66
     1
 10
0.0
 20
0.0
 30
0.0
  0
VERTEX
  5
1A6
  8
PROFILEEDGES
 10
361.687347338942
 20
206.7197235567376
 30
0.0
 40
1.688309018246479
 41
1.688309018246479
  0
VERTEX
  5
1A7
  8
PROFILEEDGES
 10
333.7279125556528
 20
215.8397670319357
 30
0.0
 40
1.688309018246479
 41
1.688309018246479
  0
SEQEND
  5
208
  8
PROFILEEDGES
  0
POLYLINE
  5
E5
  8
PROFILEEDGES
 66
     1
 10
0.0
 20
0.0
 30
0.0
  0
VERTEX
  5
1A8
  8
PROFILEEDGES
 10
333.7279125556528
 20
215.8397670319357
 30
0.0
 40
1.688309018246479
 41
1.688309018246479
  0
VERTEX
  5
1A9
  8
PROFILEEDGES
 10
304.5373473389421
 20
219.4197235567376
 30
0.0
 40
1.688309018246479
 41
1.688309018246479
  0
SEQEND
  5
209
  8
PROFILEEDGES
  0
LINE
  5
E6
  8
0
 10
98.53734733894198
 20
-21.8802764432624
 30
0.0
 11
85.83734733894198
 21
-21.8802764432624
 31
0.0
  0
LINE
  5
E7
  8
0
 10
85.83734733894198
 20
-21.8802764432624
 30
0.0
 11
73.13734733894198
 21
-21.8802764432624
 31
0.0
  0
LINE
  5
E8
  8
0
 10
304.5373473389421
 20
219.4197235567376
 30
0.0
 11
304.5373473389421
 21
-263.1802764432624
 31
0.0
  0
POLYLINE
  5
E9
  8
PROFILEEDGES
 66
     1
 10
0.0
 20
0.0
 30
0.0
  0
VERTEX
  5
1AA
  8
PROFILEEDGES
 10
361.687347338942
 20
206.7197235567376
 30
0.0
 40
1.688309018246479
 41
1.688309018246479
  0
VERTEX
  5
1AB
  8
PROFILEEDGES
 10
361.687347338942
 20
-250.4802764432624
 30
0.0
 40
1.688309018246479
 41
1.688309018246479
  0
SEQEND
  5
20A
  8
PROFILEEDGES
  0
POLYLINE
  5
EA
  8
PROFILEEDGES
 66
     1
 10
0.0
 20
0.0
 30
0.0
  0
VERTEX
  5
1AC
  8
PROFILEEDGES
 10
247.387347338942
 20
-250.4802764432624
 30
0.0
 40
1.688309018246479
 41
1.688309018246479
  0
VERTEX
  5
1AD
  8
PROFILEEDGES
 10
247.387347338942
 20
206.7197235567376
 30
0.0
 40
1.688309018246479
 41
1.688309018246479
  0
SEQEND
  5
20B
  8
PROFILEEDGES
  0
ENDSEC
  0
EOF
