  0
SECTION
  2
HEADER
  9
$ACADVER
  1
AC1009
  9
$DWGCODEPAGE
  3
ansi_1252
  9
$INSBASE
 10
0.0
 20
0.0
 30
0.0
  9
$EXTMIN
 10
1.000000000000000E+20
 20
1.000000000000000E+20
 30
1.000000000000000E+20
  9
$EXTMAX
 10
-1.000000000000000E+20
 20
-1.000000000000000E+20
 30
-1.000000000000000E+20
  9
$LIMMIN
 10
0.0
 20
0.0
  9
$LIMMAX
 10
12.0
 20
9.0
  9
$ORTHOMODE
 70
     0
  9
$REGENMODE
 70
     1
  9
$FILLMODE
 70
     1
  9
$QTEXTMODE
 70
     0
  9
$MIRRTEXT
 70
     1
  9
$DRAGMODE
 70
     2
  9
$LTSCALE
 40
1.0
  9
$OSMODE
 70
    37
  9
$ATTMODE
 70
     1
  9
$TEXTSIZE
 40
0.2
  9
$TRACEWID
 40
0.05
  9
$TEXTSTYLE
  7
STANDARD
  9
$CLAYER
  8
0
  9
$CELTYPE
  6
BYLAYER
  9
$CECOLOR
 62
   256
  9
$DIMSCALE
 40
1.0
  9
$DIMASZ
 40
0.18
  9
$DIMEXO
 40
0.0625
  9
$DIMDLI
 40
0.38
  9
$DIMRND
 40
0.0
  9
$DIMDLE
 40
0.0
  9
$DIMEXE
 40
0.18
  9
$DIMTP
 40
0.0
  9
$DIMTM
 40
0.0
  9
$DIMTXT
 40
0.18
  9
$DIMCEN
 40
0.09
  9
$DIMTSZ
 40
0.0
  9
$DIMTOL
 70
     0
  9
$DIMLIM
 70
     0
  9
$DIMTIH
 70
     1
  9
$DIMTOH
 70
     1
  9
$DIMSE1
 70
     0
  9
$DIMSE2
 70
     0
  9
$DIMTAD
 70
     0
  9
$DIMZIN
 70
     0
  9
$DIMBLK
  1

  9
$DIMASO
 70
     1
  9
$DIMSHO
 70
     1
  9
$DIMPOST
  1

  9
$DIMAPOST
  1

  9
$DIMALT
 70
     0
  9
$DIMALTD
 70
     2
  9
$DIMALTF
 40
25.4
  9
$DIMLFAC
 40
1.0
  9
$DIMTOFL
 70
     0
  9
$DIMTVP
 40
0.0
  9
$DIMTIX
 70
     0
  9
$DIMSOXD
 70
     0
  9
$DIMSAH
 70
     0
  9
$DIMBLK1
  1

  9
$DIMBLK2
  1

  9
$DIMSTYLE
  2
STANDARD
  9
$DIMCLRD
 70
     0
  9
$DIMCLRE
 70
     0
  9
$DIMCLRT
 70
     0
  9
$DIMTFAC
 40
1.0
  9
$DIMGAP
 40
0.09
  9
$LUNITS
 70
     2
  9
$LUPREC
 70
     4
  9
$SKETCHINC
 40
0.1
  9
$FILLETRAD
 40
0.0
  9
$AUNITS
 70
     0
  9
$AUPREC
 70
     0
  9
$MENU
  1
.
  9
$ELEVATION
 40
0.0
  9
$PELEVATION
 40
0.0
  9
$THICKNESS
 40
0.0
  9
$LIMCHECK
 70
     0
  9
$CHAMFERA
 40
0.0
  9
$CHAMFERB
 40
0.0
  9
$SKPOLY
 70
     0
  9
$TDCREATE
 40
2460273.398313472
  9
$TDUPDATE
 40
2460273.398313588
  9
$TDINDWG
 40
0.0000000116
  9
$TDUSRTIMER
 40
0.0000000116
  9
$USRTIMER
 70
     1
  9
$ANGBASE
 50
0.0
  9
$ANGDIR
 70
     0
  9
$PDMODE
 70
     0
  9
$PDSIZE
 40
0.0
  9
$PLINEWID
 40
0.0
  9
$COORDS
 70
     1
  9
$SPLFRAME
 70
     0
  9
$SPLINETYPE
 70
     6
  9
$SPLINESEGS
 70
     8
  9
$ATTDIA
 70
     0
  9
$ATTREQ
 70
     1
  9
$HANDLING
 70
     1
  9
$HANDSEED
  5
290
  9
$SURFTAB1
 70
     6
  9
$SURFTAB2
 70
     6
  9
$SURFTYPE
 70
     6
  9
$SURFU
 70
     6
  9
$SURFV
 70
     6
  9
$UCSNAME
  2

  9
$UCSORG
 10
0.0
 20
0.0
 30
0.0
  9
$UCSXDIR
 10
1.0
 20
0.0
 30
0.0
  9
$UCSYDIR
 10
0.0
 20
1.0
 30
0.0
  9
$PUCSNAME
  2

  9
$PUCSORG
 10
0.0
 20
0.0
 30
0.0
  9
$PUCSXDIR
 10
1.0
 20
0.0
 30
0.0
  9
$PUCSYDIR
 10
0.0
 20
1.0
 30
0.0
  9
$USERI1
 70
     0
  9
$USERI2
 70
     0
  9
$USERI3
 70
     0
  9
$USERI4
 70
     0
  9
$USERI5
 70
     0
  9
$USERR1
 40
0.0
  9
$USERR2
 40
0.0
  9
$USERR3
 40
0.0
  9
$USERR4
 40
0.0
  9
$USERR5
 40
0.0
  9
$WORLDVIEW
 70
     1
  9
$SHADEDGE
 70
     3
  9
$SHADEDIF
 70
    70
  9
$TILEMODE
 70
     1
  9
$MAXACTVP
 70
    64
  9
$PLIMCHECK
 70
     0
  9
$PEXTMIN
 10
1.000000000000000E+20
 20
1.000000000000000E+20
 30
1.000000000000000E+20
  9
$PEXTMAX
 10
-1.000000000000000E+20
 20
-1.000000000000000E+20
 30
-1.000000000000000E+20
  9
$PLIMMIN
 10
0.0
 20
0.0
  9
$PLIMMAX
 10
12.0
 20
9.0
  9
$UNITMODE
 70
     0
  9
$VISRETAIN
 70
     1
  9
$PLINEGEN
 70
     0
  9
$PSLTSCALE
 70
     1
  0
ENDSEC
  0
SECTION
  2
TABLES
  0
TABLE
  2
VPORT
 70
     1
  0
VPORT
  2
*ACTIVE
 70
     0
 10
0.0
 20
0.0
 11
1.0
 21
1.0
 12
0.0
 22
0.0
 13
0.0
 23
0.0
 14
0.5
 24
0.5
 15
0.5
 25
0.5
 16
0.0
 26
0.0
 36
1.0
 17
0.0
 27
0.0
 37
-1000.0
 40
488.7993416669378
 41
1.658454647256439
 42
50.0
 43
843.5366646905372
 44
1273.696183919188
 50
0.0
 51
0.0
 71
     0
 72
   100
 73
     1
 74
     3
 75
     0
 76
     0
 77
     0
 78
     0
  0
ENDTAB
  0
TABLE
  2
LTYPE
 70
     1
  0
LTYPE
  2
CONTINUOUS
 70
     0
  3
Solid line
 72
    65
 73
     0
 40
0.0
  0
ENDTAB
  0
TABLE
  2
LAYER
 70
     3
  0
LAYER
  2
0
 70
     0
 62
     7
  6
CONTINUOUS
  0
LAYER
  2
PROFILEEDGES
 70
     0
 62
     7
  6
CONTINUOUS
  0
LAYER
  2
SECTIONCUTEDGES
 70
     0
 62
     7
  6
CONTINUOUS
  0
ENDTAB
  0
TABLE
  2
STYLE
 70
     1
  0
STYLE
  2
STANDARD
 70
     0
 40
0.0
 41
1.0
 50
0.0
 71
     0
 42
0.2
  3
txt
  4

  0
ENDTAB
  0
TABLE
  2
VIEW
 70
     0
  0
ENDTAB
  0
TABLE
  2
UCS
 70
     0
  0
ENDTAB
  0
TABLE
  2
APPID
 70
     1
  0
APPID
  2
ACAD
 70
     0
  0
ENDTAB
  0
TABLE
  2
DIMSTYLE
 70
     1
  0
DIMSTYLE
  2
STANDARD
 70
     0
  3

  4

  5

  6

  7

 40
1.0
 41
0.18
 42
0.0625
 43
0.38
 44
0.18
 45
0.0
 46
0.0
 47
0.0
 48
0.0
140
0.18
141
0.09
142
0.0
143
25.4
144
1.0
145
0.0
146
1.0
147
0.09
 71
     0
 72
     0
 73
     1
 74
     1
 75
     0
 76
     0
 77
     0
 78
     0
170
     0
171
     2
172
     0
173
     0
174
     0
175
     0
176
     0
177
     0
178
     0
  0
ENDTAB
  0
ENDSEC
  0
SECTION
  2
BLOCKS
  0
BLOCK
  8
0
  2
$MODEL_SPACE
 70
     0
 10
0.0
 20
0.0
 30
0.0
  3
$MODEL_SPACE
  1

  0
ENDBLK
  5
21
  8
0
  0
BLOCK
 67
     1
  8
0
  2
$PAPER_SPACE
 70
     0
 10
0.0
 20
0.0
 30
0.0
  3
$PAPER_SPACE
  1

  0
ENDBLK
  5
1D
 67
     1
  8
0
  0
ENDSEC
  0
SECTION
  2
ENTITIES
  0
LINE
  5
60
  8
0
 10
36.10637384272203
 20
31.3245194629089
 30
0.0
 11
41.6890638660395
 21
8.0709419922981
 31
0.0
  0
LINE
  5
61
  8
0
 10
26.95475504564784
 20
53.41848168047383
 30
0.0
 11
36.10637384272203
 21
31.3245194629089
 31
0.0
  0
POLYLINE
  5
62
  8
PROFILEEDGES
 66
     1
 10
0.0
 20
0.0
 30
0.0
  0
VERTEX
  5
113
  8
PROFILEEDGES
 10
15.24025674651735
 20
53.14971853906978
 30
0.0
 40
1.094735367675113
 41
1.094735367675113
  0
VERTEX
  5
114
  8
PROFILEEDGES
 10
12.1717693394014
 20
58.15703489130528
 30
0.0
 40
1.094735367675113
 41
1.094735367675113
  0
SEQEND
  5
211
  8
PROFILEEDGES
  0
POLYLINE
  5
63
  8
PROFILEEDGES
 66
     1
 10
0.0
 20
0.0
 30
0.0
  0
VERTEX
  5
115
  8
PROFILEEDGES
 10
-34.90793386952122
 20
105.2367381002278
 30
0.0
 40
1.094735367675113
 41
1.094735367675113
  0
VERTEX
  5
116
  8
PROFILEEDGES
 10
-39.91525022175724
 20
108.305225507344
 30
0.0
 40
1.094735367675113
 41
1.094735367675113
  0
SEQEND
  5
212
  8
PROFILEEDGES
  0
LINE
  5
64
  8
0
 10
41.6890638660395
 20
8.0709419922981
 30
0.0
 11
43.56536075934061
 21
-15.76967047983308
 31
0.0
  0
LINE
  5
65
  8
0
 10
14.45955070208265
 20
73.80880196953984
 30
0.0
 11
26.95475504564784
 21
53.41848168047383
 31
0.0
  0
POLYLINE
  5
66
  8
PROFILEEDGES
 66
     1
 10
0.0
 20
0.0
 30
0.0
  0
VERTEX
  5
117
  8
PROFILEEDGES
 10
29.0038875120433
 20
17.52070691544682
 30
0.0
 40
1.094735367675113
 41
1.094735367675113
  0
VERTEX
  5
118
  8
PROFILEEDGES
 10
27.63292841738838
 20
23.2311625172162
 30
0.0
 40
1.094735367675113
 41
1.094735367675113
  0
SEQEND
  5
213
  8
PROFILEEDGES
  0
POLYLINE
  5
67
  8
PROFILEEDGES
 66
     1
 10
0.0
 20
0.0
 30
0.0
  0
VERTEX
  5
119
  8
PROFILEEDGES
 10
13.22859546884784
 20
-88.31909322439505
 30
0.0
 40
1.094735367675113
 41
1.094735367675113
  0
VERTEX
  5
11A
  8
PROFILEEDGES
 10
14.96088400861383
 20
-85.36352495153967
 30
0.0
 40
1.094735367675113
 41
1.094735367675113
  0
SEQEND
  5
214
  8
PROFILEEDGES
  0
LINE
  5
68
  8
0
 10
43.56536075934061
 20
-15.76967047983308
 30
0.0
 11
42.50899359927121
 21
-33.68236985240754
 31
0.0
  0
POLYLINE
  5
69
  8
PROFILEEDGES
 66
     1
 10
0.0
 20
0.0
 30
0.0
  0
VERTEX
  5
11B
  8
PROFILEEDGES
 10
-182.7613446117971
 20
-136.7760790598942
 30
0.0
 40
1.094735367675113
 41
1.094735367675113
  0
VERTEX
  5
11C
  8
PROFILEEDGES
 10
-177.7540282595619
 20
-139.8445664670099
 30
0.0
 40
1.094735367675113
 41
1.094735367675113
  0
SEQEND
  5
215
  8
PROFILEEDGES
  0
POLYLINE
  5
6A
  8
PROFILEEDGES
 66
     1
 10
0.0
 20
0.0
 30
0.0
  0
VERTEX
  5
11D
  8
PROFILEEDGES
 10
-9.330073203708691
 20
-117.1494962762506
 30
0.0
 40
1.094735367675113
 41
1.094735367675113
  0
VERTEX
  5
11E
  8
PROFILEEDGES
 10
-7.169340837827048
 20
-114.9022013728528
 30
0.0
 40
1.094735367675113
 41
1.094735367675113
  0
SEQEND
  5
216
  8
PROFILEEDGES
  0
LINE
  5
6B
  8
0
 10
43.56536075934061
 20
-15.76967047983308
 30
0.0
 11
35.95293383782424
 21
-15.76967047983311
 31
0.0
  0
LINE
  5
6C
  8
0
 10
39.35453662794664
 20
-51.34674393147306
 30
0.0
 11
34.1457203539273
 21
-68.51790997844302
 31
0.0
  0
POLYLINE
  5
6D
  8
PROFILEEDGES
 66
     1
 10
0.0
 20
0.0
 30
0.0
  0
VERTEX
  5
11F
  8
PROFILEEDGES
 10
-75.54426184537942
 20
-153.6081972325358
 30
0.0
 40
1.094735367675113
 41
1.094735367675113
  0
VERTEX
  5
120
  8
PROFILEEDGES
 10
-69.8338062436106
 20
-152.2372381378811
 30
0.0
 40
1.094735367675113
 41
1.094735367675113
  0
SEQEND
  5
217
  8
PROFILEEDGES
  0
POLYLINE
  5
6E
  8
PROFILEEDGES
 66
     1
 10
0.0
 20
0.0
 30
0.0
  0
VERTEX
  5
121
  8
PROFILEEDGES
 10
-147.8354722377073
 20
-152.2372381378813
 30
0.0
 40
1.094735367675113
 41
1.094735367675113
  0
VERTEX
  5
122
  8
PROFILEEDGES
 10
-142.1250166359398
 20
-153.6081972325357
 30
0.0
 40
1.094735367675113
 41
1.094735367675113
  0
SEQEND
  5
218
  8
PROFILEEDGES
  0
POLYLINE
  5
6F
  8
PROFILEEDGES
 66
     1
 10
0.0
 20
0.0
 30
0.0
  0
VERTEX
  5
123
  8
PROFILEEDGES
 10
27.94775216380129
 20
-54.01045171853493
 30
0.0
 40
1.094735367675113
 41
1.094735367675113
  0
VERTEX
  5
124
  8
PROFILEEDGES
 10
28.66224404561479
 20
-51.65508764032279
 30
0.0
 40
1.094735367675113
 41
1.094735367675113
  0
SEQEND
  5
219
  8
PROFILEEDGES
  0
LINE
  5
70
  8
0
 10
42.50899359927121
 20
-33.68236985240754
 30
0.0
 11
39.35453662794664
 21
-51.34674393147306
 31
0.0
  0
POLYLINE
  5
71
  8
PROFILEEDGES
 66
     1
 10
0.0
 20
0.0
 30
0.0
  0
VERTEX
  5
125
  8
PROFILEEDGES
 10
-39.91525022175679
 20
-139.8445664670099
 30
0.0
 40
1.094735367675113
 41
1.094735367675113
  0
VERTEX
  5
126
  8
PROFILEEDGES
 10
-34.90793386952168
 20
-136.7760790598942
 30
0.0
 40
1.094735367675113
 41
1.094735367675113
  0
SEQEND
  5
21A
  8
PROFILEEDGES
  0
LINE
  5
72
  8
0
 10
-261.2346392406594
 20
-15.76967047983311
 30
0.0
 11
-259.3583423473582
 21
8.070941992298067
 31
0.0
  0
LINE
  5
73
  8
0
 10
-178.0227914009663
 20
-151.5590647661404
 30
0.0
 11
-198.4131116900321
 21
-139.0638604225751
 31
0.0
  0
LINE
  5
74
  8
0
 10
-39.64648708035246
 20
-151.5590647661403
 30
0.0
 11
-61.74044929791734
 21
-160.7106835632145
 31
0.0
  0
LINE
  5
75
  8
0
 10
-19.25616679128663
 20
-139.0638604225751
 30
0.0
 11
-39.64648708035246
 21
-151.5590647661403
 31
0.0
  0
LINE
  5
76
  8
0
 10
17.88132967424864
 20
-100.4385739920204
 30
0.0
 11
7.051229916785368
 21
-114.7455530453531
 31
0.0
  0
LINE
  5
77
  8
0
 10
-132.6752517127904
 20
-166.2933735865321
 30
0.0
 11
-155.9288291834014
 21
-160.7106835632145
 31
0.0
  0
LINE
  5
78
  8
0
 10
-155.9288291834014
 20
-160.7106835632145
 30
0.0
 11
-178.0227914009663
 21
-151.5590647661404
 31
0.0
  0
LINE
  5
79
  8
0
 10
-5.385405621439086
 20
-127.6804209178316
 30
0.0
 11
-19.25616679128663
 21
-139.0638604225751
 31
0.0
  0
LINE
  5
7A
  8
0
 10
-61.74044929791734
 20
-160.7106835632145
 30
0.0
 11
-84.99402676852833
 21
-166.2933735865321
 31
0.0
  0
LINE
  5
7B
  8
0
 10
7.051229916785368
 20
-114.7455530453531
 30
0.0
 11
-5.385405621439086
 21
-127.6804209178316
 31
0.0
  0
LINE
  5
7C
  8
0
 10
26.95475504564784
 20
-84.95782264014001
 30
0.0
 11
17.88132967424864
 21
-100.4385739920204
 31
0.0
  0
LINE
  5
7D
  8
0
 10
-84.99402676852833
 20
-166.2933735865321
 30
0.0
 11
-108.8346392406594
 21
-168.1696704798331
 31
0.0
  0
LINE
  5
7E
  8
0
 10
-108.8346392406594
 20
-168.1696704798331
 30
0.0
 11
-132.6752517127904
 21
-166.2933735865321
 31
0.0
  0
LINE
  5
7F
  8
0
 10
34.1457203539273
 20
-68.51790997844302
 30
0.0
 11
26.95475504564784
 21
-84.95782264014001
 31
0.0
  0
LINE
  5
80
  8
0
 10
-216.5977126934894
 20
-123.532743932663
 30
0.0
 11
-232.1288291834014
 21
-105.348142929206
 31
0.0
  0
LINE
  5
81
  8
0
 10
-232.1288291834014
 20
-105.348142929206
 30
0.0
 11
-244.6240335269666
 21
-84.95782264014005
 31
0.0
  0
LINE
  5
82
  8
0
 10
-198.4131116900321
 20
-139.0638604225751
 30
0.0
 11
-216.5977126934894
 21
-123.532743932663
 31
0.0
  0
LINE
  5
83
  8
0
 10
-244.6240335269666
 20
-84.95782264014005
 30
0.0
 11
-253.7756523240408
 21
-62.8638604225751
 31
0.0
  0
LINE
  5
84
  8
0
 10
-39.64648708035246
 20
120.0197238064742
 30
0.0
 11
-19.25616679128663
 21
107.5245194629089
 31
0.0
  0
LINE
  5
85
  8
0
 10
-1.071565787829396
 20
91.99340297299676
 30
0.0
 11
14.45955070208265
 21
73.80880196953984
 31
0.0
  0
LINE
  5
86
  8
0
 10
-232.1288291834014
 20
73.8088019695398
 30
0.0
 11
-216.5977126934894
 21
91.99340297299676
 31
0.0
  0
LINE
  5
87
  8
0
 10
-253.7756523240408
 20
31.32451946290886
 30
0.0
 11
-244.6240335269666
 21
53.41848168047383
 31
0.0
  0
LINE
  5
88
  8
0
 10
-244.6240335269666
 20
53.41848168047383
 30
0.0
 11
-232.1288291834014
 21
73.8088019695398
 31
0.0
  0
LINE
  5
89
  8
0
 10
-178.0227914009663
 20
120.0197238064742
 30
0.0
 11
-155.9288291834014
 21
129.1713426035483
 31
0.0
  0
LINE
  5
8A
  8
0
 10
-19.25616679128663
 20
107.5245194629089
 30
0.0
 11
-1.071565787829396
 21
91.99340297299676
 31
0.0
  0
LINE
  5
8B
  8
0
 10
-259.3583423473582
 20
-39.61028295196429
 30
0.0
 11
-261.2346392406594
 21
-15.76967047983311
 31
0.0
  0
LINE
  5
8C
  8
0
 10
-108.8346392406594
 20
136.6303295201669
 30
0.0
 11
-84.99402676852833
 21
134.7540326268659
 31
0.0
  0
LINE
  5
8D
  8
0
 10
-155.9288291834014
 20
129.1713426035483
 30
0.0
 11
-132.6752517127904
 21
134.7540326268659
 31
0.0
  0
LINE
  5
8E
  8
0
 10
-198.4131116900321
 20
107.5245194629089
 30
0.0
 11
-178.0227914009663
 21
120.0197238064742
 31
0.0
  0
LINE
  5
8F
  8
0
 10
-132.6752517127904
 20
134.7540326268659
 30
0.0
 11
-108.8346392406594
 21
136.6303295201669
 31
0.0
  0
LINE
  5
90
  8
0
 10
-253.7756523240408
 20
-62.8638604225751
 30
0.0
 11
-259.3583423473582
 21
-39.61028295196429
 31
0.0
  0
LINE
  5
91
  8
0
 10
-216.5977126934894
 20
91.99340297299676
 30
0.0
 11
-198.4131116900321
 21
107.5245194629089
 31
0.0
  0
LINE
  5
92
  8
0
 10
-84.99402676852833
 20
134.7540326268659
 30
0.0
 11
-61.74044929791734
 21
129.1713426035483
 31
0.0
  0
LINE
  5
93
  8
0
 10
-259.3583423473582
 20
8.070941992298067
 30
0.0
 11
-253.7756523240408
 21
31.32451946290886
 31
0.0
  0
LINE
  5
94
  8
0
 10
-61.74044929791734
 20
129.1713426035483
 30
0.0
 11
-39.64648708035246
 21
120.0197238064742
 31
0.0
  0
POLYLINE
  5
95
  8
PROFILEEDGES
 66
     1
 10
0.0
 20
0.0
 30
0.0
  0
VERTEX
  5
127
  8
PROFILEEDGES
 10
-204.385009853324
 20
115.7441321257583
 30
0.0
 40
1.094735367675113
 41
1.094735367675113
  0
VERTEX
  5
128
  8
PROFILEEDGES
 10
-223.7819175903447
 20
99.17760786985207
 30
0.0
 40
1.094735367675113
 41
1.094735367675113
  0
SEQEND
  5
21B
  8
PROFILEEDGES
  0
POLYLINE
  5
96
  8
PROFILEEDGES
 66
     1
 10
0.0
 20
0.0
 30
0.0
  0
VERTEX
  5
129
  8
PROFILEEDGES
 10
-159.0684418462507
 20
138.8340768091071
 30
0.0
 40
1.094735367675113
 41
1.094735367675113
  0
VERTEX
  5
12A
  8
PROFILEEDGES
 10
-182.6353348783202
 20
129.072350092228
 30
0.0
 40
1.094735367675113
 41
1.094735367675113
  0
SEQEND
  5
21C
  8
PROFILEEDGES
  0
POLYLINE
  5
97
  8
PROFILEEDGES
 66
     1
 10
0.0
 20
0.0
 30
0.0
  0
VERTEX
  5
12B
  8
PROFILEEDGES
 10
-182.6353348783202
 20
129.072350092228
 30
0.0
 40
1.094735367675113
 41
1.094735367675113
  0
VERTEX
  5
12C
  8
PROFILEEDGES
 10
-204.385009853324
 20
115.7441321257583
 30
0.0
 40
1.094735367675113
 41
1.094735367675113
  0
SEQEND
  5
21D
  8
PROFILEEDGES
  0
POLYLINE
  5
98
  8
PROFILEEDGES
 66
     1
 10
0.0
 20
0.0
 30
0.0
  0
VERTEX
  5
12D
  8
PROFILEEDGES
 10
22.679163364932
 20
79.78070013283138
 30
0.0
 40
1.094735367675113
 41
1.094735367675113
  0
VERTEX
  5
12E
  8
PROFILEEDGES
 10
6.112639109025912
 20
99.17760786985207
 30
0.0
 40
1.094735367675113
 41
1.094735367675113
  0
SEQEND
  5
21E
  8
PROFILEEDGES
  0
POLYLINE
  5
99
  8
PROFILEEDGES
 66
     1
 10
0.0
 20
0.0
 30
0.0
  0
VERTEX
  5
12F
  8
PROFILEEDGES
 10
45.76910804828093
 20
34.46413212575835
 30
0.0
 40
1.094735367675113
 41
1.094735367675113
  0
VERTEX
  5
130
  8
PROFILEEDGES
 10
36.00738133140153
 20
58.03102515782766
 30
0.0
 40
1.094735367675113
 41
1.094735367675113
  0
SEQEND
  5
21F
  8
PROFILEEDGES
  0
POLYLINE
  5
9A
  8
PROFILEEDGES
 66
     1
 10
0.0
 20
0.0
 30
0.0
  0
VERTEX
  5
131
  8
PROFILEEDGES
 10
-134.2646258775994
 20
144.7889461673125
 30
0.0
 40
1.094735367675113
 41
1.094735367675113
  0
VERTEX
  5
132
  8
PROFILEEDGES
 10
-159.0684418462507
 20
138.8340768091071
 30
0.0
 40
1.094735367675113
 41
1.094735367675113
  0
SEQEND
  5
220
  8
PROFILEEDGES
  0
POLYLINE
  5
9B
  8
PROFILEEDGES
 66
     1
 10
0.0
 20
0.0
 30
0.0
  0
VERTEX
  5
133
  8
PROFILEEDGES
 10
53.72536075934075
 20
-15.76967047983309
 30
0.0
 40
1.094735367675113
 41
1.094735367675113
  0
VERTEX
  5
134
  8
PROFILEEDGES
 10
51.72397740648635
 20
9.66031615710685
 30
0.0
 40
1.094735367675113
 41
1.094735367675113
  0
SEQEND
  5
221
  8
PROFILEEDGES
  0
POLYLINE
  5
9C
  8
PROFILEEDGES
 66
     1
 10
0.0
 20
0.0
 30
0.0
  0
VERTEX
  5
135
  8
PROFILEEDGES
 10
-35.03394360299859
 20
129.072350092228
 30
0.0
 40
1.094735367675113
 41
1.094735367675113
  0
VERTEX
  5
136
  8
PROFILEEDGES
 10
-58.60083663506807
 20
138.8340768091071
 30
0.0
 40
1.094735367675113
 41
1.094735367675113
  0
SEQEND
  5
222
  8
PROFILEEDGES
  0
POLYLINE
  5
9D
  8
PROFILEEDGES
 66
     1
 10
0.0
 20
0.0
 30
0.0
  0
VERTEX
  5
137
  8
PROFILEEDGES
 10
36.00738133140153
 20
58.03102515782766
 30
0.0
 40
1.094735367675113
 41
1.094735367675113
  0
VERTEX
  5
138
  8
PROFILEEDGES
 10
22.679163364932
 20
79.78070013283138
 30
0.0
 40
1.094735367675113
 41
1.094735367675113
  0
SEQEND
  5
223
  8
PROFILEEDGES
  0
POLYLINE
  5
9E
  8
PROFILEEDGES
 66
     1
 10
0.0
 20
0.0
 30
0.0
  0
VERTEX
  5
139
  8
PROFILEEDGES
 10
-58.60083663506807
 20
138.8340768091071
 30
0.0
 40
1.094735367675113
 41
1.094735367675113
  0
VERTEX
  5
13A
  8
PROFILEEDGES
 10
-83.40465260371933
 20
144.7889461673125
 30
0.0
 40
1.094735367675113
 41
1.094735367675113
  0
SEQEND
  5
224
  8
PROFILEEDGES
  0
POLYLINE
  5
9F
  8
PROFILEEDGES
 66
     1
 10
0.0
 20
0.0
 30
0.0
  0
VERTEX
  5
13B
  8
PROFILEEDGES
 10
6.112639109025912
 20
99.17760786985207
 30
0.0
 40
1.094735367675113
 41
1.094735367675113
  0
VERTEX
  5
13C
  8
PROFILEEDGES
 10
-13.28426862799477
 20
115.7441321257584
 30
0.0
 40
1.094735367675113
 41
1.094735367675113
  0
SEQEND
  5
225
  8
PROFILEEDGES
  0
POLYLINE
  5
A0
  8
PROFILEEDGES
 66
     1
 10
0.0
 20
0.0
 30
0.0
  0
VERTEX
  5
13D
  8
PROFILEEDGES
 10
51.72397740648635
 20
9.66031615710685
 30
0.0
 40
1.094735367675113
 41
1.094735367675113
  0
VERTEX
  5
13E
  8
PROFILEEDGES
 10
45.76910804828093
 20
34.46413212575835
 30
0.0
 40
1.094735367675113
 41
1.094735367675113
  0
SEQEND
  5
226
  8
PROFILEEDGES
  0
POLYLINE
  5
A1
  8
PROFILEEDGES
 66
     1
 10
0.0
 20
0.0
 30
0.0
  0
VERTEX
  5
13F
  8
PROFILEEDGES
 10
-13.28426862799477
 20
115.7441321257584
 30
0.0
 40
1.094735367675113
 41
1.094735367675113
  0
VERTEX
  5
140
  8
PROFILEEDGES
 10
-35.03394360299859
 20
129.072350092228
 30
0.0
 40
1.094735367675113
 41
1.094735367675113
  0
SEQEND
  5
227
  8
PROFILEEDGES
  0
POLYLINE
  5
A2
  8
PROFILEEDGES
 66
     1
 10
0.0
 20
0.0
 30
0.0
  0
VERTEX
  5
141
  8
PROFILEEDGES
 10
-83.40465260371933
 20
144.7889461673125
 30
0.0
 40
1.094735367675113
 41
1.094735367675113
  0
VERTEX
  5
142
  8
PROFILEEDGES
 10
-108.8346392406594
 20
146.7903295201669
 30
0.0
 40
1.094735367675113
 41
1.094735367675113
  0
SEQEND
  5
228
  8
PROFILEEDGES
  0
POLYLINE
  5
A3
  8
PROFILEEDGES
 66
     1
 10
0.0
 20
0.0
 30
0.0
  0
VERTEX
  5
143
  8
PROFILEEDGES
 10
-108.8346392406594
 20
146.7903295201669
 30
0.0
 40
1.094735367675113
 41
1.094735367675113
  0
VERTEX
  5
144
  8
PROFILEEDGES
 10
-134.2646258775994
 20
144.7889461673125
 30
0.0
 40
1.094735367675113
 41
1.094735367675113
  0
SEQEND
  5
229
  8
PROFILEEDGES
  0
POLYLINE
  5
A4
  8
PROFILEEDGES
 66
     1
 10
0.0
 20
0.0
 30
0.0
  0
VERTEX
  5
145
  8
PROFILEEDGES
 10
36.00738133140189
 20
-89.5703661174938
 30
0.0
 40
1.094735367675113
 41
1.094735367675113
  0
VERTEX
  5
146
  8
PROFILEEDGES
 10
43.67774432689973
 20
-72.03445927835034
 30
0.0
 40
1.094735367675113
 41
1.094735367675113
  0
SEQEND
  5
22A
  8
PROFILEEDGES
  0
POLYLINE
  5
A5
  8
PROFILEEDGES
 66
     1
 10
0.0
 20
0.0
 30
0.0
  0
VERTEX
  5
147
  8
PROFILEEDGES
 10
14.77695452728159
 20
-121.3439452163877
 30
0.0
 40
1.094735367675113
 41
1.094735367675113
  0
VERTEX
  5
148
  8
PROFILEEDGES
 10
26.3290609352426
 20
-106.0831675594996
 30
0.0
 40
1.094735367675113
 41
1.094735367675113
  0
SEQEND
  5
22B
  8
PROFILEEDGES
  0
POLYLINE
  5
A6
  8
PROFILEEDGES
 66
     1
 10
0.0
 20
0.0
 30
0.0
  0
VERTEX
  5
149
  8
PROFILEEDGES
 10
52.59856912193344
 20
-34.87654981057916
 30
0.0
 40
1.094735367675113
 41
1.094735367675113
  0
VERTEX
  5
14A
  8
PROFILEEDGES
 10
53.72536075934075
 20
-15.76967047983309
 30
0.0
 40
1.094735367675113
 41
1.094735367675113
  0
SEQEND
  5
22C
  8
PROFILEEDGES
  0
POLYLINE
  5
A7
  8
PROFILEEDGES
 66
     1
 10
0.0
 20
0.0
 30
0.0
  0
VERTEX
  5
14B
  8
PROFILEEDGES
 10
43.67774432689973
 20
-72.03445927835034
 30
0.0
 40
1.094735367675113
 41
1.094735367675113
  0
VERTEX
  5
14C
  8
PROFILEEDGES
 10
49.23381501918709
 20
-53.71854882824906
 30
0.0
 40
1.094735367675113
 41
1.094735367675113
  0
SEQEND
  5
22D
  8
PROFILEEDGES
  0
POLYLINE
  5
A8
  8
PROFILEEDGES
 66
     1
 10
0.0
 20
0.0
 30
0.0
  0
VERTEX
  5
14D
  8
PROFILEEDGES
 10
49.23381501918709
 20
-53.71854882824906
 30
0.0
 40
1.094735367675113
 41
1.094735367675113
  0
VERTEX
  5
14E
  8
PROFILEEDGES
 10
52.59856912193344
 20
-34.87654981057916
 30
0.0
 40
1.094735367675113
 41
1.094735367675113
  0
SEQEND
  5
22E
  8
PROFILEEDGES
  0
POLYLINE
  5
A9
  8
PROFILEEDGES
 66
     1
 10
0.0
 20
0.0
 30
0.0
  0
VERTEX
  5
14F
  8
PROFILEEDGES
 10
1.511209953175576
 20
-135.1411376136981
 30
0.0
 40
1.094735367675113
 41
1.094735367675113
  0
VERTEX
  5
150
  8
PROFILEEDGES
 10
14.77695452728159
 20
-121.3439452163877
 30
0.0
 40
1.094735367675113
 41
1.094735367675113
  0
SEQEND
  5
22F
  8
PROFILEEDGES
  0
POLYLINE
  5
AA
  8
PROFILEEDGES
 66
     1
 10
0.0
 20
0.0
 30
0.0
  0
VERTEX
  5
151
  8
PROFILEEDGES
 10
-182.6353348783202
 20
-160.6116910518942
 30
0.0
 40
1.094735367675113
 41
1.094735367675113
  0
VERTEX
  5
152
  8
PROFILEEDGES
 10
-159.0684418462507
 20
-170.3734177687733
 30
0.0
 40
1.094735367675113
 41
1.094735367675113
  0
SEQEND
  5
230
  8
PROFILEEDGES
  0
POLYLINE
  5
AB
  8
PROFILEEDGES
 66
     1
 10
0.0
 20
0.0
 30
0.0
  0
VERTEX
  5
153
  8
PROFILEEDGES
 10
-204.3850098533236
 20
-147.2834730854246
 30
0.0
 40
1.094735367675113
 41
1.094735367675113
  0
VERTEX
  5
154
  8
PROFILEEDGES
 10
-182.6353348783202
 20
-160.6116910518942
 30
0.0
 40
1.094735367675113
 41
1.094735367675113
  0
SEQEND
  5
231
  8
PROFILEEDGES
  0
POLYLINE
  5
AC
  8
PROFILEEDGES
 66
     1
 10
0.0
 20
0.0
 30
0.0
  0
VERTEX
  5
155
  8
PROFILEEDGES
 10
-159.0684418462507
 20
-170.3734177687733
 30
0.0
 40
1.094735367675113
 41
1.094735367675113
  0
VERTEX
  5
156
  8
PROFILEEDGES
 10
-134.2646258775994
 20
-176.3282871269787
 30
0.0
 40
1.094735367675113
 41
1.094735367675113
  0
SEQEND
  5
232
  8
PROFILEEDGES
  0
POLYLINE
  5
AD
  8
PROFILEEDGES
 66
     1
 10
0.0
 20
0.0
 30
0.0
  0
VERTEX
  5
157
  8
PROFILEEDGES
 10
-223.7819175903447
 20
-130.7169488295183
 30
0.0
 40
1.094735367675113
 41
1.094735367675113
  0
VERTEX
  5
158
  8
PROFILEEDGES
 10
-204.3850098533236
 20
-147.2834730854246
 30
0.0
 40
1.094735367675113
 41
1.094735367675113
  0
SEQEND
  5
233
  8
PROFILEEDGES
  0
POLYLINE
  5
AE
  8
PROFILEEDGES
 66
     1
 10
0.0
 20
0.0
 30
0.0
  0
VERTEX
  5
159
  8
PROFILEEDGES
 10
-253.6766598127203
 20
-89.57036611749383
 30
0.0
 40
1.094735367675113
 41
1.094735367675113
  0
VERTEX
  5
15A
  8
PROFILEEDGES
 10
-240.3484418462508
 20
-111.3200410924975
 30
0.0
 40
1.094735367675113
 41
1.094735367675113
  0
SEQEND
  5
234
  8
PROFILEEDGES
  0
POLYLINE
  5
AF
  8
PROFILEEDGES
 66
     1
 10
0.0
 20
0.0
 30
0.0
  0
VERTEX
  5
15B
  8
PROFILEEDGES
 10
26.3290609352426
 20
-106.0831675594996
 30
0.0
 40
1.094735367675113
 41
1.094735367675113
  0
VERTEX
  5
15C
  8
PROFILEEDGES
 10
36.00738133140189
 20
-89.5703661174938
 30
0.0
 40
1.094735367675113
 41
1.094735367675113
  0
SEQEND
  5
235
  8
PROFILEEDGES
  0
POLYLINE
  5
B0
  8
PROFILEEDGES
 66
     1
 10
0.0
 20
0.0
 30
0.0
  0
VERTEX
  5
15D
  8
PROFILEEDGES
 10
-108.8346392406594
 20
-178.3296704798331
 30
0.0
 40
1.094735367675113
 41
1.094735367675113
  0
VERTEX
  5
15E
  8
PROFILEEDGES
 10
-83.40465260371933
 20
-176.3282871269787
 30
0.0
 40
1.094735367675113
 41
1.094735367675113
  0
SEQEND
  5
236
  8
PROFILEEDGES
  0
POLYLINE
  5
B1
  8
PROFILEEDGES
 66
     1
 10
0.0
 20
0.0
 30
0.0
  0
VERTEX
  5
15F
  8
PROFILEEDGES
 10
-58.60083663506807
 20
-170.3734177687732
 30
0.0
 40
1.094735367675113
 41
1.094735367675113
  0
VERTEX
  5
160
  8
PROFILEEDGES
 10
-35.03394360299859
 20
-160.6116910518942
 30
0.0
 40
1.094735367675113
 41
1.094735367675113
  0
SEQEND
  5
237
  8
PROFILEEDGES
  0
POLYLINE
  5
B2
  8
PROFILEEDGES
 66
     1
 10
0.0
 20
0.0
 30
0.0
  0
VERTEX
  5
161
  8
PROFILEEDGES
 10
-83.40465260371933
 20
-176.3282871269787
 30
0.0
 40
1.094735367675113
 41
1.094735367675113
  0
VERTEX
  5
162
  8
PROFILEEDGES
 10
-58.60083663506807
 20
-170.3734177687732
 30
0.0
 40
1.094735367675113
 41
1.094735367675113
  0
SEQEND
  5
238
  8
PROFILEEDGES
  0
POLYLINE
  5
B3
  8
PROFILEEDGES
 66
     1
 10
0.0
 20
0.0
 30
0.0
  0
VERTEX
  5
163
  8
PROFILEEDGES
 10
-13.28426862799477
 20
-147.2834730854245
 30
0.0
 40
1.094735367675113
 41
1.094735367675113
  0
VERTEX
  5
164
  8
PROFILEEDGES
 10
1.511209953175576
 20
-135.1411376136981
 30
0.0
 40
1.094735367675113
 41
1.094735367675113
  0
SEQEND
  5
239
  8
PROFILEEDGES
  0
POLYLINE
  5
B4
  8
PROFILEEDGES
 66
     1
 10
0.0
 20
0.0
 30
0.0
  0
VERTEX
  5
165
  8
PROFILEEDGES
 10
-35.03394360299859
 20
-160.6116910518942
 30
0.0
 40
1.094735367675113
 41
1.094735367675113
  0
VERTEX
  5
166
  8
PROFILEEDGES
 10
-13.28426862799477
 20
-147.2834730854245
 30
0.0
 40
1.094735367675113
 41
1.094735367675113
  0
SEQEND
  5
23A
  8
PROFILEEDGES
  0
POLYLINE
  5
B5
  8
PROFILEEDGES
 66
     1
 10
0.0
 20
0.0
 30
0.0
  0
VERTEX
  5
167
  8
PROFILEEDGES
 10
-134.2646258775994
 20
-176.3282871269787
 30
0.0
 40
1.094735367675113
 41
1.094735367675113
  0
VERTEX
  5
168
  8
PROFILEEDGES
 10
-108.8346392406594
 20
-178.3296704798331
 30
0.0
 40
1.094735367675113
 41
1.094735367675113
  0
SEQEND
  5
23B
  8
PROFILEEDGES
  0
POLYLINE
  5
B6
  8
PROFILEEDGES
 66
     1
 10
0.0
 20
0.0
 30
0.0
  0
VERTEX
  5
169
  8
PROFILEEDGES
 10
-240.3484418462508
 20
-111.3200410924975
 30
0.0
 40
1.094735367675113
 41
1.094735367675113
  0
VERTEX
  5
16A
  8
PROFILEEDGES
 10
-223.7819175903447
 20
-130.7169488295183
 30
0.0
 40
1.094735367675113
 41
1.094735367675113
  0
SEQEND
  5
23C
  8
PROFILEEDGES
  0
POLYLINE
  5
B7
  8
PROFILEEDGES
 66
     1
 10
0.0
 20
0.0
 30
0.0
  0
VERTEX
  5
16B
  8
PROFILEEDGES
 10
-263.4383865295997
 20
-66.00347308542456
 30
0.0
 40
1.094735367675113
 41
1.094735367675113
  0
VERTEX
  5
16C
  8
PROFILEEDGES
 10
-253.6766598127203
 20
-89.57036611749383
 30
0.0
 40
1.094735367675113
 41
1.094735367675113
  0
SEQEND
  5
23D
  8
PROFILEEDGES
  0
POLYLINE
  5
B8
  8
PROFILEEDGES
 66
     1
 10
0.0
 20
0.0
 30
0.0
  0
VERTEX
  5
16D
  8
PROFILEEDGES
 10
-240.3484418462508
 20
79.7807001328313
 30
0.0
 40
1.094735367675113
 41
1.094735367675113
  0
VERTEX
  5
16E
  8
PROFILEEDGES
 10
-253.6766598127207
 20
58.03102515782761
 30
0.0
 40
1.094735367675113
 41
1.094735367675113
  0
SEQEND
  5
23E
  8
PROFILEEDGES
  0
POLYLINE
  5
B9
  8
PROFILEEDGES
 66
     1
 10
0.0
 20
0.0
 30
0.0
  0
VERTEX
  5
16F
  8
PROFILEEDGES
 10
-269.3932558878051
 20
-41.19965711677305
 30
0.0
 40
1.094735367675113
 41
1.094735367675113
  0
VERTEX
  5
170
  8
PROFILEEDGES
 10
-263.4383865295997
 20
-66.00347308542456
 30
0.0
 40
1.094735367675113
 41
1.094735367675113
  0
SEQEND
  5
23F
  8
PROFILEEDGES
  0
POLYLINE
  5
BA
  8
PROFILEEDGES
 66
     1
 10
0.0
 20
0.0
 30
0.0
  0
VERTEX
  5
171
  8
PROFILEEDGES
 10
-263.4383865295997
 20
34.46413212575835
 30
0.0
 40
1.094735367675113
 41
1.094735367675113
  0
VERTEX
  5
172
  8
PROFILEEDGES
 10
-269.3932558878051
 20
9.660316157106804
 30
0.0
 40
1.094735367675113
 41
1.094735367675113
  0
SEQEND
  5
240
  8
PROFILEEDGES
  0
POLYLINE
  5
BB
  8
PROFILEEDGES
 66
     1
 10
0.0
 20
0.0
 30
0.0
  0
VERTEX
  5
173
  8
PROFILEEDGES
 10
-223.7819175903447
 20
99.17760786985207
 30
0.0
 40
1.094735367675113
 41
1.094735367675113
  0
VERTEX
  5
174
  8
PROFILEEDGES
 10
-240.3484418462508
 20
79.7807001328313
 30
0.0
 40
1.094735367675113
 41
1.094735367675113
  0
SEQEND
  5
241
  8
PROFILEEDGES
  0
POLYLINE
  5
BC
  8
PROFILEEDGES
 66
     1
 10
0.0
 20
0.0
 30
0.0
  0
VERTEX
  5
175
  8
PROFILEEDGES
 10
-269.3932558878051
 20
9.660316157106804
 30
0.0
 40
1.094735367675113
 41
1.094735367675113
  0
VERTEX
  5
176
  8
PROFILEEDGES
 10
-271.3946392406595
 20
-15.76967047983311
 30
0.0
 40
1.094735367675113
 41
1.094735367675113
  0
SEQEND
  5
242
  8
PROFILEEDGES
  0
POLYLINE
  5
BD
  8
PROFILEEDGES
 66
     1
 10
0.0
 20
0.0
 30
0.0
  0
VERTEX
  5
177
  8
PROFILEEDGES
 10
-253.6766598127207
 20
58.03102515782761
 30
0.0
 40
1.094735367675113
 41
1.094735367675113
  0
VERTEX
  5
178
  8
PROFILEEDGES
 10
-263.4383865295997
 20
34.46413212575835
 30
0.0
 40
1.094735367675113
 41
1.094735367675113
  0
SEQEND
  5
243
  8
PROFILEEDGES
  0
POLYLINE
  5
BE
  8
PROFILEEDGES
 66
     1
 10
0.0
 20
0.0
 30
0.0
  0
VERTEX
  5
179
  8
PROFILEEDGES
 10
-271.3946392406595
 20
-15.76967047983311
 30
0.0
 40
1.094735367675113
 41
1.094735367675113
  0
VERTEX
  5
17A
  8
PROFILEEDGES
 10
-269.3932558878051
 20
-41.19965711677305
 30
0.0
 40
1.094735367675113
 41
1.094735367675113
  0
SEQEND
  5
244
  8
PROFILEEDGES
  0
POLYLINE
  5
BF
  8
PROFILEEDGES
 66
     1
 10
0.0
 20
0.0
 30
0.0
  0
VERTEX
  5
17B
  8
PROFILEEDGES
 10
-69.83380624361088
 20
120.6978971782149
 30
0.0
 40
1.094735367675113
 41
1.094735367675113
  0
VERTEX
  5
17C
  8
PROFILEEDGES
 10
-75.54426184537975
 20
122.0688562728697
 30
0.0
 40
1.094735367675113
 41
1.094735367675113
  0
SEQEND
  5
245
  8
PROFILEEDGES
  0
POLYLINE
  5
C0
  8
PROFILEEDGES
 66
     1
 10
0.0
 20
0.0
 30
0.0
  0
VERTEX
  5
17D
  8
PROFILEEDGES
 10
-142.1250166359397
 20
122.0688562728695
 30
0.0
 40
1.094735367675113
 41
1.094735367675113
  0
VERTEX
  5
17E
  8
PROFILEEDGES
 10
-147.8354722377079
 20
120.6978971782149
 30
0.0
 40
1.094735367675113
 41
1.094735367675113
  0
SEQEND
  5
246
  8
PROFILEEDGES
  0
POLYLINE
  5
C1
  8
PROFILEEDGES
 66
     1
 10
0.0
 20
0.0
 30
0.0
  0
VERTEX
  5
17F
  8
PROFILEEDGES
 10
-246.673165993362
 20
-49.06004787511339
 30
0.0
 40
1.094735367675113
 41
1.094735367675113
  0
VERTEX
  5
180
  8
PROFILEEDGES
 10
-245.3022068987073
 20
-54.77050347688152
 30
0.0
 40
1.094735367675113
 41
1.094735367675113
  0
SEQEND
  5
247
  8
PROFILEEDGES
  0
POLYLINE
  5
C2
  8
PROFILEEDGES
 66
     1
 10
0.0
 20
0.0
 30
0.0
  0
VERTEX
  5
181
  8
PROFILEEDGES
 10
-229.8410478207219
 20
58.15703489130276
 30
0.0
 40
1.094735367675113
 41
1.094735367675113
  0
VERTEX
  5
182
  8
PROFILEEDGES
 10
-232.9095352278355
 20
53.1497185390708
 30
0.0
 40
1.094735367675113
 41
1.094735367675113
  0
SEQEND
  5
248
  8
PROFILEEDGES
  0
POLYLINE
  5
C3
  8
PROFILEEDGES
 66
     1
 10
0.0
 20
0.0
 30
0.0
  0
VERTEX
  5
183
  8
PROFILEEDGES
 10
-177.7540282595618
 20
108.3052255073438
 30
0.0
 40
1.094735367675113
 41
1.094735367675113
  0
VERTEX
  5
184
  8
PROFILEEDGES
 10
-182.761344611798
 20
105.2367381002275
 30
0.0
 40
1.094735367675113
 41
1.094735367675113
  0
SEQEND
  5
249
  8
PROFILEEDGES
  0
POLYLINE
  5
C4
  8
PROFILEEDGES
 66
     1
 10
0.0
 20
0.0
 30
0.0
  0
VERTEX
  5
185
  8
PROFILEEDGES
 10
-245.3022068987073
 20
23.2311625172154
 30
0.0
 40
1.094735367675113
 41
1.094735367675113
  0
VERTEX
  5
186
  8
PROFILEEDGES
 10
-246.673165993362
 20
17.52070691544712
 30
0.0
 40
1.094735367675113
 41
1.094735367675113
  0
SEQEND
  5
24A
  8
PROFILEEDGES
  0
POLYLINE
  5
C5
  8
PROFILEEDGES
 66
     1
 10
0.0
 20
0.0
 30
0.0
  0
VERTEX
  5
187
  8
PROFILEEDGES
 10
-232.9095352278357
 20
-84.68905949873658
 30
0.0
 40
1.094735367675113
 41
1.094735367675113
  0
VERTEX
  5
188
  8
PROFILEEDGES
 10
-229.8410478207209
 20
-89.69637585097024
 30
0.0
 40
1.094735367675113
 41
1.094735367675113
  0
SEQEND
  5
24B
  8
PROFILEEDGES
  0
POLYLINE
  5
C6
  8
PROFILEEDGES
 66
     1
 10
0.0
 20
0.0
 30
0.0
  0
VERTEX
  5
189
  8
PROFILEEDGES
 10
163.0021762074911
 20
144.4563676243208
 30
0.0
 40
1.094735367675113
 41
1.094735367675113
  0
VERTEX
  5
18A
  8
PROFILEEDGES
 10
134.9153607593407
 20
136.6303295201669
 30
0.0
 40
1.094735367675113
 41
1.094735367675113
  0
SEQEND
  5
24C
  8
PROFILEEDGES
  0
POLYLINE
  5
C7
  8
PROFILEEDGES
 66
     1
 10
0.0
 20
0.0
 30
0.0
  0
VERTEX
  5
18B
  8
PROFILEEDGES
 10
192.0653607593407
 20
146.7903295201669
 30
0.0
 40
1.094735367675113
 41
1.094735367675113
  0
VERTEX
  5
18C
  8
PROFILEEDGES
 10
163.0021762074911
 20
144.4563676243208
 30
0.0
 40
1.094735367675113
 41
1.094735367675113
  0
SEQEND
  5
24D
  8
PROFILEEDGES
  0
POLYLINE
  5
C8
  8
PROFILEEDGES
 66
     1
 10
0.0
 20
0.0
 30
0.0
  0
VERTEX
  5
18D
  8
PROFILEEDGES
 10
192.0653607593407
 20
-178.3296704798331
 30
0.0
 40
1.094735367675113
 41
1.094735367675113
  0
VERTEX
  5
18E
  8
PROFILEEDGES
 10
163.0021762074911
 20
-175.995708583987
 30
0.0
 40
1.094735367675113
 41
1.094735367675113
  0
SEQEND
  5
24E
  8
PROFILEEDGES
  0
POLYLINE
  5
C9
  8
PROFILEEDGES
 66
     1
 10
0.0
 20
0.0
 30
0.0
  0
VERTEX
  5
18F
  8
PROFILEEDGES
 10
163.0021762074911
 20
-175.995708583987
 30
0.0
 40
1.094735367675113
 41
1.094735367675113
  0
VERTEX
  5
190
  8
PROFILEEDGES
 10
134.9153607593407
 20
-168.1696704798331
 30
0.0
 40
1.094735367675113
 41
1.094735367675113
  0
SEQEND
  5
24F
  8
PROFILEEDGES
  0
POLYLINE
  5
CA
  8
PROFILEEDGES
 66
     1
 10
0.0
 20
0.0
 30
0.0
  0
VERTEX
  5
191
  8
PROFILEEDGES
 10
221.1285453111904
 20
-175.995708583987
 30
0.0
 40
1.094735367675113
 41
1.094735367675113
  0
VERTEX
  5
192
  8
PROFILEEDGES
 10
192.0653607593407
 20
-178.3296704798331
 30
0.0
 40
1.094735367675113
 41
1.094735367675113
  0
SEQEND
  5
250
  8
PROFILEEDGES
  0
POLYLINE
  5
CB
  8
PROFILEEDGES
 66
     1
 10
0.0
 20
0.0
 30
0.0
  0
VERTEX
  5
193
  8
PROFILEEDGES
 10
249.2153607593407
 20
-168.1696704798331
 30
0.0
 40
1.094735367675113
 41
1.094735367675113
  0
VERTEX
  5
194
  8
PROFILEEDGES
 10
221.1285453111904
 20
-175.995708583987
 30
0.0
 40
1.094735367675113
 41
1.094735367675113
  0
SEQEND
  5
251
  8
PROFILEEDGES
  0
POLYLINE
  5
CC
  8
PROFILEEDGES
 66
     1
 10
0.0
 20
0.0
 30
0.0
  0
VERTEX
  5
195
  8
PROFILEEDGES
 10
221.1285453111904
 20
144.4563676243208
 30
0.0
 40
1.094735367675113
 41
1.094735367675113
  0
VERTEX
  5
196
  8
PROFILEEDGES
 10
192.0653607593407
 20
146.7903295201669
 30
0.0
 40
1.094735367675113
 41
1.094735367675113
  0
SEQEND
  5
252
  8
PROFILEEDGES
  0
POLYLINE
  5
CD
  8
PROFILEEDGES
 66
     1
 10
0.0
 20
0.0
 30
0.0
  0
VERTEX
  5
197
  8
PROFILEEDGES
 10
249.2153607593407
 20
136.6303295201669
 30
0.0
 40
1.094735367675113
 41
1.094735367675113
  0
VERTEX
  5
198
  8
PROFILEEDGES
 10
221.1285453111904
 20
144.4563676243208
 30
0.0
 40
1.094735367675113
 41
1.094735367675113
  0
SEQEND
  5
253
  8
PROFILEEDGES
  0
POLYLINE
  5
CE
  8
PROFILEEDGES
 66
     1
 10
0.0
 20
0.0
 30
0.0
  0
VERTEX
  5
199
  8
PROFILEEDGES
 10
27.63292841738838
 20
23.2311625172162
 30
0.0
 40
1.094735367675113
 41
1.094735367675113
  0
VERTEX
  5
19A
  8
PROFILEEDGES
 10
28.54057596624607
 20
21.03990749490926
 30
0.0
 40
1.094735367675113
 41
1.094735367675113
  0
SEQEND
  5
254
  8
PROFILEEDGES
  0
POLYLINE
  5
CF
  8
PROFILEEDGES
 66
     1
 10
0.0
 20
0.0
 30
0.0
  0
VERTEX
  5
19B
  8
PROFILEEDGES
 10
-8.269002008496134
 20
84.79596675233061
 30
0.0
 40
1.094735367675113
 41
1.094735367675113
  0
VERTEX
  5
19C
  8
PROFILEEDGES
 10
12.1717693394014
 20
58.15703489130528
 30
0.0
 40
1.094735367675113
 41
1.094735367675113
  0
SEQEND
  5
255
  8
PROFILEEDGES
  0
POLYLINE
  5
D0
  8
PROFILEEDGES
 66
     1
 10
0.0
 20
0.0
 30
0.0
  0
VERTEX
  5
19D
  8
PROFILEEDGES
 10
12.1717693394014
 20
58.15703489130528
 30
0.0
 40
1.094735367675113
 41
1.094735367675113
  0
VERTEX
  5
19E
  8
PROFILEEDGES
 10
14.33260919765981
 20
55.34097356137634
 30
0.0
 40
1.094735367675113
 41
1.094735367675113
  0
SEQEND
  5
256
  8
PROFILEEDGES
  0
POLYLINE
  5
D1
  8
PROFILEEDGES
 66
     1
 10
0.0
 20
0.0
 30
0.0
  0
VERTEX
  5
19F
  8
PROFILEEDGES
 10
28.54057596624607
 20
21.03990749490926
 30
0.0
 40
1.094735367675113
 41
1.094735367675113
  0
VERTEX
  5
1A0
  8
PROFILEEDGES
 10
29.0038875120433
 20
17.52070691544682
 30
0.0
 40
1.094735367675113
 41
1.094735367675113
  0
SEQEND
  5
257
  8
PROFILEEDGES
  0
POLYLINE
  5
D2
  8
PROFILEEDGES
 66
     1
 10
0.0
 20
0.0
 30
0.0
  0
VERTEX
  5
1A1
  8
PROFILEEDGES
 10
29.0038875120433
 20
17.52070691544682
 30
0.0
 40
1.094735367675113
 41
1.094735367675113
  0
VERTEX
  5
1A2
  8
PROFILEEDGES
 10
33.38664884175876
 20
-15.76967047983311
 30
0.0
 40
1.094735367675113
 41
1.094735367675113
  0
SEQEND
  5
258
  8
PROFILEEDGES
  0
POLYLINE
  5
D3
  8
PROFILEEDGES
 66
     1
 10
0.0
 20
0.0
 30
0.0
  0
VERTEX
  5
1A3
  8
PROFILEEDGES
 10
-108.8346392406594
 20
-157.9909585622514
 30
0.0
 40
1.094735367675113
 41
1.094735367675113
  0
VERTEX
  5
1A4
  8
PROFILEEDGES
 10
-142.1250166359398
 20
-153.6081972325357
 30
0.0
 40
1.094735367675113
 41
1.094735367675113
  0
SEQEND
  5
259
  8
PROFILEEDGES
  0
POLYLINE
  5
D4
  8
PROFILEEDGES
 66
     1
 10
0.0
 20
0.0
 30
0.0
  0
VERTEX
  5
1A5
  8
PROFILEEDGES
 10
-142.1250166359398
 20
-153.6081972325357
 30
0.0
 40
1.094735367675113
 41
1.094735367675113
  0
VERTEX
  5
1A6
  8
PROFILEEDGES
 10
-145.6442172154012
 20
-153.1448856867386
 30
0.0
 40
1.094735367675113
 41
1.094735367675113
  0
SEQEND
  5
25A
  8
PROFILEEDGES
  0
POLYLINE
  5
D5
  8
PROFILEEDGES
 66
     1
 10
0.0
 20
0.0
 30
0.0
  0
VERTEX
  5
1A7
  8
PROFILEEDGES
 10
-8.269002008495773
 20
-116.3353077119966
 30
0.0
 40
1.094735367675113
 41
1.094735367675113
  0
VERTEX
  5
1A8
  8
PROFILEEDGES
 10
-9.330073203708691
 20
-117.1494962762506
 30
0.0
 40
1.094735367675113
 41
1.094735367675113
  0
SEQEND
  5
25B
  8
PROFILEEDGES
  0
POLYLINE
  5
D6
  8
PROFILEEDGES
 66
     1
 10
0.0
 20
0.0
 30
0.0
  0
VERTEX
  5
1A9
  8
PROFILEEDGES
 10
-179.9452832818685
 20
-138.9369189181524
 30
0.0
 40
1.094735367675113
 41
1.094735367675113
  0
VERTEX
  5
1AA
  8
PROFILEEDGES
 10
-182.7613446117971
 20
-136.7760790598942
 30
0.0
 40
1.094735367675113
 41
1.094735367675113
  0
SEQEND
  5
25C
  8
PROFILEEDGES
  0
POLYLINE
  5
D7
  8
PROFILEEDGES
 66
     1
 10
0.0
 20
0.0
 30
0.0
  0
VERTEX
  5
1AB
  8
PROFILEEDGES
 10
-182.7613446117971
 20
-136.7760790598942
 30
0.0
 40
1.094735367675113
 41
1.094735367675113
  0
VERTEX
  5
1AC
  8
PROFILEEDGES
 10
-209.400276472823
 20
-116.3353077119966
 30
0.0
 40
1.094735367675113
 41
1.094735367675113
  0
SEQEND
  5
25D
  8
PROFILEEDGES
  0
POLYLINE
  5
D8
  8
PROFILEEDGES
 66
     1
 10
0.0
 20
0.0
 30
0.0
  0
VERTEX
  5
1AD
  8
PROFILEEDGES
 10
14.33260919765981
 20
-86.88031452104225
 30
0.0
 40
1.094735367675113
 41
1.094735367675113
  0
VERTEX
  5
1AE
  8
PROFILEEDGES
 10
13.22859546884784
 20
-88.31909322439505
 30
0.0
 40
1.094735367675113
 41
1.094735367675113
  0
SEQEND
  5
25E
  8
PROFILEEDGES
  0
POLYLINE
  5
D9
  8
PROFILEEDGES
 66
     1
 10
0.0
 20
0.0
 30
0.0
  0
VERTEX
  5
1AF
  8
PROFILEEDGES
 10
-69.8338062436106
 20
-152.2372381378811
 30
0.0
 40
1.094735367675113
 41
1.094735367675113
  0
VERTEX
  5
1B0
  8
PROFILEEDGES
 10
-72.02506126591717
 20
-153.1448856867386
 30
0.0
 40
1.094735367675113
 41
1.094735367675113
  0
SEQEND
  5
25F
  8
PROFILEEDGES
  0
POLYLINE
  5
DA
  8
PROFILEEDGES
 66
     1
 10
0.0
 20
0.0
 30
0.0
  0
VERTEX
  5
1B1
  8
PROFILEEDGES
 10
-72.02506126591717
 20
-153.1448856867386
 30
0.0
 40
1.094735367675113
 41
1.094735367675113
  0
VERTEX
  5
1B2
  8
PROFILEEDGES
 10
-75.54426184537942
 20
-153.6081972325358
 30
0.0
 40
1.094735367675113
 41
1.094735367675113
  0
SEQEND
  5
260
  8
PROFILEEDGES
  0
POLYLINE
  5
DB
  8
PROFILEEDGES
 66
     1
 10
0.0
 20
0.0
 30
0.0
  0
VERTEX
  5
1B3
  8
PROFILEEDGES
 10
-75.54426184537942
 20
-153.6081972325358
 30
0.0
 40
1.094735367675113
 41
1.094735367675113
  0
VERTEX
  5
1B4
  8
PROFILEEDGES
 10
-108.8346392406594
 20
-157.9909585622514
 30
0.0
 40
1.094735367675113
 41
1.094735367675113
  0
SEQEND
  5
261
  8
PROFILEEDGES
  0
POLYLINE
  5
DC
  8
PROFILEEDGES
 66
     1
 10
0.0
 20
0.0
 30
0.0
  0
VERTEX
  5
1B5
  8
PROFILEEDGES
 10
33.38664884175876
 20
-15.76967047983311
 30
0.0
 40
1.094735367675113
 41
1.094735367675113
  0
VERTEX
  5
1B6
  8
PROFILEEDGES
 10
28.66224404561479
 20
-51.65508764032279
 30
0.0
 40
1.094735367675113
 41
1.094735367675113
  0
SEQEND
  5
262
  8
PROFILEEDGES
  0
POLYLINE
  5
DD
  8
PROFILEEDGES
 66
     1
 10
0.0
 20
0.0
 30
0.0
  0
VERTEX
  5
1B7
  8
PROFILEEDGES
 10
28.66224404561479
 20
-51.65508764032279
 30
0.0
 40
1.094735367675113
 41
1.094735367675113
  0
VERTEX
  5
1B8
  8
PROFILEEDGES
 10
28.54057596624607
 20
-52.57924845457514
 30
0.0
 40
1.094735367675113
 41
1.094735367675113
  0
SEQEND
  5
263
  8
PROFILEEDGES
  0
POLYLINE
  5
DE
  8
PROFILEEDGES
 66
     1
 10
0.0
 20
0.0
 30
0.0
  0
VERTEX
  5
1B9
  8
PROFILEEDGES
 10
14.96088400861383
 20
-85.36352495153967
 30
0.0
 40
1.094735367675113
 41
1.094735367675113
  0
VERTEX
  5
1BA
  8
PROFILEEDGES
 10
14.33260919765981
 20
-86.88031452104225
 30
0.0
 40
1.094735367675113
 41
1.094735367675113
  0
SEQEND
  5
264
  8
PROFILEEDGES
  0
POLYLINE
  5
DF
  8
PROFILEEDGES
 66
     1
 10
0.0
 20
0.0
 30
0.0
  0
VERTEX
  5
1BB
  8
PROFILEEDGES
 10
-177.7540282595619
 20
-139.8445664670099
 30
0.0
 40
1.094735367675113
 41
1.094735367675113
  0
VERTEX
  5
1BC
  8
PROFILEEDGES
 10
-179.9452832818685
 20
-138.9369189181524
 30
0.0
 40
1.094735367675113
 41
1.094735367675113
  0
SEQEND
  5
265
  8
PROFILEEDGES
  0
POLYLINE
  5
E0
  8
PROFILEEDGES
 66
     1
 10
0.0
 20
0.0
 30
0.0
  0
VERTEX
  5
1BD
  8
PROFILEEDGES
 10
-37.72399519945031
 20
107.3975779584863
 30
0.0
 40
1.094735367675113
 41
1.094735367675113
  0
VERTEX
  5
1BE
  8
PROFILEEDGES
 10
-34.90793386952122
 20
105.2367381002278
 30
0.0
 40
1.094735367675113
 41
1.094735367675113
  0
SEQEND
  5
266
  8
PROFILEEDGES
  0
POLYLINE
  5
E1
  8
PROFILEEDGES
 66
     1
 10
0.0
 20
0.0
 30
0.0
  0
VERTEX
  5
1BF
  8
PROFILEEDGES
 10
-34.90793386952122
 20
105.2367381002278
 30
0.0
 40
1.094735367675113
 41
1.094735367675113
  0
VERTEX
  5
1C0
  8
PROFILEEDGES
 10
-8.269002008496134
 20
84.79596675233061
 30
0.0
 40
1.094735367675113
 41
1.094735367675113
  0
SEQEND
  5
267
  8
PROFILEEDGES
  0
POLYLINE
  5
E2
  8
PROFILEEDGES
 66
     1
 10
0.0
 20
0.0
 30
0.0
  0
VERTEX
  5
1C1
  8
PROFILEEDGES
 10
-209.400276472823
 20
84.79596675233034
 30
0.0
 40
1.094735367675113
 41
1.094735367675113
  0
VERTEX
  5
1C2
  8
PROFILEEDGES
 10
-182.761344611798
 20
105.2367381002275
 30
0.0
 40
1.094735367675113
 41
1.094735367675113
  0
SEQEND
  5
268
  8
PROFILEEDGES
  0
POLYLINE
  5
E3
  8
PROFILEEDGES
 66
     1
 10
0.0
 20
0.0
 30
0.0
  0
VERTEX
  5
1C3
  8
PROFILEEDGES
 10
-182.761344611798
 20
105.2367381002275
 30
0.0
 40
1.094735367675113
 41
1.094735367675113
  0
VERTEX
  5
1C4
  8
PROFILEEDGES
 10
-179.9452832818688
 20
107.3975779584861
 30
0.0
 40
1.094735367675113
 41
1.094735367675113
  0
SEQEND
  5
269
  8
PROFILEEDGES
  0
POLYLINE
  5
E4
  8
PROFILEEDGES
 66
     1
 10
0.0
 20
0.0
 30
0.0
  0
VERTEX
  5
1C5
  8
PROFILEEDGES
 10
-232.0018876789786
 20
55.34097356137598
 30
0.0
 40
1.094735367675113
 41
1.094735367675113
  0
VERTEX
  5
1C6
  8
PROFILEEDGES
 10
-229.8410478207219
 20
58.15703489130276
 30
0.0
 40
1.094735367675113
 41
1.094735367675113
  0
SEQEND
  5
26A
  8
PROFILEEDGES
  0
POLYLINE
  5
E5
  8
PROFILEEDGES
 66
     1
 10
0.0
 20
0.0
 30
0.0
  0
VERTEX
  5
1C7
  8
PROFILEEDGES
 10
-229.8410478207219
 20
58.15703489130276
 30
0.0
 40
1.094735367675113
 41
1.094735367675113
  0
VERTEX
  5
1C8
  8
PROFILEEDGES
 10
-209.400276472823
 20
84.79596675233034
 30
0.0
 40
1.094735367675113
 41
1.094735367675113
  0
SEQEND
  5
26B
  8
PROFILEEDGES
  0
POLYLINE
  5
E6
  8
PROFILEEDGES
 66
     1
 10
0.0
 20
0.0
 30
0.0
  0
VERTEX
  5
1C9
  8
PROFILEEDGES
 10
-209.400276472823
 20
-116.3353077119966
 30
0.0
 40
1.094735367675113
 41
1.094735367675113
  0
VERTEX
  5
1CA
  8
PROFILEEDGES
 10
-229.8410478207209
 20
-89.69637585097024
 30
0.0
 40
1.094735367675113
 41
1.094735367675113
  0
SEQEND
  5
26C
  8
PROFILEEDGES
  0
POLYLINE
  5
E7
  8
PROFILEEDGES
 66
     1
 10
0.0
 20
0.0
 30
0.0
  0
VERTEX
  5
1CB
  8
PROFILEEDGES
 10
-229.8410478207209
 20
-89.69637585097024
 30
0.0
 40
1.094735367675113
 41
1.094735367675113
  0
VERTEX
  5
1CC
  8
PROFILEEDGES
 10
-232.0018876789786
 20
-86.88031452104222
 30
0.0
 40
1.094735367675113
 41
1.094735367675113
  0
SEQEND
  5
26D
  8
PROFILEEDGES
  0
POLYLINE
  5
E8
  8
PROFILEEDGES
 66
     1
 10
0.0
 20
0.0
 30
0.0
  0
VERTEX
  5
1CD
  8
PROFILEEDGES
 10
-246.2098544475648
 20
21.0399074949089
 30
0.0
 40
1.094735367675113
 41
1.094735367675113
  0
VERTEX
  5
1CE
  8
PROFILEEDGES
 10
-245.3022068987073
 20
23.2311625172154
 30
0.0
 40
1.094735367675113
 41
1.094735367675113
  0
SEQEND
  5
26E
  8
PROFILEEDGES
  0
POLYLINE
  5
E9
  8
PROFILEEDGES
 66
     1
 10
0.0
 20
0.0
 30
0.0
  0
VERTEX
  5
1CF
  8
PROFILEEDGES
 10
-179.9452832818688
 20
107.3975779584861
 30
0.0
 40
1.094735367675113
 41
1.094735367675113
  0
VERTEX
  5
1D0
  8
PROFILEEDGES
 10
-177.7540282595618
 20
108.3052255073438
 30
0.0
 40
1.094735367675113
 41
1.094735367675113
  0
SEQEND
  5
26F
  8
PROFILEEDGES
  0
POLYLINE
  5
EA
  8
PROFILEEDGES
 66
     1
 10
0.0
 20
0.0
 30
0.0
  0
VERTEX
  5
1D1
  8
PROFILEEDGES
 10
-39.91525022175724
 20
108.305225507344
 30
0.0
 40
1.094735367675113
 41
1.094735367675113
  0
VERTEX
  5
1D2
  8
PROFILEEDGES
 10
-37.72399519945031
 20
107.3975779584863
 30
0.0
 40
1.094735367675113
 41
1.094735367675113
  0
SEQEND
  5
270
  8
PROFILEEDGES
  0
POLYLINE
  5
EB
  8
PROFILEEDGES
 66
     1
 10
0.0
 20
0.0
 30
0.0
  0
VERTEX
  5
1D3
  8
PROFILEEDGES
 10
-251.0559273230775
 20
-15.76967047983309
 30
0.0
 40
1.094735367675113
 41
1.094735367675113
  0
VERTEX
  5
1D4
  8
PROFILEEDGES
 10
-246.673165993362
 20
17.52070691544712
 30
0.0
 40
1.094735367675113
 41
1.094735367675113
  0
SEQEND
  5
271
  8
PROFILEEDGES
  0
POLYLINE
  5
EC
  8
PROFILEEDGES
 66
     1
 10
0.0
 20
0.0
 30
0.0
  0
VERTEX
  5
1D5
  8
PROFILEEDGES
 10
-246.673165993362
 20
17.52070691544712
 30
0.0
 40
1.094735367675113
 41
1.094735367675113
  0
VERTEX
  5
1D6
  8
PROFILEEDGES
 10
-246.2098544475648
 20
21.0399074949089
 30
0.0
 40
1.094735367675113
 41
1.094735367675113
  0
SEQEND
  5
272
  8
PROFILEEDGES
  0
POLYLINE
  5
ED
  8
PROFILEEDGES
 66
     1
 10
0.0
 20
0.0
 30
0.0
  0
VERTEX
  5
1D7
  8
PROFILEEDGES
 10
-245.3022068987073
 20
-54.77050347688152
 30
0.0
 40
1.094735367675113
 41
1.094735367675113
  0
VERTEX
  5
1D8
  8
PROFILEEDGES
 10
-246.2098544475648
 20
-52.57924845457507
 30
0.0
 40
1.094735367675113
 41
1.094735367675113
  0
SEQEND
  5
273
  8
PROFILEEDGES
  0
POLYLINE
  5
EE
  8
PROFILEEDGES
 66
     1
 10
0.0
 20
0.0
 30
0.0
  0
VERTEX
  5
1D9
  8
PROFILEEDGES
 10
-145.6442172154016
 20
121.6055447270724
 30
0.0
 40
1.094735367675113
 41
1.094735367675113
  0
VERTEX
  5
1DA
  8
PROFILEEDGES
 10
-142.1250166359397
 20
122.0688562728695
 30
0.0
 40
1.094735367675113
 41
1.094735367675113
  0
SEQEND
  5
274
  8
PROFILEEDGES
  0
POLYLINE
  5
EF
  8
PROFILEEDGES
 66
     1
 10
0.0
 20
0.0
 30
0.0
  0
VERTEX
  5
1DB
  8
PROFILEEDGES
 10
-142.1250166359397
 20
122.0688562728695
 30
0.0
 40
1.094735367675113
 41
1.094735367675113
  0
VERTEX
  5
1DC
  8
PROFILEEDGES
 10
-108.8346392406597
 20
126.4516176025852
 30
0.0
 40
1.094735367675113
 41
1.094735367675113
  0
SEQEND
  5
275
  8
PROFILEEDGES
  0
POLYLINE
  5
F0
  8
PROFILEEDGES
 66
     1
 10
0.0
 20
0.0
 30
0.0
  0
VERTEX
  5
1DD
  8
PROFILEEDGES
 10
-246.2098544475648
 20
-52.57924845457507
 30
0.0
 40
1.094735367675113
 41
1.094735367675113
  0
VERTEX
  5
1DE
  8
PROFILEEDGES
 10
-246.673165993362
 20
-49.06004787511339
 30
0.0
 40
1.094735367675113
 41
1.094735367675113
  0
SEQEND
  5
276
  8
PROFILEEDGES
  0
POLYLINE
  5
F1
  8
PROFILEEDGES
 66
     1
 10
0.0
 20
0.0
 30
0.0
  0
VERTEX
  5
1DF
  8
PROFILEEDGES
 10
-246.673165993362
 20
-49.06004787511339
 30
0.0
 40
1.094735367675113
 41
1.094735367675113
  0
VERTEX
  5
1E0
  8
PROFILEEDGES
 10
-251.0559273230775
 20
-15.76967047983309
 30
0.0
 40
1.094735367675113
 41
1.094735367675113
  0
SEQEND
  5
277
  8
PROFILEEDGES
  0
POLYLINE
  5
F2
  8
PROFILEEDGES
 66
     1
 10
0.0
 20
0.0
 30
0.0
  0
VERTEX
  5
1E1
  8
PROFILEEDGES
 10
-108.8346392406597
 20
126.4516176025852
 30
0.0
 40
1.094735367675113
 41
1.094735367675113
  0
VERTEX
  5
1E2
  8
PROFILEEDGES
 10
-75.54426184537975
 20
122.0688562728697
 30
0.0
 40
1.094735367675113
 41
1.094735367675113
  0
SEQEND
  5
278
  8
PROFILEEDGES
  0
POLYLINE
  5
F3
  8
PROFILEEDGES
 66
     1
 10
0.0
 20
0.0
 30
0.0
  0
VERTEX
  5
1E3
  8
PROFILEEDGES
 10
-75.54426184537975
 20
122.0688562728697
 30
0.0
 40
1.094735367675113
 41
1.094735367675113
  0
VERTEX
  5
1E4
  8
PROFILEEDGES
 10
-72.02506126591753
 20
121.6055447270725
 30
0.0
 40
1.094735367675113
 41
1.094735367675113
  0
SEQEND
  5
279
  8
PROFILEEDGES
  0
POLYLINE
  5
F4
  8
PROFILEEDGES
 66
     1
 10
0.0
 20
0.0
 30
0.0
  0
VERTEX
  5
1E5
  8
PROFILEEDGES
 10
14.33260919765981
 20
55.34097356137634
 30
0.0
 40
1.094735367675113
 41
1.094735367675113
  0
VERTEX
  5
1E6
  8
PROFILEEDGES
 10
15.24025674651735
 20
53.14971853906978
 30
0.0
 40
1.094735367675113
 41
1.094735367675113
  0
SEQEND
  5
27A
  8
PROFILEEDGES
  0
POLYLINE
  5
F5
  8
PROFILEEDGES
 66
     1
 10
0.0
 20
0.0
 30
0.0
  0
VERTEX
  5
1E7
  8
PROFILEEDGES
 10
15.24025674651735
 20
53.14971853906978
 30
0.0
 40
1.094735367675113
 41
1.094735367675113
  0
VERTEX
  5
1E8
  8
PROFILEEDGES
 10
27.63292841738838
 20
23.2311625172162
 30
0.0
 40
1.094735367675113
 41
1.094735367675113
  0
SEQEND
  5
27B
  8
PROFILEEDGES
  0
POLYLINE
  5
F6
  8
PROFILEEDGES
 66
     1
 10
0.0
 20
0.0
 30
0.0
  0
VERTEX
  5
1E9
  8
PROFILEEDGES
 10
-9.330073203708691
 20
-117.1494962762506
 30
0.0
 40
1.094735367675113
 41
1.094735367675113
  0
VERTEX
  5
1EA
  8
PROFILEEDGES
 10
-34.90793386952168
 20
-136.7760790598942
 30
0.0
 40
1.094735367675113
 41
1.094735367675113
  0
SEQEND
  5
27C
  8
PROFILEEDGES
  0
POLYLINE
  5
F7
  8
PROFILEEDGES
 66
     1
 10
0.0
 20
0.0
 30
0.0
  0
VERTEX
  5
1EB
  8
PROFILEEDGES
 10
-34.90793386952168
 20
-136.7760790598942
 30
0.0
 40
1.094735367675113
 41
1.094735367675113
  0
VERTEX
  5
1EC
  8
PROFILEEDGES
 10
-37.72399519945031
 20
-138.9369189181524
 30
0.0
 40
1.094735367675113
 41
1.094735367675113
  0
SEQEND
  5
27D
  8
PROFILEEDGES
  0
POLYLINE
  5
F8
  8
PROFILEEDGES
 66
     1
 10
0.0
 20
0.0
 30
0.0
  0
VERTEX
  5
1ED
  8
PROFILEEDGES
 10
13.22859546884784
 20
-88.31909322439505
 30
0.0
 40
1.094735367675113
 41
1.094735367675113
  0
VERTEX
  5
1EE
  8
PROFILEEDGES
 10
-7.169340837827048
 20
-114.9022013728528
 30
0.0
 40
1.094735367675113
 41
1.094735367675113
  0
SEQEND
  5
27E
  8
PROFILEEDGES
  0
POLYLINE
  5
F9
  8
PROFILEEDGES
 66
     1
 10
0.0
 20
0.0
 30
0.0
  0
VERTEX
  5
1EF
  8
PROFILEEDGES
 10
-7.169340837827048
 20
-114.9022013728528
 30
0.0
 40
1.094735367675113
 41
1.094735367675113
  0
VERTEX
  5
1F0
  8
PROFILEEDGES
 10
-8.269002008495773
 20
-116.3353077119966
 30
0.0
 40
1.094735367675113
 41
1.094735367675113
  0
SEQEND
  5
27F
  8
PROFILEEDGES
  0
POLYLINE
  5
FA
  8
PROFILEEDGES
 66
     1
 10
0.0
 20
0.0
 30
0.0
  0
VERTEX
  5
1F1
  8
PROFILEEDGES
 10
-37.72399519945031
 20
-138.9369189181524
 30
0.0
 40
1.094735367675113
 41
1.094735367675113
  0
VERTEX
  5
1F2
  8
PROFILEEDGES
 10
-39.91525022175679
 20
-139.8445664670099
 30
0.0
 40
1.094735367675113
 41
1.094735367675113
  0
SEQEND
  5
280
  8
PROFILEEDGES
  0
POLYLINE
  5
FB
  8
PROFILEEDGES
 66
     1
 10
0.0
 20
0.0
 30
0.0
  0
VERTEX
  5
1F3
  8
PROFILEEDGES
 10
-39.91525022175679
 20
-139.8445664670099
 30
0.0
 40
1.094735367675113
 41
1.094735367675113
  0
VERTEX
  5
1F4
  8
PROFILEEDGES
 10
-69.8338062436106
 20
-152.2372381378811
 30
0.0
 40
1.094735367675113
 41
1.094735367675113
  0
SEQEND
  5
281
  8
PROFILEEDGES
  0
POLYLINE
  5
FC
  8
PROFILEEDGES
 66
     1
 10
0.0
 20
0.0
 30
0.0
  0
VERTEX
  5
1F5
  8
PROFILEEDGES
 10
28.54057596624607
 20
-52.57924845457514
 30
0.0
 40
1.094735367675113
 41
1.094735367675113
  0
VERTEX
  5
1F6
  8
PROFILEEDGES
 10
27.94775216380129
 20
-54.01045171853493
 30
0.0
 40
1.094735367675113
 41
1.094735367675113
  0
SEQEND
  5
282
  8
PROFILEEDGES
  0
POLYLINE
  5
FD
  8
PROFILEEDGES
 66
     1
 10
0.0
 20
0.0
 30
0.0
  0
VERTEX
  5
1F7
  8
PROFILEEDGES
 10
27.94775216380129
 20
-54.01045171853493
 30
0.0
 40
1.094735367675113
 41
1.094735367675113
  0
VERTEX
  5
1F8
  8
PROFILEEDGES
 10
14.96088400861383
 20
-85.36352495153967
 30
0.0
 40
1.094735367675113
 41
1.094735367675113
  0
SEQEND
  5
283
  8
PROFILEEDGES
  0
POLYLINE
  5
FE
  8
PROFILEEDGES
 66
     1
 10
0.0
 20
0.0
 30
0.0
  0
VERTEX
  5
1F9
  8
PROFILEEDGES
 10
-145.6442172154012
 20
-153.1448856867386
 30
0.0
 40
1.094735367675113
 41
1.094735367675113
  0
VERTEX
  5
1FA
  8
PROFILEEDGES
 10
-147.8354722377073
 20
-152.2372381378813
 30
0.0
 40
1.094735367675113
 41
1.094735367675113
  0
SEQEND
  5
284
  8
PROFILEEDGES
  0
POLYLINE
  5
FF
  8
PROFILEEDGES
 66
     1
 10
0.0
 20
0.0
 30
0.0
  0
VERTEX
  5
1FB
  8
PROFILEEDGES
 10
-147.8354722377073
 20
-152.2372381378813
 30
0.0
 40
1.094735367675113
 41
1.094735367675113
  0
VERTEX
  5
1FC
  8
PROFILEEDGES
 10
-177.7540282595619
 20
-139.8445664670099
 30
0.0
 40
1.094735367675113
 41
1.094735367675113
  0
SEQEND
  5
285
  8
PROFILEEDGES
  0
POLYLINE
  5
100
  8
PROFILEEDGES
 66
     1
 10
0.0
 20
0.0
 30
0.0
  0
VERTEX
  5
1FD
  8
PROFILEEDGES
 10
-245.3022068987073
 20
23.2311625172154
 30
0.0
 40
1.094735367675113
 41
1.094735367675113
  0
VERTEX
  5
1FE
  8
PROFILEEDGES
 10
-232.9095352278355
 20
53.1497185390708
 30
0.0
 40
1.094735367675113
 41
1.094735367675113
  0
SEQEND
  5
286
  8
PROFILEEDGES
  0
POLYLINE
  5
101
  8
PROFILEEDGES
 66
     1
 10
0.0
 20
0.0
 30
0.0
  0
VERTEX
  5
1FF
  8
PROFILEEDGES
 10
-232.9095352278355
 20
53.1497185390708
 30
0.0
 40
1.094735367675113
 41
1.094735367675113
  0
VERTEX
  5
200
  8
PROFILEEDGES
 10
-232.0018876789786
 20
55.34097356137598
 30
0.0
 40
1.094735367675113
 41
1.094735367675113
  0
SEQEND
  5
287
  8
PROFILEEDGES
  0
POLYLINE
  5
102
  8
PROFILEEDGES
 66
     1
 10
0.0
 20
0.0
 30
0.0
  0
VERTEX
  5
201
  8
PROFILEEDGES
 10
-177.7540282595618
 20
108.3052255073438
 30
0.0
 40
1.094735367675113
 41
1.094735367675113
  0
VERTEX
  5
202
  8
PROFILEEDGES
 10
-147.8354722377079
 20
120.6978971782149
 30
0.0
 40
1.094735367675113
 41
1.094735367675113
  0
SEQEND
  5
288
  8
PROFILEEDGES
  0
POLYLINE
  5
103
  8
PROFILEEDGES
 66
     1
 10
0.0
 20
0.0
 30
0.0
  0
VERTEX
  5
203
  8
PROFILEEDGES
 10
-147.8354722377079
 20
120.6978971782149
 30
0.0
 40
1.094735367675113
 41
1.094735367675113
  0
VERTEX
  5
204
  8
PROFILEEDGES
 10
-145.6442172154016
 20
121.6055447270724
 30
0.0
 40
1.094735367675113
 41
1.094735367675113
  0
SEQEND
  5
289
  8
PROFILEEDGES
  0
POLYLINE
  5
104
  8
PROFILEEDGES
 66
     1
 10
0.0
 20
0.0
 30
0.0
  0
VERTEX
  5
205
  8
PROFILEEDGES
 10
-72.02506126591753
 20
121.6055447270725
 30
0.0
 40
1.094735367675113
 41
1.094735367675113
  0
VERTEX
  5
206
  8
PROFILEEDGES
 10
-69.83380624361088
 20
120.6978971782149
 30
0.0
 40
1.094735367675113
 41
1.094735367675113
  0
SEQEND
  5
28A
  8
PROFILEEDGES
  0
POLYLINE
  5
105
  8
PROFILEEDGES
 66
     1
 10
0.0
 20
0.0
 30
0.0
  0
VERTEX
  5
207
  8
PROFILEEDGES
 10
-69.83380624361088
 20
120.6978971782149
 30
0.0
 40
1.094735367675113
 41
1.094735367675113
  0
VERTEX
  5
208
  8
PROFILEEDGES
 10
-39.91525022175724
 20
108.305225507344
 30
0.0
 40
1.094735367675113
 41
1.094735367675113
  0
SEQEND
  5
28B
  8
PROFILEEDGES
  0
POLYLINE
  5
106
  8
PROFILEEDGES
 66
     1
 10
0.0
 20
0.0
 30
0.0
  0
VERTEX
  5
209
  8
PROFILEEDGES
 10
-232.0018876789786
 20
-86.88031452104222
 30
0.0
 40
1.094735367675113
 41
1.094735367675113
  0
VERTEX
  5
20A
  8
PROFILEEDGES
 10
-232.9095352278357
 20
-84.68905949873658
 30
0.0
 40
1.094735367675113
 41
1.094735367675113
  0
SEQEND
  5
28C
  8
PROFILEEDGES
  0
POLYLINE
  5
107
  8
PROFILEEDGES
 66
     1
 10
0.0
 20
0.0
 30
0.0
  0
VERTEX
  5
20B
  8
PROFILEEDGES
 10
-232.9095352278357
 20
-84.68905949873658
 30
0.0
 40
1.094735367675113
 41
1.094735367675113
  0
VERTEX
  5
20C
  8
PROFILEEDGES
 10
-245.3022068987073
 20
-54.77050347688152
 30
0.0
 40
1.094735367675113
 41
1.094735367675113
  0
SEQEND
  5
28D
  8
PROFILEEDGES
  0
LINE
  5
108
  8
0
 10
53.72536075934075
 20
-15.76967047983309
 30
0.0
 11
43.56536075934061
 21
-15.76967047983308
 31
0.0
  0
POLYLINE
  5
109
  8
PROFILEEDGES
 66
     1
 10
0.0
 20
0.0
 30
0.0
  0
VERTEX
  5
20D
  8
PROFILEEDGES
 10
249.2153607593407
 20
-168.1696704798331
 30
0.0
 40
1.094735367675113
 41
1.094735367675113
  0
VERTEX
  5
20E
  8
PROFILEEDGES
 10
249.2153607593407
 20
136.6303295201669
 30
0.0
 40
1.094735367675113
 41
1.094735367675113
  0
SEQEND
  5
28E
  8
PROFILEEDGES
  0
POLYLINE
  5
10A
  8
PROFILEEDGES
 66
     1
 10
0.0
 20
0.0
 30
0.0
  0
VERTEX
  5
20F
  8
PROFILEEDGES
 10
134.9153607593407
 20
-168.1696704798331
 30
0.0
 40
1.094735367675113
 41
1.094735367675113
  0
VERTEX
  5
210
  8
PROFILEEDGES
 10
134.9153607593407
 20
136.6303295201669
 30
0.0
 40
1.094735367675113
 41
1.094735367675113
  0
SEQEND
  5
28F
  8
PROFILEEDGES
  0
LINE
  5
10B
  8
0
 10
192.0653607593407
 20
-178.3296704798331
 30
0.0
 11
192.0653607593407
 21
146.7903295201669
 31
0.0
  0
ENDSEC
  0
EOF
