  0
SECTION
  2
HEADER
  9
$ACADVER
  1
AC1009
  9
$DWGCODEPAGE
  3
ansi_1252
  9
$INSBASE
 10
0.0
 20
0.0
 30
0.0
  9
$EXTMIN
 10
1.000000000000000E+20
 20
1.000000000000000E+20
 30
1.000000000000000E+20
  9
$EXTMAX
 10
-1.000000000000000E+20
 20
-1.000000000000000E+20
 30
-1.000000000000000E+20
  9
$LIMMIN
 10
0.0
 20
0.0
  9
$LIMMAX
 10
12.0
 20
9.0
  9
$ORTHOMODE
 70
     0
  9
$REGENMODE
 70
     1
  9
$FILLMODE
 70
     1
  9
$QTEXTMODE
 70
     0
  9
$MIRRTEXT
 70
     1
  9
$DRAGMODE
 70
     2
  9
$LTSCALE
 40
1.0
  9
$OSMODE
 70
    37
  9
$ATTMODE
 70
     1
  9
$TEXTSIZE
 40
0.2
  9
$TRACEWID
 40
0.05
  9
$TEXTSTYLE
  7
STANDARD
  9
$CLAYER
  8
0
  9
$CELTYPE
  6
BYLAYER
  9
$CECOLOR
 62
   256
  9
$DIMSCALE
 40
1.0
  9
$DIMASZ
 40
0.18
  9
$DIMEXO
 40
0.0625
  9
$DIMDLI
 40
0.38
  9
$DIMRND
 40
0.0
  9
$DIMDLE
 40
0.0
  9
$DIMEXE
 40
0.18
  9
$DIMTP
 40
0.0
  9
$DIMTM
 40
0.0
  9
$DIMTXT
 40
0.18
  9
$DIMCEN
 40
0.09
  9
$DIMTSZ
 40
0.0
  9
$DIMTOL
 70
     0
  9
$DIMLIM
 70
     0
  9
$DIMTIH
 70
     1
  9
$DIMTOH
 70
     1
  9
$DIMSE1
 70
     0
  9
$DIMSE2
 70
     0
  9
$DIMTAD
 70
     0
  9
$DIMZIN
 70
     0
  9
$DIMBLK
  1

  9
$DIMASO
 70
     1
  9
$DIMSHO
 70
     1
  9
$DIMPOST
  1

  9
$DIMAPOST
  1

  9
$DIMALT
 70
     0
  9
$DIMALTD
 70
     2
  9
$DIMALTF
 40
25.4
  9
$DIMLFAC
 40
1.0
  9
$DIMTOFL
 70
     0
  9
$DIMTVP
 40
0.0
  9
$DIMTIX
 70
     0
  9
$DIMSOXD
 70
     0
  9
$DIMSAH
 70
     0
  9
$DIMBLK1
  1

  9
$DIMBLK2
  1

  9
$DIMSTYLE
  2
STANDARD
  9
$DIMCLRD
 70
     0
  9
$DIMCLRE
 70
     0
  9
$DIMCLRT
 70
     0
  9
$DIMTFAC
 40
1.0
  9
$DIMGAP
 40
0.09
  9
$LUNITS
 70
     2
  9
$LUPREC
 70
     4
  9
$SKETCHINC
 40
0.1
  9
$FILLETRAD
 40
0.0
  9
$AUNITS
 70
     0
  9
$AUPREC
 70
     0
  9
$MENU
  1
.
  9
$ELEVATION
 40
0.0
  9
$PELEVATION
 40
0.0
  9
$THICKNESS
 40
0.0
  9
$LIMCHECK
 70
     0
  9
$CHAMFERA
 40
0.0
  9
$CHAMFERB
 40
0.0
  9
$SKPOLY
 70
     0
  9
$TDCREATE
 40
2460273.357544225
  9
$TDUPDATE
 40
2460273.357544445
  9
$TDINDWG
 40
0.0000000116
  9
$TDUSRTIMER
 40
0.0000000116
  9
$USRTIMER
 70
     1
  9
$ANGBASE
 50
0.0
  9
$ANGDIR
 70
     0
  9
$PDMODE
 70
     0
  9
$PDSIZE
 40
0.0
  9
$PLINEWID
 40
0.0
  9
$COORDS
 70
     1
  9
$SPLFRAME
 70
     0
  9
$SPLINETYPE
 70
     6
  9
$SPLINESEGS
 70
     8
  9
$ATTDIA
 70
     0
  9
$ATTREQ
 70
     1
  9
$HANDLING
 70
     1
  9
$HANDSEED
  5
4ED
  9
$SURFTAB1
 70
     6
  9
$SURFTAB2
 70
     6
  9
$SURFTYPE
 70
     6
  9
$SURFU
 70
     6
  9
$SURFV
 70
     6
  9
$UCSNAME
  2

  9
$UCSORG
 10
0.0
 20
0.0
 30
0.0
  9
$UCSXDIR
 10
1.0
 20
0.0
 30
0.0
  9
$UCSYDIR
 10
0.0
 20
1.0
 30
0.0
  9
$PUCSNAME
  2

  9
$PUCSORG
 10
0.0
 20
0.0
 30
0.0
  9
$PUCSXDIR
 10
1.0
 20
0.0
 30
0.0
  9
$PUCSYDIR
 10
0.0
 20
1.0
 30
0.0
  9
$USERI1
 70
     0
  9
$USERI2
 70
     0
  9
$USERI3
 70
     0
  9
$USERI4
 70
     0
  9
$USERI5
 70
     0
  9
$USERR1
 40
0.0
  9
$USERR2
 40
0.0
  9
$USERR3
 40
0.0
  9
$USERR4
 40
0.0
  9
$USERR5
 40
0.0
  9
$WORLDVIEW
 70
     1
  9
$SHADEDGE
 70
     3
  9
$SHADEDIF
 70
    70
  9
$TILEMODE
 70
     1
  9
$MAXACTVP
 70
    64
  9
$PLIMCHECK
 70
     0
  9
$PEXTMIN
 10
1.000000000000000E+20
 20
1.000000000000000E+20
 30
1.000000000000000E+20
  9
$PEXTMAX
 10
-1.000000000000000E+20
 20
-1.000000000000000E+20
 30
-1.000000000000000E+20
  9
$PLIMMIN
 10
0.0
 20
0.0
  9
$PLIMMAX
 10
12.0
 20
9.0
  9
$UNITMODE
 70
     0
  9
$VISRETAIN
 70
     1
  9
$PLINEGEN
 70
     0
  9
$PSLTSCALE
 70
     1
  0
ENDSEC
  0
SECTION
  2
TABLES
  0
TABLE
  2
VPORT
 70
     1
  0
VPORT
  2
*ACTIVE
 70
     0
 10
0.0
 20
0.0
 11
1.0
 21
1.0
 12
0.0
 22
0.0
 13
0.0
 23
0.0
 14
0.5
 24
0.5
 15
0.5
 25
0.5
 16
0.0
 26
0.0
 36
1.0
 17
0.0
 27
0.0
 37
-1000.0
 40
338.1749119474622
 41
1.658454647256439
 42
50.0
 43
699.6025458003026
 44
1026.60177970792
 50
0.0
 51
0.0
 71
     0
 72
   100
 73
     1
 74
     3
 75
     0
 76
     0
 77
     0
 78
     0
  0
ENDTAB
  0
TABLE
  2
LTYPE
 70
     1
  0
LTYPE
  2
CONTINUOUS
 70
     0
  3
Solid line
 72
    65
 73
     0
 40
0.0
  0
ENDTAB
  0
TABLE
  2
LAYER
 70
     3
  0
LAYER
  2
0
 70
     0
 62
     7
  6
CONTINUOUS
  0
LAYER
  2
PROFILEEDGES
 70
     0
 62
     7
  6
CONTINUOUS
  0
LAYER
  2
SECTIONCUTEDGES
 70
     0
 62
     7
  6
CONTINUOUS
  0
ENDTAB
  0
TABLE
  2
STYLE
 70
     1
  0
STYLE
  2
STANDARD
 70
     0
 40
0.0
 41
1.0
 50
0.0
 71
     0
 42
0.2
  3
txt
  4

  0
ENDTAB
  0
TABLE
  2
VIEW
 70
     0
  0
ENDTAB
  0
TABLE
  2
UCS
 70
     0
  0
ENDTAB
  0
TABLE
  2
APPID
 70
     1
  0
APPID
  2
ACAD
 70
     0
  0
ENDTAB
  0
TABLE
  2
DIMSTYLE
 70
     1
  0
DIMSTYLE
  2
STANDARD
 70
     0
  3

  4

  5

  6

  7

 40
1.0
 41
0.18
 42
0.0625
 43
0.38
 44
0.18
 45
0.0
 46
0.0
 47
0.0
 48
0.0
140
0.18
141
0.09
142
0.0
143
25.4
144
1.0
145
0.0
146
1.0
147
0.09
 71
     0
 72
     0
 73
     1
 74
     1
 75
     0
 76
     0
 77
     0
 78
     0
170
     0
171
     2
172
     0
173
     0
174
     0
175
     0
176
     0
177
     0
178
     0
  0
ENDTAB
  0
ENDSEC
  0
SECTION
  2
BLOCKS
  0
BLOCK
  8
0
  2
$MODEL_SPACE
 70
     0
 10
0.0
 20
0.0
 30
0.0
  3
$MODEL_SPACE
  1

  0
ENDBLK
  5
21
  8
0
  0
BLOCK
 67
     1
  8
0
  2
$PAPER_SPACE
 70
     0
 10
0.0
 20
0.0
 30
0.0
  3
$PAPER_SPACE
  1

  0
ENDBLK
  5
1D
 67
     1
  8
0
  0
ENDSEC
  0
SECTION
  2
ENTITIES
  0
POLYLINE
  5
60
  8
PROFILEEDGES
 66
     1
 10
0.0
 20
0.0
 30
0.0
  0
VERTEX
  5
1CF
  8
PROFILEEDGES
 10
88.82776442836295
 20
-5.851722695152402
 30
0.0
 40
0.7573906202630731
 41
0.7573906202630731
  0
VERTEX
  5
1D0
  8
PROFILEEDGES
 10
87.34236272116637
 20
13.02209551195147
 30
0.0
 40
0.7573906202630731
 41
0.7573906202630731
  0
SEQEND
  5
3E3
  8
PROFILEEDGES
  0
POLYLINE
  5
61
  8
PROFILEEDGES
 66
     1
 10
0.0
 20
0.0
 30
0.0
  0
VERTEX
  5
1D1
  8
PROFILEEDGES
 10
87.34236272116637
 20
13.02209551195147
 30
0.0
 40
0.7573906202630731
 41
0.7573906202630731
  0
VERTEX
  5
1D2
  8
PROFILEEDGES
 10
82.92273311937325
 20
31.43117767618501
 30
0.0
 40
0.7573906202630731
 41
0.7573906202630731
  0
SEQEND
  5
3E4
  8
PROFILEEDGES
  0
LINE
  5
62
  8
0
 10
-20.59691542030069
 20
52.77295715351113
 30
0.0
 11
-18.97909078593486
 21
54.66718642470457
 31
0.0
  0
LINE
  5
63
  8
0
 10
-16.14268316468921
 20
61.51488017233391
 30
0.0
 11
-15.94723557163704
 21
63.99827730484759
 31
0.0
  0
LINE
  5
64
  8
0
 10
-16.72421337545156
 20
68.90392209054988
 30
0.0
 11
-17.67750700014671
 21
71.20537648821289
 31
0.0
  0
LINE
  5
65
  8
0
 10
-22.49114469149401
 20
76.84142209054986
 30
0.0
 11
-24.61513638827182
 21
78.14300587633792
 31
0.0
  0
LINE
  5
66
  8
0
 10
-24.61513638827182
 20
78.14300587633792
 30
0.0
 11
-26.91659078593486
 21
79.09629950103316
 31
0.0
  0
LINE
  5
67
  8
0
 10
-16.72421337545156
 20
59.09263251914528
 30
0.0
 11
-16.14268316468921
 21
61.51488017233391
 31
0.0
  0
LINE
  5
68
  8
0
 10
-22.49114469149401
 20
51.15513251914528
 30
0.0
 11
-20.59691542030069
 21
52.77295715351113
 31
0.0
  0
LINE
  5
69
  8
0
 10
-17.67750700014671
 20
56.79117812148227
 30
0.0
 11
-16.72421337545156
 21
59.09263251914528
 31
0.0
  0
LINE
  5
6A
  8
0
 10
-18.97909078593486
 20
54.66718642470457
 30
0.0
 11
-17.67750700014671
 21
56.79117812148227
 31
0.0
  0
LINE
  5
6B
  8
0
 10
-15.94723557163704
 20
63.99827730484759
 30
0.0
 11
-16.14268316468921
 21
66.48167443736125
 31
0.0
  0
LINE
  5
6C
  8
0
 10
-16.14268316468921
 20
66.48167443736125
 30
0.0
 11
-16.72421337545156
 21
68.90392209054988
 31
0.0
  0
LINE
  5
6D
  8
0
 10
-26.91659078593486
 20
48.90025510866199
 30
0.0
 11
-24.61513638827182
 21
49.85354873335722
 31
0.0
  0
LINE
  5
6E
  8
0
 10
-24.61513638827182
 20
49.85354873335722
 30
0.0
 11
-22.49114469149401
 21
51.15513251914528
 31
0.0
  0
POLYLINE
  5
6F
  8
PROFILEEDGES
 66
     1
 10
0.0
 20
0.0
 30
0.0
  0
VERTEX
  5
1D3
  8
PROFILEEDGES
 10
-24.46697671446216
 20
60.25058572949762
 30
0.0
 40
0.7573906202630731
 41
0.7573906202630731
  0
VERTEX
  5
1D4
  8
PROFILEEDGES
 10
-23.97126402962056
 20
61.44734201628238
 30
0.0
 40
0.7573906202630731
 41
0.7573906202630731
  0
SEQEND
  5
3E5
  8
PROFILEEDGES
  0
LINE
  5
70
  8
0
 10
-17.67750700014671
 20
71.20537648821289
 30
0.0
 11
-18.97909078593486
 21
73.32936818499061
 31
0.0
  0
LINE
  5
71
  8
0
 10
-18.97909078593486
 20
73.32936818499061
 30
0.0
 11
-20.59691542030069
 21
75.22359745618404
 31
0.0
  0
LINE
  5
72
  8
0
 10
-20.59691542030069
 20
75.22359745618404
 30
0.0
 11
-22.49114469149401
 21
76.84142209054986
 31
0.0
  0
POLYLINE
  5
73
  8
PROFILEEDGES
 66
     1
 10
0.0
 20
0.0
 30
0.0
  0
VERTEX
  5
1D5
  8
PROFILEEDGES
 10
-23.97126402962056
 20
66.54921259341276
 30
0.0
 40
0.7573906202630731
 41
0.7573906202630731
  0
VERTEX
  5
1D6
  8
PROFILEEDGES
 10
-24.46697671446216
 20
67.74596888019754
 30
0.0
 40
0.7573906202630731
 41
0.7573906202630731
  0
SEQEND
  5
3E6
  8
PROFILEEDGES
  0
POLYLINE
  5
74
  8
PROFILEEDGES
 66
     1
 10
0.0
 20
0.0
 30
0.0
  0
VERTEX
  5
1D7
  8
PROFILEEDGES
 10
-26.97006831396272
 20
70.67671259341277
 30
0.0
 40
0.7573906202630731
 41
0.7573906202630731
  0
VERTEX
  5
1D8
  8
PROFILEEDGES
 10
-28.07454399628713
 20
71.35353616202256
 30
0.0
 40
0.7573906202630731
 41
0.7573906202630731
  0
SEQEND
  5
3E7
  8
PROFILEEDGES
  0
POLYLINE
  5
75
  8
PROFILEEDGES
 66
     1
 10
0.0
 20
0.0
 30
0.0
  0
VERTEX
  5
1D9
  8
PROFILEEDGES
 10
10.19896487898303
 20
-12.50722701028904
 30
0.0
 40
0.7573906202630731
 41
0.7573906202630731
  0
VERTEX
  5
1DA
  8
PROFILEEDGES
 10
10.72276442836289
 20
-5.851722695152402
 30
0.0
 40
0.7573906202630731
 41
0.7573906202630731
  0
SEQEND
  5
3E8
  8
PROFILEEDGES
  0
LINE
  5
76
  8
0
 10
-29.3388384391234
 20
79.67782971179543
 30
0.0
 11
-31.82223557163704
 21
79.87327730484759
 31
0.0
  0
POLYLINE
  5
77
  8
PROFILEEDGES
 66
     1
 10
0.0
 20
0.0
 30
0.0
  0
VERTEX
  5
1DB
  8
PROFILEEDGES
 10
-12.50720976021815
 20
32.05614987644172
 30
0.0
 40
0.7573906202630731
 41
0.7573906202630731
  0
VERTEX
  5
1DC
  8
PROFILEEDGES
 10
-18.67510754595497
 20
34.61097679062492
 30
0.0
 40
0.7573906202630731
 41
0.7573906202630731
  0
SEQEND
  5
3E9
  8
PROFILEEDGES
  0
POLYLINE
  5
78
  8
PROFILEEDGES
 66
     1
 10
0.0
 20
0.0
 30
0.0
  0
VERTEX
  5
1DD
  8
PROFILEEDGES
 10
-38.4777398867738
 20
36.16947775546775
 30
0.0
 40
0.7573906202630731
 41
0.7573906202630731
  0
VERTEX
  5
1DE
  8
PROFILEEDGES
 10
-44.96936359731928
 20
34.61097679062492
 30
0.0
 40
0.7573906202630731
 41
0.7573906202630731
  0
SEQEND
  5
3EA
  8
PROFILEEDGES
  0
POLYLINE
  5
79
  8
PROFILEEDGES
 66
     1
 10
0.0
 20
0.0
 30
0.0
  0
VERTEX
  5
1DF
  8
PROFILEEDGES
 10
-1.738377566055455
 20
24.23213531042927
 30
0.0
 40
0.7573906202630731
 41
0.7573906202630731
  0
VERTEX
  5
1E0
  8
PROFILEEDGES
 10
-6.814912012853886
 20
28.56790533052974
 30
0.0
 40
0.7573906202630731
 41
0.7573906202630731
  0
SEQEND
  5
3EB
  8
PROFILEEDGES
  0
POLYLINE
  5
7A
  8
PROFILEEDGES
 66
     1
 10
0.0
 20
0.0
 30
0.0
  0
VERTEX
  5
1E1
  8
PROFILEEDGES
 10
-44.96936359731928
 20
34.61097679062492
 30
0.0
 40
0.7573906202630731
 41
0.7573906202630731
  0
VERTEX
  5
1E2
  8
PROFILEEDGES
 10
-51.13726138305611
 20
32.05614987644172
 30
0.0
 40
0.7573906202630731
 41
0.7573906202630731
  0
SEQEND
  5
3EC
  8
PROFILEEDGES
  0
POLYLINE
  5
7B
  8
PROFILEEDGES
 66
     1
 10
0.0
 20
0.0
 30
0.0
  0
VERTEX
  5
1E3
  8
PROFILEEDGES
 10
-56.82955913042036
 20
28.56790533052974
 30
0.0
 40
0.7573906202630731
 41
0.7573906202630731
  0
VERTEX
  5
1E4
  8
PROFILEEDGES
 10
-61.9060935772188
 20
24.23213531042927
 30
0.0
 40
0.7573906202630731
 41
0.7573906202630731
  0
SEQEND
  5
3ED
  8
PROFILEEDGES
  0
POLYLINE
  5
7C
  8
PROFILEEDGES
 66
     1
 10
0.0
 20
0.0
 30
0.0
  0
VERTEX
  5
1E5
  8
PROFILEEDGES
 10
-61.9060935772188
 20
24.23213531042927
 30
0.0
 40
0.7573906202630731
 41
0.7573906202630731
  0
VERTEX
  5
1E6
  8
PROFILEEDGES
 10
-66.24186359731925
 20
19.15560086363086
 30
0.0
 40
0.7573906202630731
 41
0.7573906202630731
  0
SEQEND
  5
3EE
  8
PROFILEEDGES
  0
POLYLINE
  5
7D
  8
PROFILEEDGES
 66
     1
 10
0.0
 20
0.0
 30
0.0
  0
VERTEX
  5
1E7
  8
PROFILEEDGES
 10
-69.73010814323118
 20
13.46330311626662
 30
0.0
 40
0.7573906202630731
 41
0.7573906202630731
  0
VERTEX
  5
1E8
  8
PROFILEEDGES
 10
-72.28493505741436
 20
7.295405330529732
 30
0.0
 40
0.7573906202630731
 41
0.7573906202630731
  0
SEQEND
  5
3EF
  8
PROFILEEDGES
  0
POLYLINE
  5
7E
  8
PROFILEEDGES
 66
     1
 10
0.0
 20
0.0
 30
0.0
  0
VERTEX
  5
1E9
  8
PROFILEEDGES
 10
-25.16673125650045
 20
-47.87292314577255
 30
0.0
 40
0.7573906202630731
 41
0.7573906202630731
  0
VERTEX
  5
1EA
  8
PROFILEEDGES
 10
-18.67510754595497
 20
-46.31442218092972
 30
0.0
 40
0.7573906202630731
 41
0.7573906202630731
  0
SEQEND
  5
3F0
  8
PROFILEEDGES
  0
POLYLINE
  5
7F
  8
PROFILEEDGES
 66
     1
 10
0.0
 20
0.0
 30
0.0
  0
VERTEX
  5
1EB
  8
PROFILEEDGES
 10
-6.814912012853886
 20
-40.27135072083455
 30
0.0
 40
0.7573906202630731
 41
0.7573906202630731
  0
VERTEX
  5
1EC
  8
PROFILEEDGES
 10
-1.738377566055456
 20
-35.93558070073407
 30
0.0
 40
0.7573906202630731
 41
0.7573906202630731
  0
SEQEND
  5
3F1
  8
PROFILEEDGES
  0
POLYLINE
  5
80
  8
PROFILEEDGES
 66
     1
 10
0.0
 20
0.0
 30
0.0
  0
VERTEX
  5
1ED
  8
PROFILEEDGES
 10
-31.82223557163704
 20
36.69327730484761
 30
0.0
 40
0.7573906202630731
 41
0.7573906202630731
  0
VERTEX
  5
1EE
  8
PROFILEEDGES
 10
-38.4777398867738
 20
36.16947775546775
 30
0.0
 40
0.7573906202630731
 41
0.7573906202630731
  0
SEQEND
  5
3F2
  8
PROFILEEDGES
  0
POLYLINE
  5
81
  8
PROFILEEDGES
 66
     1
 10
0.0
 20
0.0
 30
0.0
  0
VERTEX
  5
1EF
  8
PROFILEEDGES
 10
2.597392454044994
 20
19.15560086363088
 30
0.0
 40
0.7573906202630731
 41
0.7573906202630731
  0
VERTEX
  5
1F0
  8
PROFILEEDGES
 10
-1.738377566055455
 20
24.23213531042927
 30
0.0
 40
0.7573906202630731
 41
0.7573906202630731
  0
SEQEND
  5
3F3
  8
PROFILEEDGES
  0
POLYLINE
  5
82
  8
PROFILEEDGES
 66
     1
 10
0.0
 20
0.0
 30
0.0
  0
VERTEX
  5
1F1
  8
PROFILEEDGES
 10
-12.50720976021815
 20
-43.75959526674652
 30
0.0
 40
0.7573906202630731
 41
0.7573906202630731
  0
VERTEX
  5
1F2
  8
PROFILEEDGES
 10
-6.814912012853886
 20
-40.27135072083455
 30
0.0
 40
0.7573906202630731
 41
0.7573906202630731
  0
SEQEND
  5
3F4
  8
PROFILEEDGES
  0
POLYLINE
  5
83
  8
PROFILEEDGES
 66
     1
 10
0.0
 20
0.0
 30
0.0
  0
VERTEX
  5
1F3
  8
PROFILEEDGES
 10
-25.16673125650045
 20
36.16947775546775
 30
0.0
 40
0.7573906202630731
 41
0.7573906202630731
  0
VERTEX
  5
1F4
  8
PROFILEEDGES
 10
-31.82223557163704
 20
36.69327730484761
 30
0.0
 40
0.7573906202630731
 41
0.7573906202630731
  0
SEQEND
  5
3F5
  8
PROFILEEDGES
  0
LINE
  5
84
  8
0
 10
-26.91659078593486
 20
79.09629950103316
 30
0.0
 11
-29.3388384391234
 21
79.67782971179543
 31
0.0
  0
POLYLINE
  5
85
  8
PROFILEEDGES
 66
     1
 10
0.0
 20
0.0
 30
0.0
  0
VERTEX
  5
1F5
  8
PROFILEEDGES
 10
8.640463914140291
 20
-18.99885072083454
 30
0.0
 40
0.7573906202630731
 41
0.7573906202630731
  0
VERTEX
  5
1F6
  8
PROFILEEDGES
 10
10.19896487898303
 20
-12.50722701028904
 30
0.0
 40
0.7573906202630731
 41
0.7573906202630731
  0
SEQEND
  5
3F6
  8
PROFILEEDGES
  0
POLYLINE
  5
86
  8
PROFILEEDGES
 66
     1
 10
0.0
 20
0.0
 30
0.0
  0
VERTEX
  5
1F7
  8
PROFILEEDGES
 10
-6.814912012853886
 20
28.56790533052974
 30
0.0
 40
0.7573906202630731
 41
0.7573906202630731
  0
VERTEX
  5
1F8
  8
PROFILEEDGES
 10
-12.50720976021815
 20
32.05614987644172
 30
0.0
 40
0.7573906202630731
 41
0.7573906202630731
  0
SEQEND
  5
3F7
  8
PROFILEEDGES
  0
POLYLINE
  5
87
  8
PROFILEEDGES
 66
     1
 10
0.0
 20
0.0
 30
0.0
  0
VERTEX
  5
1F9
  8
PROFILEEDGES
 10
-30.53086906273006
 20
72.15164455646047
 30
0.0
 40
0.7573906202630731
 41
0.7573906202630731
  0
VERTEX
  5
1FA
  8
PROFILEEDGES
 10
-31.82223557163704
 20
72.25327730484757
 30
0.0
 40
0.7573906202630731
 41
0.7573906202630731
  0
SEQEND
  5
3F8
  8
PROFILEEDGES
  0
POLYLINE
  5
88
  8
PROFILEEDGES
 66
     1
 10
0.0
 20
0.0
 30
0.0
  0
VERTEX
  5
1FB
  8
PROFILEEDGES
 10
-1.738377566055456
 20
-35.93558070073407
 30
0.0
 40
0.7573906202630731
 41
0.7573906202630731
  0
VERTEX
  5
1FC
  8
PROFILEEDGES
 10
2.597392454044994
 20
-30.85904625393568
 30
0.0
 40
0.7573906202630731
 41
0.7573906202630731
  0
SEQEND
  5
3F9
  8
PROFILEEDGES
  0
POLYLINE
  5
89
  8
PROFILEEDGES
 66
     1
 10
0.0
 20
0.0
 30
0.0
  0
VERTEX
  5
1FD
  8
PROFILEEDGES
 10
6.085636999957101
 20
-25.16674850657143
 30
0.0
 40
0.7573906202630731
 41
0.7573906202630731
  0
VERTEX
  5
1FE
  8
PROFILEEDGES
 10
8.640463914140291
 20
-18.99885072083454
 30
0.0
 40
0.7573906202630731
 41
0.7573906202630731
  0
SEQEND
  5
3FA
  8
PROFILEEDGES
  0
POLYLINE
  5
8A
  8
PROFILEEDGES
 66
     1
 10
0.0
 20
0.0
 30
0.0
  0
VERTEX
  5
1FF
  8
PROFILEEDGES
 10
2.597392454044994
 20
-30.85904625393568
 30
0.0
 40
0.7573906202630731
 41
0.7573906202630731
  0
VERTEX
  5
200
  8
PROFILEEDGES
 10
6.085636999957101
 20
-25.16674850657143
 30
0.0
 40
0.7573906202630731
 41
0.7573906202630731
  0
SEQEND
  5
3FB
  8
PROFILEEDGES
  0
POLYLINE
  5
8B
  8
PROFILEEDGES
 66
     1
 10
0.0
 20
0.0
 30
0.0
  0
VERTEX
  5
201
  8
PROFILEEDGES
 10
10.72276442836289
 20
-5.851722695152402
 30
0.0
 40
0.7573906202630731
 41
0.7573906202630731
  0
VERTEX
  5
202
  8
PROFILEEDGES
 10
10.19896487898303
 20
0.8037816199842304
 30
0.0
 40
0.7573906202630731
 41
0.7573906202630731
  0
SEQEND
  5
3FC
  8
PROFILEEDGES
  0
POLYLINE
  5
8C
  8
PROFILEEDGES
 66
     1
 10
0.0
 20
0.0
 30
0.0
  0
VERTEX
  5
203
  8
PROFILEEDGES
 10
10.19896487898303
 20
0.8037816199842304
 30
0.0
 40
0.7573906202630731
 41
0.7573906202630731
  0
VERTEX
  5
204
  8
PROFILEEDGES
 10
8.640463914140291
 20
7.295405330529732
 30
0.0
 40
0.7573906202630731
 41
0.7573906202630731
  0
SEQEND
  5
3FD
  8
PROFILEEDGES
  0
POLYLINE
  5
8D
  8
PROFILEEDGES
 66
     1
 10
0.0
 20
0.0
 30
0.0
  0
VERTEX
  5
205
  8
PROFILEEDGES
 10
-18.67510754595497
 20
34.61097679062492
 30
0.0
 40
0.7573906202630731
 41
0.7573906202630731
  0
VERTEX
  5
206
  8
PROFILEEDGES
 10
-25.16673125650045
 20
36.16947775546775
 30
0.0
 40
0.7573906202630731
 41
0.7573906202630731
  0
SEQEND
  5
3FE
  8
PROFILEEDGES
  0
POLYLINE
  5
8E
  8
PROFILEEDGES
 66
     1
 10
0.0
 20
0.0
 30
0.0
  0
VERTEX
  5
207
  8
PROFILEEDGES
 10
-51.13726138305611
 20
32.05614987644172
 30
0.0
 40
0.7573906202630731
 41
0.7573906202630731
  0
VERTEX
  5
208
  8
PROFILEEDGES
 10
-56.82955913042036
 20
28.56790533052974
 30
0.0
 40
0.7573906202630731
 41
0.7573906202630731
  0
SEQEND
  5
3FF
  8
PROFILEEDGES
  0
LINE
  5
8F
  8
0
 10
-31.82223557163704
 20
72.25327730484757
 30
0.0
 11
-31.82223557163704
 21
79.87327730484759
 31
0.0
  0
POLYLINE
  5
90
  8
PROFILEEDGES
 66
     1
 10
0.0
 20
0.0
 30
0.0
  0
VERTEX
  5
209
  8
PROFILEEDGES
 10
-31.82223557163704
 20
-48.39672269515242
 30
0.0
 40
0.7573906202630731
 41
0.7573906202630731
  0
VERTEX
  5
20A
  8
PROFILEEDGES
 10
-25.16673125650045
 20
-47.87292314577255
 30
0.0
 40
0.7573906202630731
 41
0.7573906202630731
  0
SEQEND
  5
400
  8
PROFILEEDGES
  0
POLYLINE
  5
91
  8
PROFILEEDGES
 66
     1
 10
0.0
 20
0.0
 30
0.0
  0
VERTEX
  5
20B
  8
PROFILEEDGES
 10
-18.67510754595497
 20
-46.31442218092972
 30
0.0
 40
0.7573906202630731
 41
0.7573906202630731
  0
VERTEX
  5
20C
  8
PROFILEEDGES
 10
-12.50720976021815
 20
-43.75959526674652
 30
0.0
 40
0.7573906202630731
 41
0.7573906202630731
  0
SEQEND
  5
401
  8
PROFILEEDGES
  0
POLYLINE
  5
92
  8
PROFILEEDGES
 66
     1
 10
0.0
 20
0.0
 30
0.0
  0
VERTEX
  5
20D
  8
PROFILEEDGES
 10
-66.24186359731925
 20
19.15560086363086
 30
0.0
 40
0.7573906202630731
 41
0.7573906202630731
  0
VERTEX
  5
20E
  8
PROFILEEDGES
 10
-69.73010814323118
 20
13.46330311626662
 30
0.0
 40
0.7573906202630731
 41
0.7573906202630731
  0
SEQEND
  5
402
  8
PROFILEEDGES
  0
POLYLINE
  5
93
  8
PROFILEEDGES
 66
     1
 10
0.0
 20
0.0
 30
0.0
  0
VERTEX
  5
20F
  8
PROFILEEDGES
 10
8.640463914140291
 20
7.295405330529732
 30
0.0
 40
0.7573906202630731
 41
0.7573906202630731
  0
VERTEX
  5
210
  8
PROFILEEDGES
 10
6.085636999957101
 20
13.46330311626662
 30
0.0
 40
0.7573906202630731
 41
0.7573906202630731
  0
SEQEND
  5
403
  8
PROFILEEDGES
  0
POLYLINE
  5
94
  8
PROFILEEDGES
 66
     1
 10
0.0
 20
0.0
 30
0.0
  0
VERTEX
  5
211
  8
PROFILEEDGES
 10
6.085636999957101
 20
13.46330311626662
 30
0.0
 40
0.7573906202630731
 41
0.7573906202630731
  0
VERTEX
  5
212
  8
PROFILEEDGES
 10
2.597392454044994
 20
19.15560086363088
 30
0.0
 40
0.7573906202630731
 41
0.7573906202630731
  0
SEQEND
  5
404
  8
PROFILEEDGES
  0
LINE
  5
95
  8
0
 10
-34.30563270415067
 20
-91.38127510210022
 30
0.0
 11
-31.82223557163704
 21
-91.5767226951524
 31
0.0
  0
LINE
  5
96
  8
0
 10
-39.02933475500243
 20
-89.84645126664273
 30
0.0
 11
-36.72788035733939
 21
-90.79974489133797
 31
0.0
  0
LINE
  5
97
  8
0
 10
-31.82223557163704
 20
48.12327730484755
 30
0.0
 11
-29.3388384391234
 21
48.31872489789976
 31
0.0
  0
LINE
  5
98
  8
0
 10
-45.96696414312736
 20
71.20537648821289
 30
0.0
 11
-46.92025776782269
 21
68.90392209054986
 31
0.0
  0
LINE
  5
99
  8
0
 10
-41.15332645178006
 20
-88.54486748085469
 30
0.0
 11
-39.02933475500243
 21
-89.84645126664273
 31
0.0
  0
LINE
  5
9A
  8
0
 10
-43.04755572297357
 20
-86.92704284648885
 30
0.0
 11
-41.15332645178006
 21
-88.54486748085469
 31
0.0
  0
LINE
  5
9B
  8
0
 10
-45.96696414312736
 20
-82.9088218785177
 30
0.0
 11
-44.66538035733939
 21
-85.0328135752954
 31
0.0
  0
POLYLINE
  5
9C
  8
PROFILEEDGES
 66
     1
 10
0.0
 20
0.0
 30
0.0
  0
VERTEX
  5
213
  8
PROFILEEDGES
 10
-51.13726138305611
 20
-43.75959526674652
 30
0.0
 40
0.7573906202630731
 41
0.7573906202630731
  0
VERTEX
  5
214
  8
PROFILEEDGES
 10
-44.96936359731928
 20
-46.31442218092973
 30
0.0
 40
0.7573906202630731
 41
0.7573906202630731
  0
SEQEND
  5
405
  8
PROFILEEDGES
  0
LINE
  5
9D
  8
0
 10
-46.92025776782269
 20
68.90392209054986
 30
0.0
 11
-47.50178797858486
 21
66.48167443736124
 31
0.0
  0
LINE
  5
9E
  8
0
 10
-24.61513638827182
 20
-89.84645126664273
 30
0.0
 11
-22.49114469149401
 21
-88.54486748085469
 31
0.0
  0
LINE
  5
9F
  8
0
 10
-46.92025776782269
 20
-80.60736748085469
 30
0.0
 11
-45.96696414312736
 21
-82.9088218785177
 31
0.0
  0
LINE
  5
A0
  8
0
 10
-41.15332645178006
 20
76.84142209054986
 30
0.0
 11
-43.04755572297357
 21
75.22359745618404
 31
0.0
  0
LINE
  5
A1
  8
0
 10
-47.50178797858486
 20
-78.18511982766606
 30
0.0
 11
-46.92025776782269
 21
-80.60736748085469
 31
0.0
  0
LINE
  5
A2
  8
0
 10
-46.92025776782269
 20
-70.79607790945009
 30
0.0
 11
-47.50178797858486
 21
-73.21832556263871
 31
0.0
  0
LINE
  5
A3
  8
0
 10
-47.50178797858486
 20
-73.21832556263871
 30
0.0
 11
-47.69723557163704
 21
-75.70172269515238
 31
0.0
  0
POLYLINE
  5
A4
  8
PROFILEEDGES
 66
     1
 10
0.0
 20
0.0
 30
0.0
  0
VERTEX
  5
215
  8
PROFILEEDGES
 10
-72.28493505741436
 20
-18.99885072083456
 30
0.0
 40
0.7573906202630731
 41
0.7573906202630731
  0
VERTEX
  5
216
  8
PROFILEEDGES
 10
-69.73010814323118
 20
-25.16674850657143
 30
0.0
 40
0.7573906202630731
 41
0.7573906202630731
  0
SEQEND
  5
406
  8
PROFILEEDGES
  0
POLYLINE
  5
A5
  8
PROFILEEDGES
 66
     1
 10
0.0
 20
0.0
 30
0.0
  0
VERTEX
  5
217
  8
PROFILEEDGES
 10
-73.84343602225728
 20
0.8037816199842078
 30
0.0
 40
0.7573906202630731
 41
0.7573906202630731
  0
VERTEX
  5
218
  8
PROFILEEDGES
 10
-74.36723557163714
 20
-5.851722695152402
 30
0.0
 40
0.7573906202630731
 41
0.7573906202630731
  0
SEQEND
  5
407
  8
PROFILEEDGES
  0
LINE
  5
A6
  8
0
 10
-47.50178797858486
 20
61.51488017233391
 30
0.0
 11
-46.92025776782269
 21
59.09263251914528
 31
0.0
  0
LINE
  5
A7
  8
0
 10
-34.30563270415067
 20
48.31872489789976
 30
0.0
 11
-31.82223557163704
 21
48.12327730484755
 31
0.0
  0
LINE
  5
A8
  8
0
 10
-43.04755572297357
 20
75.22359745618404
 30
0.0
 11
-44.66538035733939
 21
73.3293681849906
 31
0.0
  0
POLYLINE
  5
A9
  8
PROFILEEDGES
 66
     1
 10
0.0
 20
0.0
 30
0.0
  0
VERTEX
  5
219
  8
PROFILEEDGES
 10
-38.47773988677363
 20
-47.87292314577255
 30
0.0
 40
0.7573906202630731
 41
0.7573906202630731
  0
VERTEX
  5
21A
  8
PROFILEEDGES
 10
-31.82223557163704
 20
-48.39672269515242
 30
0.0
 40
0.7573906202630731
 41
0.7573906202630731
  0
SEQEND
  5
408
  8
PROFILEEDGES
  0
POLYLINE
  5
AA
  8
PROFILEEDGES
 66
     1
 10
0.0
 20
0.0
 30
0.0
  0
VERTEX
  5
21B
  8
PROFILEEDGES
 10
-69.73010814323118
 20
-25.16674850657143
 30
0.0
 40
0.7573906202630731
 41
0.7573906202630731
  0
VERTEX
  5
21C
  8
PROFILEEDGES
 10
-66.24186359731925
 20
-30.85904625393569
 30
0.0
 40
0.7573906202630731
 41
0.7573906202630731
  0
SEQEND
  5
409
  8
PROFILEEDGES
  0
POLYLINE
  5
AB
  8
PROFILEEDGES
 66
     1
 10
0.0
 20
0.0
 30
0.0
  0
VERTEX
  5
21D
  8
PROFILEEDGES
 10
-73.84343602225728
 20
-12.50722701028904
 30
0.0
 40
0.7573906202630731
 41
0.7573906202630731
  0
VERTEX
  5
21E
  8
PROFILEEDGES
 10
-72.28493505741436
 20
-18.99885072083456
 30
0.0
 40
0.7573906202630731
 41
0.7573906202630731
  0
SEQEND
  5
40A
  8
PROFILEEDGES
  0
POLYLINE
  5
AC
  8
PROFILEEDGES
 66
     1
 10
0.0
 20
0.0
 30
0.0
  0
VERTEX
  5
21F
  8
PROFILEEDGES
 10
-61.9060935772188
 20
-35.93558070073407
 30
0.0
 40
0.7573906202630731
 41
0.7573906202630731
  0
VERTEX
  5
220
  8
PROFILEEDGES
 10
-56.82955913042036
 20
-40.27135072083455
 30
0.0
 40
0.7573906202630731
 41
0.7573906202630731
  0
SEQEND
  5
40B
  8
PROFILEEDGES
  0
LINE
  5
AD
  8
0
 10
-39.02933475500243
 20
49.85354873335722
 30
0.0
 11
-36.72788035733939
 21
48.90025510866199
 31
0.0
  0
POLYLINE
  5
AE
  8
PROFILEEDGES
 66
     1
 10
0.0
 20
0.0
 30
0.0
  0
VERTEX
  5
221
  8
PROFILEEDGES
 10
-74.36723557163714
 20
-5.851722695152402
 30
0.0
 40
0.7573906202630731
 41
0.7573906202630731
  0
VERTEX
  5
222
  8
PROFILEEDGES
 10
-73.84343602225728
 20
-12.50722701028904
 30
0.0
 40
0.7573906202630731
 41
0.7573906202630731
  0
SEQEND
  5
40C
  8
PROFILEEDGES
  0
LINE
  5
AF
  8
0
 10
-45.96696414312736
 20
56.79117812148227
 30
0.0
 11
-44.66538035733939
 21
54.66718642470457
 31
0.0
  0
LINE
  5
B0
  8
0
 10
-39.02933475500243
 20
78.14300587633792
 30
0.0
 11
-41.15332645178006
 21
76.84142209054986
 31
0.0
  0
LINE
  5
B1
  8
0
 10
-36.72788035733939
 20
79.09629950103316
 30
0.0
 11
-39.02933475500243
 21
78.14300587633792
 31
0.0
  0
LINE
  5
B2
  8
0
 10
-34.30563270415067
 20
79.67782971179543
 30
0.0
 11
-36.72788035733939
 21
79.09629950103316
 31
0.0
  0
LINE
  5
B3
  8
0
 10
-36.72788035733939
 20
-90.79974489133797
 30
0.0
 11
-34.30563270415067
 21
-91.38127510210022
 31
0.0
  0
LINE
  5
B4
  8
0
 10
-44.66538035733939
 20
-85.0328135752954
 30
0.0
 11
-43.04755572297357
 21
-86.92704284648885
 31
0.0
  0
LINE
  5
B5
  8
0
 10
-47.69723557163704
 20
-75.70172269515238
 30
0.0
 11
-47.50178797858486
 21
-78.18511982766606
 31
0.0
  0
LINE
  5
B6
  8
0
 10
-36.72788035733939
 20
48.90025510866199
 30
0.0
 11
-34.30563270415067
 21
48.31872489789976
 31
0.0
  0
LINE
  5
B7
  8
0
 10
-47.69723557163704
 20
63.99827730484759
 30
0.0
 11
-47.50178797858486
 21
61.51488017233391
 31
0.0
  0
LINE
  5
B8
  8
0
 10
-44.66538035733939
 20
54.66718642470457
 30
0.0
 11
-43.04755572297357
 21
52.77295715351111
 31
0.0
  0
LINE
  5
B9
  8
0
 10
-29.3388384391234
 20
-91.38127510210022
 30
0.0
 11
-26.91659078593486
 21
-90.79974489133797
 31
0.0
  0
POLYLINE
  5
BA
  8
PROFILEEDGES
 66
     1
 10
0.0
 20
0.0
 30
0.0
  0
VERTEX
  5
223
  8
PROFILEEDGES
 10
-72.28493505741436
 20
7.295405330529732
 30
0.0
 40
0.7573906202630731
 41
0.7573906202630731
  0
VERTEX
  5
224
  8
PROFILEEDGES
 10
-73.84343602225728
 20
0.8037816199842078
 30
0.0
 40
0.7573906202630731
 41
0.7573906202630731
  0
SEQEND
  5
40D
  8
PROFILEEDGES
  0
POLYLINE
  5
BB
  8
PROFILEEDGES
 66
     1
 10
0.0
 20
0.0
 30
0.0
  0
VERTEX
  5
225
  8
PROFILEEDGES
 10
-56.82955913042036
 20
-40.27135072083455
 30
0.0
 40
0.7573906202630731
 41
0.7573906202630731
  0
VERTEX
  5
226
  8
PROFILEEDGES
 10
-51.13726138305611
 20
-43.75959526674652
 30
0.0
 40
0.7573906202630731
 41
0.7573906202630731
  0
SEQEND
  5
40E
  8
PROFILEEDGES
  0
POLYLINE
  5
BC
  8
PROFILEEDGES
 66
     1
 10
0.0
 20
0.0
 30
0.0
  0
VERTEX
  5
227
  8
PROFILEEDGES
 10
-66.24186359731925
 20
-30.85904625393569
 30
0.0
 40
0.7573906202630731
 41
0.7573906202630731
  0
VERTEX
  5
228
  8
PROFILEEDGES
 10
-61.9060935772188
 20
-35.93558070073407
 30
0.0
 40
0.7573906202630731
 41
0.7573906202630731
  0
SEQEND
  5
40F
  8
PROFILEEDGES
  0
LINE
  5
BD
  8
0
 10
-47.50178797858486
 20
66.48167443736124
 30
0.0
 11
-47.69723557163704
 21
63.99827730484759
 31
0.0
  0
LINE
  5
BE
  8
0
 10
-44.66538035733939
 20
73.3293681849906
 30
0.0
 11
-45.96696414312736
 21
71.20537648821289
 31
0.0
  0
LINE
  5
BF
  8
0
 10
-41.15332645178006
 20
51.15513251914528
 30
0.0
 11
-39.02933475500243
 21
49.85354873335722
 31
0.0
  0
POLYLINE
  5
C0
  8
PROFILEEDGES
 66
     1
 10
0.0
 20
0.0
 30
0.0
  0
VERTEX
  5
229
  8
PROFILEEDGES
 10
-44.96936359731928
 20
-46.31442218092973
 30
0.0
 40
0.7573906202630731
 41
0.7573906202630731
  0
VERTEX
  5
22A
  8
PROFILEEDGES
 10
-38.47773988677363
 20
-47.87292314577255
 30
0.0
 40
0.7573906202630731
 41
0.7573906202630731
  0
SEQEND
  5
410
  8
PROFILEEDGES
  0
LINE
  5
C1
  8
0
 10
-46.92025776782269
 20
59.09263251914528
 30
0.0
 11
-45.96696414312736
 21
56.79117812148227
 31
0.0
  0
LINE
  5
C2
  8
0
 10
-31.82223557163704
 20
79.87327730484759
 30
0.0
 11
-34.30563270415067
 21
79.67782971179543
 31
0.0
  0
LINE
  5
C3
  8
0
 10
-26.91659078593486
 20
-90.79974489133797
 30
0.0
 11
-24.61513638827182
 21
-89.84645126664273
 31
0.0
  0
LINE
  5
C4
  8
0
 10
-43.04755572297357
 20
52.77295715351111
 30
0.0
 11
-41.15332645178006
 21
51.15513251914528
 31
0.0
  0
LINE
  5
C5
  8
0
 10
-31.82223557163704
 20
-91.5767226951524
 30
0.0
 11
-29.3388384391234
 21
-91.38127510210022
 31
0.0
  0
POLYLINE
  5
C6
  8
PROFILEEDGES
 66
     1
 10
0.0
 20
0.0
 30
0.0
  0
VERTEX
  5
22B
  8
PROFILEEDGES
 10
39.09405511744985
 20
-103.4596230664898
 30
0.0
 40
0.7573906202630731
 41
0.7573906202630731
  0
VERTEX
  5
22C
  8
PROFILEEDGES
 10
50.07507437691235
 20
-94.44773345856785
 30
0.0
 40
0.7573906202630731
 41
0.7573906202630731
  0
SEQEND
  5
411
  8
PROFILEEDGES
  0
LINE
  5
C7
  8
0
 10
-44.66538035733939
 20
-66.37063181500936
 30
0.0
 11
-45.96696414312736
 21
-68.49462351178707
 31
0.0
  0
LINE
  5
C8
  8
0
 10
-16.72421337545156
 20
-80.60736748085468
 30
0.0
 11
-16.14268316468921
 21
-78.18511982766604
 31
0.0
  0
LINE
  5
C9
  8
0
 10
-18.97909078593486
 20
-66.37063181500936
 30
0.0
 11
-20.59691542030069
 21
-64.47640254381592
 31
0.0
  0
POLYLINE
  5
CA
  8
PROFILEEDGES
 66
     1
 10
0.0
 20
0.0
 30
0.0
  0
VERTEX
  5
22D
  8
PROFILEEDGES
 10
5.460664799700288
 20
-120.5966913861627
 30
0.0
 40
0.7573906202630731
 41
0.7573906202630731
  0
VERTEX
  5
22E
  8
PROFILEEDGES
 10
22.95171822193928
 20
-113.351659838479
 30
0.0
 40
0.7573906202630731
 41
0.7573906202630731
  0
SEQEND
  5
412
  8
PROFILEEDGES
  0
LINE
  5
CB
  8
0
 10
-20.59691542030069
 20
-86.92704284648885
 30
0.0
 11
-18.97909078593486
 21
-85.0328135752954
 31
0.0
  0
LINE
  5
CC
  8
0
 10
-17.67750700014671
 20
-82.9088218785177
 30
0.0
 11
-16.72421337545156
 21
-80.60736748085468
 31
0.0
  0
LINE
  5
CD
  8
0
 10
-16.14268316468921
 20
-73.21832556263871
 30
0.0
 11
-16.72421337545156
 21
-70.79607790945009
 31
0.0
  0
POLYLINE
  5
CE
  8
PROFILEEDGES
 66
     1
 10
0.0
 20
0.0
 30
0.0
  0
VERTEX
  5
22F
  8
PROFILEEDGES
 10
81.37054910741065
 20
-47.61074563155191
 30
0.0
 40
0.7573906202630731
 41
0.7573906202630731
  0
VERTEX
  5
230
  8
PROFILEEDGES
 10
85.49419532434258
 20
-34.01690584436739
 30
0.0
 40
0.7573906202630731
 41
0.7573906202630731
  0
SEQEND
  5
413
  8
PROFILEEDGES
  0
LINE
  5
CF
  8
0
 10
-39.02933475500243
 20
-61.55699412366202
 30
0.0
 11
-41.15332645178006
 21
-62.85857790945008
 31
0.0
  0
LINE
  5
D0
  8
0
 10
-15.94723557163704
 20
-75.70172269515238
 30
0.0
 11
-16.14268316468921
 21
-73.21832556263871
 31
0.0
  0
POLYLINE
  5
D1
  8
PROFILEEDGES
 66
     1
 10
0.0
 20
0.0
 30
0.0
  0
VERTEX
  5
231
  8
PROFILEEDGES
 10
59.92074417800661
 20
-84.20762972618905
 30
0.0
 40
0.7573906202630731
 41
0.7573906202630731
  0
VERTEX
  5
232
  8
PROFILEEDGES
 10
68.49457315266503
 20
-72.88127130896738
 30
0.0
 40
0.7573906202630731
 41
0.7573906202630731
  0
SEQEND
  5
414
  8
PROFILEEDGES
  0
LINE
  5
D2
  8
0
 10
-22.49114469149401
 20
-62.85857790945008
 30
0.0
 11
-24.61513638827182
 21
-61.55699412366202
 31
0.0
  0
LINE
  5
D3
  8
0
 10
-43.04755572297357
 20
-64.47640254381594
 30
0.0
 11
-44.66538035733939
 21
-66.37063181500936
 31
0.0
  0
LINE
  5
D4
  8
0
 10
-17.67750700014671
 20
-68.49462351178707
 30
0.0
 11
-18.97909078593486
 21
-66.37063181500936
 31
0.0
  0
LINE
  5
D5
  8
0
 10
-18.97909078593486
 20
-85.0328135752954
 30
0.0
 11
-17.67750700014671
 21
-82.9088218785177
 31
0.0
  0
POLYLINE
  5
D6
  8
PROFILEEDGES
 66
     1
 10
0.0
 20
0.0
 30
0.0
  0
VERTEX
  5
233
  8
PROFILEEDGES
 10
68.49457315266503
 20
-72.88127130896738
 30
0.0
 40
0.7573906202630731
 41
0.7573906202630731
  0
VERTEX
  5
234
  8
PROFILEEDGES
 10
75.67770157168952
 20
-60.62567648872871
 30
0.0
 40
0.7573906202630731
 41
0.7573906202630731
  0
SEQEND
  5
415
  8
PROFILEEDGES
  0
LINE
  5
D7
  8
0
 10
-16.72421337545156
 20
-70.79607790945009
 30
0.0
 11
-17.67750700014671
 21
-68.49462351178707
 31
0.0
  0
POLYLINE
  5
D8
  8
PROFILEEDGES
 66
     1
 10
0.0
 20
0.0
 30
0.0
  0
VERTEX
  5
235
  8
PROFILEEDGES
 10
85.49419532434258
 20
-34.01690584436739
 30
0.0
 40
0.7573906202630731
 41
0.7573906202630731
  0
VERTEX
  5
236
  8
PROFILEEDGES
 10
87.99147375997481
 20
-20.0326096984405
 30
0.0
 40
0.7573906202630731
 41
0.7573906202630731
  0
SEQEND
  5
416
  8
PROFILEEDGES
  0
LINE
  5
D9
  8
0
 10
-34.30563270415067
 20
-60.02217028820456
 30
0.0
 11
-36.72788035733939
 21
-60.6037004989668
 31
0.0
  0
LINE
  5
DA
  8
0
 10
-16.14268316468921
 20
-78.18511982766604
 30
0.0
 11
-15.94723557163704
 21
-75.70172269515238
 31
0.0
  0
LINE
  5
DB
  8
0
 10
-24.61513638827182
 20
-61.55699412366202
 30
0.0
 11
-26.91659078593486
 21
-60.6037004989668
 31
0.0
  0
POLYLINE
  5
DC
  8
PROFILEEDGES
 66
     1
 10
0.0
 20
0.0
 30
0.0
  0
VERTEX
  5
237
  8
PROFILEEDGES
 10
87.99147375997481
 20
-20.0326096984405
 30
0.0
 40
0.7573906202630731
 41
0.7573906202630731
  0
VERTEX
  5
238
  8
PROFILEEDGES
 10
88.82776442836295
 20
-5.851722695152402
 30
0.0
 40
0.7573906202630731
 41
0.7573906202630731
  0
SEQEND
  5
417
  8
PROFILEEDGES
  0
LINE
  5
DD
  8
0
 10
-22.49114469149401
 20
-88.54486748085469
 30
0.0
 11
-20.59691542030069
 21
-86.92704284648885
 31
0.0
  0
LINE
  5
DE
  8
0
 10
-29.3388384391234
 20
-60.02217028820456
 30
0.0
 11
-31.82223557163704
 21
-59.82672269515236
 31
0.0
  0
LINE
  5
DF
  8
0
 10
-20.59691542030069
 20
-64.47640254381592
 30
0.0
 11
-22.49114469149401
 21
-62.85857790945008
 31
0.0
  0
LINE
  5
E0
  8
0
 10
-31.82223557163704
 20
-59.82672269515236
 30
0.0
 11
-34.30563270415067
 21
-60.02217028820456
 31
0.0
  0
POLYLINE
  5
E1
  8
PROFILEEDGES
 66
     1
 10
0.0
 20
0.0
 30
0.0
  0
VERTEX
  5
239
  8
PROFILEEDGES
 10
22.95171822193928
 20
-113.351659838479
 30
0.0
 40
0.7573906202630731
 41
0.7573906202630731
  0
VERTEX
  5
23A
  8
PROFILEEDGES
 10
39.09405511744985
 20
-103.4596230664898
 30
0.0
 40
0.7573906202630731
 41
0.7573906202630731
  0
SEQEND
  5
418
  8
PROFILEEDGES
  0
LINE
  5
E2
  8
0
 10
-45.96696414312736
 20
-68.49462351178707
 30
0.0
 11
-46.92025776782269
 21
-70.79607790945009
 31
0.0
  0
LINE
  5
E3
  8
0
 10
-41.15332645178006
 20
-62.85857790945008
 30
0.0
 11
-43.04755572297357
 21
-64.47640254381594
 31
0.0
  0
LINE
  5
E4
  8
0
 10
-26.91659078593486
 20
-60.6037004989668
 30
0.0
 11
-29.3388384391234
 21
-60.02217028820456
 31
0.0
  0
POLYLINE
  5
E5
  8
PROFILEEDGES
 66
     1
 10
0.0
 20
0.0
 30
0.0
  0
VERTEX
  5
23B
  8
PROFILEEDGES
 10
75.67770157168952
 20
-60.62567648872871
 30
0.0
 40
0.7573906202630731
 41
0.7573906202630731
  0
VERTEX
  5
23C
  8
PROFILEEDGES
 10
81.37054910741065
 20
-47.61074563155191
 30
0.0
 40
0.7573906202630731
 41
0.7573906202630731
  0
SEQEND
  5
419
  8
PROFILEEDGES
  0
LINE
  5
E6
  8
0
 10
-29.3388384391234
 20
48.31872489789976
 30
0.0
 11
-26.91659078593486
 21
48.90025510866199
 31
0.0
  0
POLYLINE
  5
E7
  8
PROFILEEDGES
 66
     1
 10
0.0
 20
0.0
 30
0.0
  0
VERTEX
  5
23D
  8
PROFILEEDGES
 10
50.07507437691235
 20
-94.44773345856785
 30
0.0
 40
0.7573906202630731
 41
0.7573906202630731
  0
VERTEX
  5
23E
  8
PROFILEEDGES
 10
59.92074417800661
 20
-84.20762972618905
 30
0.0
 40
0.7573906202630731
 41
0.7573906202630731
  0
SEQEND
  5
41A
  8
PROFILEEDGES
  0
LINE
  5
E8
  8
0
 10
-36.72788035733939
 20
-60.6037004989668
 30
0.0
 11
-39.02933475500243
 21
-61.55699412366202
 31
0.0
  0
POLYLINE
  5
E9
  8
PROFILEEDGES
 66
     1
 10
0.0
 20
0.0
 30
0.0
  0
VERTEX
  5
23F
  8
PROFILEEDGES
 10
-30.53086906273006
 20
55.84491005323473
 30
0.0
 40
0.7573906202630731
 41
0.7573906202630731
  0
VERTEX
  5
240
  8
PROFILEEDGES
 10
-31.82223557163704
 20
55.74327730484757
 30
0.0
 40
0.7573906202630731
 41
0.7573906202630731
  0
SEQEND
  5
41B
  8
PROFILEEDGES
  0
POLYLINE
  5
EA
  8
PROFILEEDGES
 66
     1
 10
0.0
 20
0.0
 30
0.0
  0
VERTEX
  5
241
  8
PROFILEEDGES
 10
-39.1774944288121
 20
67.74596888019754
 30
0.0
 40
0.7573906202630731
 41
0.7573906202630731
  0
VERTEX
  5
242
  8
PROFILEEDGES
 10
-39.67320711365351
 20
66.54921259341276
 30
0.0
 40
0.7573906202630731
 41
0.7573906202630731
  0
SEQEND
  5
41C
  8
PROFILEEDGES
  0
POLYLINE
  5
EB
  8
PROFILEEDGES
 66
     1
 10
0.0
 20
0.0
 30
0.0
  0
VERTEX
  5
243
  8
PROFILEEDGES
 10
-33.11360208054419
 20
72.15164455646047
 30
0.0
 40
0.7573906202630731
 41
0.7573906202630731
  0
VERTEX
  5
244
  8
PROFILEEDGES
 10
-31.82223557163704
 20
72.25327730484757
 30
0.0
 40
0.7573906202630731
 41
0.7573906202630731
  0
SEQEND
  5
41D
  8
PROFILEEDGES
  0
POLYLINE
  5
EC
  8
PROFILEEDGES
 66
     1
 10
0.0
 20
0.0
 30
0.0
  0
VERTEX
  5
245
  8
PROFILEEDGES
 10
-39.67320711365351
 20
61.44734201628238
 30
0.0
 40
0.7573906202630731
 41
0.7573906202630731
  0
VERTEX
  5
246
  8
PROFILEEDGES
 10
-39.1774944288121
 20
60.25058572949762
 30
0.0
 40
0.7573906202630731
 41
0.7573906202630731
  0
SEQEND
  5
41E
  8
PROFILEEDGES
  0
POLYLINE
  5
ED
  8
PROFILEEDGES
 66
     1
 10
0.0
 20
0.0
 30
0.0
  0
VERTEX
  5
247
  8
PROFILEEDGES
 10
-33.11360208054419
 20
55.84491005323473
 30
0.0
 40
0.7573906202630731
 41
0.7573906202630731
  0
VERTEX
  5
248
  8
PROFILEEDGES
 10
-31.82223557163704
 20
55.74327730484757
 30
0.0
 40
0.7573906202630731
 41
0.7573906202630731
  0
SEQEND
  5
41F
  8
PROFILEEDGES
  0
POLYLINE
  5
EE
  8
PROFILEEDGES
 66
     1
 10
0.0
 20
0.0
 30
0.0
  0
VERTEX
  5
249
  8
PROFILEEDGES
 10
-39.1774944288121
 20
-71.95403111980242
 30
0.0
 40
0.7573906202630731
 41
0.7573906202630731
  0
VERTEX
  5
24A
  8
PROFILEEDGES
 10
-39.67320711365351
 20
-73.1507874065872
 30
0.0
 40
0.7573906202630731
 41
0.7573906202630731
  0
SEQEND
  5
420
  8
PROFILEEDGES
  0
POLYLINE
  5
EF
  8
PROFILEEDGES
 66
     1
 10
0.0
 20
0.0
 30
0.0
  0
VERTEX
  5
24B
  8
PROFILEEDGES
 10
-30.53086906273006
 20
-67.54835544353952
 30
0.0
 40
0.7573906202630731
 41
0.7573906202630731
  0
VERTEX
  5
24C
  8
PROFILEEDGES
 10
-31.82223557163704
 20
-67.44672269515239
 30
0.0
 40
0.7573906202630731
 41
0.7573906202630731
  0
SEQEND
  5
421
  8
PROFILEEDGES
  0
POLYLINE
  5
F0
  8
PROFILEEDGES
 66
     1
 10
0.0
 20
0.0
 30
0.0
  0
VERTEX
  5
24D
  8
PROFILEEDGES
 10
-31.82223557163704
 20
-67.44672269515239
 30
0.0
 40
0.7573906202630731
 41
0.7573906202630731
  0
VERTEX
  5
24E
  8
PROFILEEDGES
 10
-33.11360208054419
 20
-67.54835544353952
 30
0.0
 40
0.7573906202630731
 41
0.7573906202630731
  0
SEQEND
  5
422
  8
PROFILEEDGES
  0
POLYLINE
  5
F1
  8
PROFILEEDGES
 66
     1
 10
0.0
 20
0.0
 30
0.0
  0
VERTEX
  5
24F
  8
PROFILEEDGES
 10
-23.97126402962056
 20
-73.1507874065872
 30
0.0
 40
0.7573906202630731
 41
0.7573906202630731
  0
VERTEX
  5
250
  8
PROFILEEDGES
 10
-24.46697671446216
 20
-71.95403111980242
 30
0.0
 40
0.7573906202630731
 41
0.7573906202630731
  0
SEQEND
  5
423
  8
PROFILEEDGES
  0
POLYLINE
  5
F2
  8
PROFILEEDGES
 66
     1
 10
0.0
 20
0.0
 30
0.0
  0
VERTEX
  5
251
  8
PROFILEEDGES
 10
-24.46697671446216
 20
-79.44941427050234
 30
0.0
 40
0.7573906202630731
 41
0.7573906202630731
  0
VERTEX
  5
252
  8
PROFILEEDGES
 10
-23.97126402962056
 20
-78.25265798371757
 30
0.0
 40
0.7573906202630731
 41
0.7573906202630731
  0
SEQEND
  5
424
  8
PROFILEEDGES
  0
POLYLINE
  5
F3
  8
PROFILEEDGES
 66
     1
 10
0.0
 20
0.0
 30
0.0
  0
VERTEX
  5
253
  8
PROFILEEDGES
 10
-31.82223557163704
 20
-83.95672269515238
 30
0.0
 40
0.7573906202630731
 41
0.7573906202630731
  0
VERTEX
  5
254
  8
PROFILEEDGES
 10
-33.11360208054419
 20
-83.85508994676526
 30
0.0
 40
0.7573906202630731
 41
0.7573906202630731
  0
SEQEND
  5
425
  8
PROFILEEDGES
  0
POLYLINE
  5
F4
  8
PROFILEEDGES
 66
     1
 10
0.0
 20
0.0
 30
0.0
  0
VERTEX
  5
255
  8
PROFILEEDGES
 10
-31.82223557163704
 20
-83.95672269515238
 30
0.0
 40
0.7573906202630731
 41
0.7573906202630731
  0
VERTEX
  5
256
  8
PROFILEEDGES
 10
-30.53086906273006
 20
-83.85508994676526
 30
0.0
 40
0.7573906202630731
 41
0.7573906202630731
  0
SEQEND
  5
426
  8
PROFILEEDGES
  0
POLYLINE
  5
F5
  8
PROFILEEDGES
 66
     1
 10
0.0
 20
0.0
 30
0.0
  0
VERTEX
  5
257
  8
PROFILEEDGES
 10
-39.67320711365351
 20
-78.25265798371757
 30
0.0
 40
0.7573906202630731
 41
0.7573906202630731
  0
VERTEX
  5
258
  8
PROFILEEDGES
 10
-39.1774944288121
 20
-79.44941427050234
 30
0.0
 40
0.7573906202630731
 41
0.7573906202630731
  0
SEQEND
  5
427
  8
PROFILEEDGES
  0
LINE
  5
F6
  8
0
 10
-31.82223557163704
 20
-91.5767226951524
 30
0.0
 11
-31.82223557163704
 21
-83.95672269515238
 31
0.0
  0
POLYLINE
  5
F7
  8
PROFILEEDGES
 66
     1
 10
0.0
 20
0.0
 30
0.0
  0
VERTEX
  5
259
  8
PROFILEEDGES
 10
-36.67440282931153
 20
-82.38015798371757
 30
0.0
 40
0.7573906202630731
 41
0.7573906202630731
  0
VERTEX
  5
25A
  8
PROFILEEDGES
 10
-35.56992714698712
 20
-83.05698155232737
 30
0.0
 40
0.7573906202630731
 41
0.7573906202630731
  0
SEQEND
  5
428
  8
PROFILEEDGES
  0
POLYLINE
  5
F8
  8
PROFILEEDGES
 66
     1
 10
0.0
 20
0.0
 30
0.0
  0
VERTEX
  5
25B
  8
PROFILEEDGES
 10
-23.62140009712638
 20
-75.01349714484832
 30
0.0
 40
0.7573906202630731
 41
0.7573906202630731
  0
VERTEX
  5
25C
  8
PROFILEEDGES
 10
-23.60621617172887
 20
-76.19701818065694
 30
0.0
 40
0.7573906202630731
 41
0.7573906202630731
  0
SEQEND
  5
429
  8
PROFILEEDGES
  0
POLYLINE
  5
F9
  8
PROFILEEDGES
 66
     1
 10
0.0
 20
0.0
 30
0.0
  0
VERTEX
  5
25D
  8
PROFILEEDGES
 10
-26.72036499450678
 20
-21.5536657791854
 30
0.0
 40
0.7573906202630731
 41
0.7573906202630731
  0
VERTEX
  5
25E
  8
PROFILEEDGES
 10
-24.32685242093723
 20
-20.56224040950236
 30
0.0
 40
0.7573906202630731
 41
0.7573906202630731
  0
SEQEND
  5
42A
  8
PROFILEEDGES
  0
POLYLINE
  5
FA
  8
PROFILEEDGES
 66
     1
 10
0.0
 20
0.0
 30
0.0
  0
VERTEX
  5
25F
  8
PROFILEEDGES
 10
-28.70220849186249
 20
-83.31696869901475
 30
0.0
 40
0.7573906202630731
 41
0.7573906202630731
  0
VERTEX
  5
260
  8
PROFILEEDGES
 10
-29.87341732909687
 20
-83.69724975039955
 30
0.0
 40
0.7573906202630731
 41
0.7573906202630731
  0
SEQEND
  5
42B
  8
PROFILEEDGES
  0
POLYLINE
  5
FB
  8
PROFILEEDGES
 66
     1
 10
0.0
 20
0.0
 30
0.0
  0
VERTEX
  5
261
  8
PROFILEEDGES
 10
-29.23950255382291
 20
-22.15845719837814
 30
0.0
 40
0.7573906202630731
 41
0.7573906202630731
  0
VERTEX
  5
262
  8
PROFILEEDGES
 10
-26.72036499450678
 20
-21.5536657791854
 30
0.0
 40
0.7573906202630731
 41
0.7573906202630731
  0
SEQEND
  5
42C
  8
PROFILEEDGES
  0
POLYLINE
  5
FC
  8
PROFILEEDGES
 66
     1
 10
0.0
 20
0.0
 30
0.0
  0
VERTEX
  5
263
  8
PROFILEEDGES
 10
-24.80523789611544
 20
-80.00140635047342
 30
0.0
 40
0.7573906202630731
 41
0.7573906202630731
  0
VERTEX
  5
264
  8
PROFILEEDGES
 10
-25.48859540908712
 20
-80.95759317651938
 30
0.0
 40
0.7573906202630731
 41
0.7573906202630731
  0
SEQEND
  5
42D
  8
PROFILEEDGES
  0
POLYLINE
  5
FD
  8
PROFILEEDGES
 66
     1
 10
0.0
 20
0.0
 30
0.0
  0
VERTEX
  5
265
  8
PROFILEEDGES
 10
-31.82223557163704
 20
-22.36172269515241
 30
0.0
 40
0.7573906202630731
 41
0.7573906202630731
  0
VERTEX
  5
266
  8
PROFILEEDGES
 10
-29.23950255382291
 20
-22.15845719837814
 30
0.0
 40
0.7573906202630731
 41
0.7573906202630731
  0
SEQEND
  5
42E
  8
PROFILEEDGES
  0
POLYLINE
  5
FE
  8
PROFILEEDGES
 66
     1
 10
0.0
 20
0.0
 30
0.0
  0
VERTEX
  5
267
  8
PROFILEEDGES
 10
-22.11790105628841
 20
7.505147881977969
 30
0.0
 40
0.7573906202630731
 41
0.7573906202630731
  0
VERTEX
  5
268
  8
PROFILEEDGES
 10
-24.32685242093723
 20
8.858795019197554
 30
0.0
 40
0.7573906202630731
 41
0.7573906202630731
  0
SEQEND
  5
42F
  8
PROFILEEDGES
  0
POLYLINE
  5
FF
  8
PROFILEEDGES
 66
     1
 10
0.0
 20
0.0
 30
0.0
  0
VERTEX
  5
269
  8
PROFILEEDGES
 10
-26.72036499450678
 20
9.850220388880592
 30
0.0
 40
0.7573906202630731
 41
0.7573906202630731
  0
VERTEX
  5
26A
  8
PROFILEEDGES
 10
-29.23950255382291
 20
10.45501180807333
 30
0.0
 40
0.7573906202630731
 41
0.7573906202630731
  0
SEQEND
  5
430
  8
PROFILEEDGES
  0
POLYLINE
  5
100
  8
PROFILEEDGES
 66
     1
 10
0.0
 20
0.0
 30
0.0
  0
VERTEX
  5
26B
  8
PROFILEEDGES
 10
-41.52657008698585
 20
7.505147881977969
 30
0.0
 40
0.7573906202630731
 41
0.7573906202630731
  0
VERTEX
  5
26C
  8
PROFILEEDGES
 10
-43.49656852902696
 20
5.822610262237496
 30
0.0
 40
0.7573906202630731
 41
0.7573906202630731
  0
SEQEND
  5
431
  8
PROFILEEDGES
  0
POLYLINE
  5
101
  8
PROFILEEDGES
 66
     1
 10
0.0
 20
0.0
 30
0.0
  0
VERTEX
  5
26D
  8
PROFILEEDGES
 10
-34.40496858945135
 20
10.45501180807333
 30
0.0
 40
0.7573906202630731
 41
0.7573906202630731
  0
VERTEX
  5
26E
  8
PROFILEEDGES
 10
-36.92410614876747
 20
9.850220388880592
 30
0.0
 40
0.7573906202630731
 41
0.7573906202630731
  0
SEQEND
  5
432
  8
PROFILEEDGES
  0
POLYLINE
  5
102
  8
PROFILEEDGES
 66
     1
 10
0.0
 20
0.0
 30
0.0
  0
VERTEX
  5
26F
  8
PROFILEEDGES
 10
-39.31761872233702
 20
8.858795019197554
 30
0.0
 40
0.7573906202630731
 41
0.7573906202630731
  0
VERTEX
  5
270
  8
PROFILEEDGES
 10
-41.52657008698585
 20
7.505147881977969
 30
0.0
 40
0.7573906202630731
 41
0.7573906202630731
  0
SEQEND
  5
433
  8
PROFILEEDGES
  0
POLYLINE
  5
103
  8
PROFILEEDGES
 66
     1
 10
0.0
 20
0.0
 30
0.0
  0
VERTEX
  5
271
  8
PROFILEEDGES
 10
-24.32685242093723
 20
-20.56224040950236
 30
0.0
 40
0.7573906202630731
 41
0.7573906202630731
  0
VERTEX
  5
272
  8
PROFILEEDGES
 10
-22.11790105628841
 20
-19.2085932722828
 30
0.0
 40
0.7573906202630731
 41
0.7573906202630731
  0
SEQEND
  5
434
  8
PROFILEEDGES
  0
POLYLINE
  5
104
  8
PROFILEEDGES
 66
     1
 10
0.0
 20
0.0
 30
0.0
  0
VERTEX
  5
273
  8
PROFILEEDGES
 10
-17.1117178572871
 20
1.643660455547518
 30
0.0
 40
0.7573906202630731
 41
0.7573906202630731
  0
VERTEX
  5
274
  8
PROFILEEDGES
 10
-18.46536499450671
 20
3.852611820196342
 30
0.0
 40
0.7573906202630731
 41
0.7573906202630731
  0
SEQEND
  5
435
  8
PROFILEEDGES
  0
POLYLINE
  5
105
  8
PROFILEEDGES
 66
     1
 10
0.0
 20
0.0
 30
0.0
  0
VERTEX
  5
275
  8
PROFILEEDGES
 10
-29.23950255382291
 20
10.45501180807333
 30
0.0
 40
0.7573906202630731
 41
0.7573906202630731
  0
VERTEX
  5
276
  8
PROFILEEDGES
 10
-31.82223557163704
 20
10.6582773048476
 30
0.0
 40
0.7573906202630731
 41
0.7573906202630731
  0
SEQEND
  5
436
  8
PROFILEEDGES
  0
POLYLINE
  5
106
  8
PROFILEEDGES
 66
     1
 10
0.0
 20
0.0
 30
0.0
  0
VERTEX
  5
277
  8
PROFILEEDGES
 10
-16.12029248760409
 20
-10.95359327228279
 30
0.0
 40
0.7573906202630731
 41
0.7573906202630731
  0
VERTEX
  5
278
  8
PROFILEEDGES
 10
-15.5155010684113
 20
-8.434455712966624
 30
0.0
 40
0.7573906202630731
 41
0.7573906202630731
  0
SEQEND
  5
437
  8
PROFILEEDGES
  0
POLYLINE
  5
107
  8
PROFILEEDGES
 66
     1
 10
0.0
 20
0.0
 30
0.0
  0
VERTEX
  5
279
  8
PROFILEEDGES
 10
-20.14790261424712
 20
-17.5260556525423
 30
0.0
 40
0.7573906202630731
 41
0.7573906202630731
  0
VERTEX
  5
27A
  8
PROFILEEDGES
 10
-18.46536499450671
 20
-15.55605721050112
 30
0.0
 40
0.7573906202630731
 41
0.7573906202630731
  0
SEQEND
  5
438
  8
PROFILEEDGES
  0
POLYLINE
  5
108
  8
PROFILEEDGES
 66
     1
 10
0.0
 20
0.0
 30
0.0
  0
VERTEX
  5
27B
  8
PROFILEEDGES
 10
-15.31223557163707
 20
-5.851722695152402
 30
0.0
 40
0.7573906202630731
 41
0.7573906202630731
  0
VERTEX
  5
27C
  8
PROFILEEDGES
 10
-15.5155010684113
 20
-3.268989677338181
 30
0.0
 40
0.7573906202630731
 41
0.7573906202630731
  0
SEQEND
  5
439
  8
PROFILEEDGES
  0
POLYLINE
  5
109
  8
PROFILEEDGES
 66
     1
 10
0.0
 20
0.0
 30
0.0
  0
VERTEX
  5
27D
  8
PROFILEEDGES
 10
-17.1117178572871
 20
-13.34710584585232
 30
0.0
 40
0.7573906202630731
 41
0.7573906202630731
  0
VERTEX
  5
27E
  8
PROFILEEDGES
 10
-16.12029248760409
 20
-10.95359327228279
 30
0.0
 40
0.7573906202630731
 41
0.7573906202630731
  0
SEQEND
  5
43A
  8
PROFILEEDGES
  0
POLYLINE
  5
10A
  8
PROFILEEDGES
 66
     1
 10
0.0
 20
0.0
 30
0.0
  0
VERTEX
  5
27F
  8
PROFILEEDGES
 10
-24.32685242093723
 20
8.858795019197554
 30
0.0
 40
0.7573906202630731
 41
0.7573906202630731
  0
VERTEX
  5
280
  8
PROFILEEDGES
 10
-26.72036499450678
 20
9.850220388880592
 30
0.0
 40
0.7573906202630731
 41
0.7573906202630731
  0
SEQEND
  5
43B
  8
PROFILEEDGES
  0
POLYLINE
  5
10B
  8
PROFILEEDGES
 66
     1
 10
0.0
 20
0.0
 30
0.0
  0
VERTEX
  5
281
  8
PROFILEEDGES
 10
-18.46536499450671
 20
-15.55605721050112
 30
0.0
 40
0.7573906202630731
 41
0.7573906202630731
  0
VERTEX
  5
282
  8
PROFILEEDGES
 10
-17.1117178572871
 20
-13.34710584585232
 30
0.0
 40
0.7573906202630731
 41
0.7573906202630731
  0
SEQEND
  5
43C
  8
PROFILEEDGES
  0
POLYLINE
  5
10C
  8
PROFILEEDGES
 66
     1
 10
0.0
 20
0.0
 30
0.0
  0
VERTEX
  5
283
  8
PROFILEEDGES
 10
-18.46536499450671
 20
3.852611820196342
 30
0.0
 40
0.7573906202630731
 41
0.7573906202630731
  0
VERTEX
  5
284
  8
PROFILEEDGES
 10
-20.14790261424712
 20
5.822610262237496
 30
0.0
 40
0.7573906202630731
 41
0.7573906202630731
  0
SEQEND
  5
43D
  8
PROFILEEDGES
  0
POLYLINE
  5
10D
  8
PROFILEEDGES
 66
     1
 10
0.0
 20
0.0
 30
0.0
  0
VERTEX
  5
285
  8
PROFILEEDGES
 10
-16.12029248760409
 20
-0.7498521180220123
 30
0.0
 40
0.7573906202630731
 41
0.7573906202630731
  0
VERTEX
  5
286
  8
PROFILEEDGES
 10
-17.1117178572871
 20
1.643660455547518
 30
0.0
 40
0.7573906202630731
 41
0.7573906202630731
  0
SEQEND
  5
43E
  8
PROFILEEDGES
  0
POLYLINE
  5
10E
  8
PROFILEEDGES
 66
     1
 10
0.0
 20
0.0
 30
0.0
  0
VERTEX
  5
287
  8
PROFILEEDGES
 10
-15.5155010684113
 20
-3.268989677338181
 30
0.0
 40
0.7573906202630731
 41
0.7573906202630731
  0
VERTEX
  5
288
  8
PROFILEEDGES
 10
-16.12029248760409
 20
-0.7498521180220123
 30
0.0
 40
0.7573906202630731
 41
0.7573906202630731
  0
SEQEND
  5
43F
  8
PROFILEEDGES
  0
POLYLINE
  5
10F
  8
PROFILEEDGES
 66
     1
 10
0.0
 20
0.0
 30
0.0
  0
VERTEX
  5
289
  8
PROFILEEDGES
 10
-20.14790261424712
 20
5.822610262237496
 30
0.0
 40
0.7573906202630731
 41
0.7573906202630731
  0
VERTEX
  5
28A
  8
PROFILEEDGES
 10
-22.11790105628841
 20
7.505147881977969
 30
0.0
 40
0.7573906202630731
 41
0.7573906202630731
  0
SEQEND
  5
440
  8
PROFILEEDGES
  0
POLYLINE
  5
110
  8
PROFILEEDGES
 66
     1
 10
0.0
 20
0.0
 30
0.0
  0
VERTEX
  5
28B
  8
PROFILEEDGES
 10
-15.5155010684113
 20
-8.434455712966624
 30
0.0
 40
0.7573906202630731
 41
0.7573906202630731
  0
VERTEX
  5
28C
  8
PROFILEEDGES
 10
-15.31223557163707
 20
-5.851722695152402
 30
0.0
 40
0.7573906202630731
 41
0.7573906202630731
  0
SEQEND
  5
441
  8
PROFILEEDGES
  0
POLYLINE
  5
111
  8
PROFILEEDGES
 66
     1
 10
0.0
 20
0.0
 30
0.0
  0
VERTEX
  5
28D
  8
PROFILEEDGES
 10
-31.82223557163704
 20
10.6582773048476
 30
0.0
 40
0.7573906202630731
 41
0.7573906202630731
  0
VERTEX
  5
28E
  8
PROFILEEDGES
 10
-34.40496858945135
 20
10.45501180807333
 30
0.0
 40
0.7573906202630731
 41
0.7573906202630731
  0
SEQEND
  5
442
  8
PROFILEEDGES
  0
POLYLINE
  5
112
  8
PROFILEEDGES
 66
     1
 10
0.0
 20
0.0
 30
0.0
  0
VERTEX
  5
28F
  8
PROFILEEDGES
 10
-22.11790105628841
 20
-19.2085932722828
 30
0.0
 40
0.7573906202630731
 41
0.7573906202630731
  0
VERTEX
  5
290
  8
PROFILEEDGES
 10
-20.14790261424712
 20
-17.5260556525423
 30
0.0
 40
0.7573906202630731
 41
0.7573906202630731
  0
SEQEND
  5
443
  8
PROFILEEDGES
  0
POLYLINE
  5
113
  8
PROFILEEDGES
 66
     1
 10
0.0
 20
0.0
 30
0.0
  0
VERTEX
  5
291
  8
PROFILEEDGES
 10
-36.92410614876747
 20
9.850220388880592
 30
0.0
 40
0.7573906202630731
 41
0.7573906202630731
  0
VERTEX
  5
292
  8
PROFILEEDGES
 10
-39.31761872233702
 20
8.858795019197554
 30
0.0
 40
0.7573906202630731
 41
0.7573906202630731
  0
SEQEND
  5
444
  8
PROFILEEDGES
  0
POLYLINE
  5
114
  8
PROFILEEDGES
 66
     1
 10
0.0
 20
0.0
 30
0.0
  0
VERTEX
  5
293
  8
PROFILEEDGES
 10
-39.31761872233702
 20
-20.56224040950236
 30
0.0
 40
0.7573906202630731
 41
0.7573906202630731
  0
VERTEX
  5
294
  8
PROFILEEDGES
 10
-36.92410614876747
 20
-21.5536657791854
 30
0.0
 40
0.7573906202630731
 41
0.7573906202630731
  0
SEQEND
  5
445
  8
PROFILEEDGES
  0
POLYLINE
  5
115
  8
PROFILEEDGES
 66
     1
 10
0.0
 20
0.0
 30
0.0
  0
VERTEX
  5
295
  8
PROFILEEDGES
 10
-46.53275328598697
 20
1.643660455547518
 30
0.0
 40
0.7573906202630731
 41
0.7573906202630731
  0
VERTEX
  5
296
  8
PROFILEEDGES
 10
-47.52417865566999
 20
-0.7498521180220123
 30
0.0
 40
0.7573906202630731
 41
0.7573906202630731
  0
SEQEND
  5
446
  8
PROFILEEDGES
  0
POLYLINE
  5
116
  8
PROFILEEDGES
 66
     1
 10
0.0
 20
0.0
 30
0.0
  0
VERTEX
  5
297
  8
PROFILEEDGES
 10
-45.17910614876754
 20
3.852611820196319
 30
0.0
 40
0.7573906202630731
 41
0.7573906202630731
  0
VERTEX
  5
298
  8
PROFILEEDGES
 10
-46.53275328598697
 20
1.643660455547518
 30
0.0
 40
0.7573906202630731
 41
0.7573906202630731
  0
SEQEND
  5
447
  8
PROFILEEDGES
  0
POLYLINE
  5
117
  8
PROFILEEDGES
 66
     1
 10
0.0
 20
0.0
 30
0.0
  0
VERTEX
  5
299
  8
PROFILEEDGES
 10
-47.52417865566999
 20
-0.7498521180220123
 30
0.0
 40
0.7573906202630731
 41
0.7573906202630731
  0
VERTEX
  5
29A
  8
PROFILEEDGES
 10
-48.12897007486277
 20
-3.268989677338204
 30
0.0
 40
0.7573906202630731
 41
0.7573906202630731
  0
SEQEND
  5
448
  8
PROFILEEDGES
  0
POLYLINE
  5
118
  8
PROFILEEDGES
 66
     1
 10
0.0
 20
0.0
 30
0.0
  0
VERTEX
  5
29B
  8
PROFILEEDGES
 10
-43.49656852902696
 20
5.822610262237496
 30
0.0
 40
0.7573906202630731
 41
0.7573906202630731
  0
VERTEX
  5
29C
  8
PROFILEEDGES
 10
-45.17910614876754
 20
3.852611820196319
 30
0.0
 40
0.7573906202630731
 41
0.7573906202630731
  0
SEQEND
  5
449
  8
PROFILEEDGES
  0
POLYLINE
  5
119
  8
PROFILEEDGES
 66
     1
 10
0.0
 20
0.0
 30
0.0
  0
VERTEX
  5
29D
  8
PROFILEEDGES
 10
-48.12897007486277
 20
-8.434455712966624
 30
0.0
 40
0.7573906202630731
 41
0.7573906202630731
  0
VERTEX
  5
29E
  8
PROFILEEDGES
 10
-47.52417865566999
 20
-10.95359327228279
 30
0.0
 40
0.7573906202630731
 41
0.7573906202630731
  0
SEQEND
  5
44A
  8
PROFILEEDGES
  0
POLYLINE
  5
11A
  8
PROFILEEDGES
 66
     1
 10
0.0
 20
0.0
 30
0.0
  0
VERTEX
  5
29F
  8
PROFILEEDGES
 10
-48.12897007486277
 20
-3.268989677338204
 30
0.0
 40
0.7573906202630731
 41
0.7573906202630731
  0
VERTEX
  5
2A0
  8
PROFILEEDGES
 10
-48.332235571637
 20
-5.851722695152402
 30
0.0
 40
0.7573906202630731
 41
0.7573906202630731
  0
SEQEND
  5
44B
  8
PROFILEEDGES
  0
POLYLINE
  5
11B
  8
PROFILEEDGES
 66
     1
 10
0.0
 20
0.0
 30
0.0
  0
VERTEX
  5
2A1
  8
PROFILEEDGES
 10
-48.332235571637
 20
-5.851722695152402
 30
0.0
 40
0.7573906202630731
 41
0.7573906202630731
  0
VERTEX
  5
2A2
  8
PROFILEEDGES
 10
-48.12897007486277
 20
-8.434455712966624
 30
0.0
 40
0.7573906202630731
 41
0.7573906202630731
  0
SEQEND
  5
44C
  8
PROFILEEDGES
  0
POLYLINE
  5
11C
  8
PROFILEEDGES
 66
     1
 10
0.0
 20
0.0
 30
0.0
  0
VERTEX
  5
2A3
  8
PROFILEEDGES
 10
-45.17910614876754
 20
-15.55605721050115
 30
0.0
 40
0.7573906202630731
 41
0.7573906202630731
  0
VERTEX
  5
2A4
  8
PROFILEEDGES
 10
-43.49656852902696
 20
-17.5260556525423
 30
0.0
 40
0.7573906202630731
 41
0.7573906202630731
  0
SEQEND
  5
44D
  8
PROFILEEDGES
  0
POLYLINE
  5
11D
  8
PROFILEEDGES
 66
     1
 10
0.0
 20
0.0
 30
0.0
  0
VERTEX
  5
2A5
  8
PROFILEEDGES
 10
-41.52657008698585
 20
-19.2085932722828
 30
0.0
 40
0.7573906202630731
 41
0.7573906202630731
  0
VERTEX
  5
2A6
  8
PROFILEEDGES
 10
-39.31761872233702
 20
-20.56224040950236
 30
0.0
 40
0.7573906202630731
 41
0.7573906202630731
  0
SEQEND
  5
44E
  8
PROFILEEDGES
  0
POLYLINE
  5
11E
  8
PROFILEEDGES
 66
     1
 10
0.0
 20
0.0
 30
0.0
  0
VERTEX
  5
2A7
  8
PROFILEEDGES
 10
-36.92410614876747
 20
-21.5536657791854
 30
0.0
 40
0.7573906202630731
 41
0.7573906202630731
  0
VERTEX
  5
2A8
  8
PROFILEEDGES
 10
-34.40496858945135
 20
-22.15845719837814
 30
0.0
 40
0.7573906202630731
 41
0.7573906202630731
  0
SEQEND
  5
44F
  8
PROFILEEDGES
  0
POLYLINE
  5
11F
  8
PROFILEEDGES
 66
     1
 10
0.0
 20
0.0
 30
0.0
  0
VERTEX
  5
2A9
  8
PROFILEEDGES
 10
-34.40496858945135
 20
-22.15845719837814
 30
0.0
 40
0.7573906202630731
 41
0.7573906202630731
  0
VERTEX
  5
2AA
  8
PROFILEEDGES
 10
-31.82223557163704
 20
-22.36172269515241
 30
0.0
 40
0.7573906202630731
 41
0.7573906202630731
  0
SEQEND
  5
450
  8
PROFILEEDGES
  0
POLYLINE
  5
120
  8
PROFILEEDGES
 66
     1
 10
0.0
 20
0.0
 30
0.0
  0
VERTEX
  5
2AB
  8
PROFILEEDGES
 10
-46.53275328598697
 20
-13.34710584585232
 30
0.0
 40
0.7573906202630731
 41
0.7573906202630731
  0
VERTEX
  5
2AC
  8
PROFILEEDGES
 10
-45.17910614876754
 20
-15.55605721050115
 30
0.0
 40
0.7573906202630731
 41
0.7573906202630731
  0
SEQEND
  5
451
  8
PROFILEEDGES
  0
POLYLINE
  5
121
  8
PROFILEEDGES
 66
     1
 10
0.0
 20
0.0
 30
0.0
  0
VERTEX
  5
2AD
  8
PROFILEEDGES
 10
-47.52417865566999
 20
-10.95359327228279
 30
0.0
 40
0.7573906202630731
 41
0.7573906202630731
  0
VERTEX
  5
2AE
  8
PROFILEEDGES
 10
-46.53275328598697
 20
-13.34710584585232
 30
0.0
 40
0.7573906202630731
 41
0.7573906202630731
  0
SEQEND
  5
452
  8
PROFILEEDGES
  0
POLYLINE
  5
122
  8
PROFILEEDGES
 66
     1
 10
0.0
 20
0.0
 30
0.0
  0
VERTEX
  5
2AF
  8
PROFILEEDGES
 10
-43.49656852902696
 20
-17.5260556525423
 30
0.0
 40
0.7573906202630731
 41
0.7573906202630731
  0
VERTEX
  5
2B0
  8
PROFILEEDGES
 10
-41.52657008698585
 20
-19.2085932722828
 30
0.0
 40
0.7573906202630731
 41
0.7573906202630731
  0
SEQEND
  5
453
  8
PROFILEEDGES
  0
POLYLINE
  5
123
  8
PROFILEEDGES
 66
     1
 10
0.0
 20
0.0
 30
0.0
  0
VERTEX
  5
2B1
  8
PROFILEEDGES
 10
-25.48859540908713
 20
69.25414778621459
 30
0.0
 40
0.7573906202630731
 41
0.7573906202630731
  0
VERTEX
  5
2B2
  8
PROFILEEDGES
 10
-24.8052378961154
 20
68.29796096016854
 30
0.0
 40
0.7573906202630731
 41
0.7573906202630731
  0
SEQEND
  5
454
  8
PROFILEEDGES
  0
POLYLINE
  5
124
  8
PROFILEEDGES
 66
     1
 10
0.0
 20
0.0
 30
0.0
  0
VERTEX
  5
2B3
  8
PROFILEEDGES
 10
-23.60621617172887
 20
64.49357279035215
 30
0.0
 40
0.7573906202630731
 41
0.7573906202630731
  0
VERTEX
  5
2B4
  8
PROFILEEDGES
 10
-23.62140009712638
 20
63.31005175454352
 30
0.0
 40
0.7573906202630731
 41
0.7573906202630731
  0
SEQEND
  5
455
  8
PROFILEEDGES
  0
POLYLINE
  5
125
  8
PROFILEEDGES
 66
     1
 10
0.0
 20
0.0
 30
0.0
  0
VERTEX
  5
2B5
  8
PROFILEEDGES
 10
-29.87341732909694
 20
71.99380436009476
 30
0.0
 40
0.7573906202630731
 41
0.7573906202630731
  0
VERTEX
  5
2B6
  8
PROFILEEDGES
 10
-28.70220849186249
 20
71.61352330870996
 30
0.0
 40
0.7573906202630731
 41
0.7573906202630731
  0
SEQEND
  5
456
  8
PROFILEEDGES
  0
POLYLINE
  5
126
  8
PROFILEEDGES
 66
     1
 10
0.0
 20
0.0
 30
0.0
  0
VERTEX
  5
2B7
  8
PROFILEEDGES
 10
-86.59618936521335
 20
-113.351659838479
 30
0.0
 40
0.7573906202630731
 41
0.7573906202630731
  0
VERTEX
  5
2B8
  8
PROFILEEDGES
 10
-69.10513594297454
 20
-120.5966913861627
 30
0.0
 40
0.7573906202630731
 41
0.7573906202630731
  0
SEQEND
  5
457
  8
PROFILEEDGES
  0
POLYLINE
  5
127
  8
PROFILEEDGES
 66
     1
 10
0.0
 20
0.0
 30
0.0
  0
VERTEX
  5
2B9
  8
PROFILEEDGES
 10
-117.134668721794
 20
-91.16415584530938
 30
0.0
 40
0.7573906202630731
 41
0.7573906202630731
  0
VERTEX
  5
2BA
  8
PROFILEEDGES
 10
-102.7385262607239
 20
-103.4596230664898
 30
0.0
 40
0.7573906202630731
 41
0.7573906202630731
  0
SEQEND
  5
458
  8
PROFILEEDGES
  0
POLYLINE
  5
128
  8
PROFILEEDGES
 66
     1
 10
0.0
 20
0.0
 30
0.0
  0
VERTEX
  5
2BB
  8
PROFILEEDGES
 10
-102.7385262607239
 20
-103.4596230664898
 30
0.0
 40
0.7573906202630731
 41
0.7573906202630731
  0
VERTEX
  5
2BC
  8
PROFILEEDGES
 10
-86.59618936521335
 20
-113.351659838479
 30
0.0
 40
0.7573906202630731
 41
0.7573906202630731
  0
SEQEND
  5
459
  8
PROFILEEDGES
  0
POLYLINE
  5
129
  8
PROFILEEDGES
 66
     1
 10
0.0
 20
0.0
 30
0.0
  0
VERTEX
  5
2BD
  8
PROFILEEDGES
 10
-139.3221727149636
 20
-60.62567648872874
 30
0.0
 40
0.7573906202630731
 41
0.7573906202630731
  0
VERTEX
  5
2BE
  8
PROFILEEDGES
 10
-129.4301359429745
 20
-76.7680133842393
 30
0.0
 40
0.7573906202630731
 41
0.7573906202630731
  0
SEQEND
  5
45A
  8
PROFILEEDGES
  0
POLYLINE
  5
12A
  8
PROFILEEDGES
 66
     1
 10
0.0
 20
0.0
 30
0.0
  0
VERTEX
  5
2BF
  8
PROFILEEDGES
 10
-12.94841736453326
 20
-125.0163209879558
 30
0.0
 40
0.7573906202630731
 41
0.7573906202630731
  0
VERTEX
  5
2C0
  8
PROFILEEDGES
 10
5.460664799700288
 20
-120.5966913861627
 30
0.0
 40
0.7573906202630731
 41
0.7573906202630731
  0
SEQEND
  5
45B
  8
PROFILEEDGES
  0
POLYLINE
  5
12B
  8
PROFILEEDGES
 66
     1
 10
0.0
 20
0.0
 30
0.0
  0
VERTEX
  5
2C1
  8
PROFILEEDGES
 10
-69.10513594297454
 20
-120.5966913861627
 30
0.0
 40
0.7573906202630731
 41
0.7573906202630731
  0
VERTEX
  5
2C2
  8
PROFILEEDGES
 10
-50.696053778741
 20
-125.0163209879558
 30
0.0
 40
0.7573906202630731
 41
0.7573906202630731
  0
SEQEND
  5
45C
  8
PROFILEEDGES
  0
POLYLINE
  5
12C
  8
PROFILEEDGES
 66
     1
 10
0.0
 20
0.0
 30
0.0
  0
VERTEX
  5
2C3
  8
PROFILEEDGES
 10
-50.696053778741
 20
-125.0163209879558
 30
0.0
 40
0.7573906202630731
 41
0.7573906202630731
  0
VERTEX
  5
2C4
  8
PROFILEEDGES
 10
-31.82223557163704
 20
-126.5017226951524
 30
0.0
 40
0.7573906202630731
 41
0.7573906202630731
  0
SEQEND
  5
45D
  8
PROFILEEDGES
  0
POLYLINE
  5
12D
  8
PROFILEEDGES
 66
     1
 10
0.0
 20
0.0
 30
0.0
  0
VERTEX
  5
2C5
  8
PROFILEEDGES
 10
-31.82223557163704
 20
-126.5017226951524
 30
0.0
 40
0.7573906202630731
 41
0.7573906202630731
  0
VERTEX
  5
2C6
  8
PROFILEEDGES
 10
-12.94841736453326
 20
-125.0163209879558
 30
0.0
 40
0.7573906202630731
 41
0.7573906202630731
  0
SEQEND
  5
45E
  8
PROFILEEDGES
  0
POLYLINE
  5
12E
  8
PROFILEEDGES
 66
     1
 10
0.0
 20
0.0
 30
0.0
  0
VERTEX
  5
2C7
  8
PROFILEEDGES
 10
-129.4301359429745
 20
-76.7680133842393
 30
0.0
 40
0.7573906202630731
 41
0.7573906202630731
  0
VERTEX
  5
2C8
  8
PROFILEEDGES
 10
-117.134668721794
 20
-91.16415584530938
 30
0.0
 40
0.7573906202630731
 41
0.7573906202630731
  0
SEQEND
  5
45F
  8
PROFILEEDGES
  0
POLYLINE
  5
12F
  8
PROFILEEDGES
 66
     1
 10
0.0
 20
0.0
 30
0.0
  0
VERTEX
  5
2C9
  8
PROFILEEDGES
 10
-129.4301359429745
 20
65.06456799393446
 30
0.0
 40
0.7573906202630731
 41
0.7573906202630731
  0
VERTEX
  5
2CA
  8
PROFILEEDGES
 10
-139.3221727149636
 20
48.92223109842391
 30
0.0
 40
0.7573906202630731
 41
0.7573906202630731
  0
SEQEND
  5
460
  8
PROFILEEDGES
  0
POLYLINE
  5
130
  8
PROFILEEDGES
 66
     1
 10
0.0
 20
0.0
 30
0.0
  0
VERTEX
  5
2CB
  8
PROFILEEDGES
 10
-146.5672042626473
 20
31.43117767618499
 30
0.0
 40
0.7573906202630731
 41
0.7573906202630731
  0
VERTEX
  5
2CC
  8
PROFILEEDGES
 10
-150.9868338644404
 20
13.02209551195142
 30
0.0
 40
0.7573906202630731
 41
0.7573906202630731
  0
SEQEND
  5
461
  8
PROFILEEDGES
  0
POLYLINE
  5
131
  8
PROFILEEDGES
 66
     1
 10
0.0
 20
0.0
 30
0.0
  0
VERTEX
  5
2CD
  8
PROFILEEDGES
 10
-102.7385262607239
 20
91.756177676185
 30
0.0
 40
0.7573906202630731
 41
0.7573906202630731
  0
VERTEX
  5
2CE
  8
PROFILEEDGES
 10
-117.1346687217941
 20
79.46071045500452
 30
0.0
 40
0.7573906202630731
 41
0.7573906202630731
  0
SEQEND
  5
462
  8
PROFILEEDGES
  0
POLYLINE
  5
132
  8
PROFILEEDGES
 66
     1
 10
0.0
 20
0.0
 30
0.0
  0
VERTEX
  5
2CF
  8
PROFILEEDGES
 10
-139.3221727149636
 20
48.92223109842391
 30
0.0
 40
0.7573906202630731
 41
0.7573906202630731
  0
VERTEX
  5
2D0
  8
PROFILEEDGES
 10
-146.5672042626473
 20
31.43117767618499
 30
0.0
 40
0.7573906202630731
 41
0.7573906202630731
  0
SEQEND
  5
463
  8
PROFILEEDGES
  0
POLYLINE
  5
133
  8
PROFILEEDGES
 66
     1
 10
0.0
 20
0.0
 30
0.0
  0
VERTEX
  5
2D1
  8
PROFILEEDGES
 10
-69.10513594297454
 20
108.8932459958579
 30
0.0
 40
0.7573906202630731
 41
0.7573906202630731
  0
VERTEX
  5
2D2
  8
PROFILEEDGES
 10
-86.59618936521335
 20
101.6482144481742
 30
0.0
 40
0.7573906202630731
 41
0.7573906202630731
  0
SEQEND
  5
464
  8
PROFILEEDGES
  0
POLYLINE
  5
134
  8
PROFILEEDGES
 66
     1
 10
0.0
 20
0.0
 30
0.0
  0
VERTEX
  5
2D3
  8
PROFILEEDGES
 10
-117.1346687217941
 20
79.46071045500452
 30
0.0
 40
0.7573906202630731
 41
0.7573906202630731
  0
VERTEX
  5
2D4
  8
PROFILEEDGES
 10
-129.4301359429745
 20
65.06456799393446
 30
0.0
 40
0.7573906202630731
 41
0.7573906202630731
  0
SEQEND
  5
465
  8
PROFILEEDGES
  0
POLYLINE
  5
135
  8
PROFILEEDGES
 66
     1
 10
0.0
 20
0.0
 30
0.0
  0
VERTEX
  5
2D5
  8
PROFILEEDGES
 10
-31.82223557163704
 20
114.7982773048476
 30
0.0
 40
0.7573906202630731
 41
0.7573906202630731
  0
VERTEX
  5
2D6
  8
PROFILEEDGES
 10
-50.696053778741
 20
113.312875597651
 30
0.0
 40
0.7573906202630731
 41
0.7573906202630731
  0
SEQEND
  5
466
  8
PROFILEEDGES
  0
POLYLINE
  5
136
  8
PROFILEEDGES
 66
     1
 10
0.0
 20
0.0
 30
0.0
  0
VERTEX
  5
2D7
  8
PROFILEEDGES
 10
-50.696053778741
 20
113.312875597651
 30
0.0
 40
0.7573906202630731
 41
0.7573906202630731
  0
VERTEX
  5
2D8
  8
PROFILEEDGES
 10
-69.10513594297454
 20
108.8932459958579
 30
0.0
 40
0.7573906202630731
 41
0.7573906202630731
  0
SEQEND
  5
467
  8
PROFILEEDGES
  0
POLYLINE
  5
137
  8
PROFILEEDGES
 66
     1
 10
0.0
 20
0.0
 30
0.0
  0
VERTEX
  5
2D9
  8
PROFILEEDGES
 10
-152.472235571637
 20
-5.851722695152425
 30
0.0
 40
0.7573906202630731
 41
0.7573906202630731
  0
VERTEX
  5
2DA
  8
PROFILEEDGES
 10
-150.9868338644404
 20
-24.72554090225627
 30
0.0
 40
0.7573906202630731
 41
0.7573906202630731
  0
SEQEND
  5
468
  8
PROFILEEDGES
  0
POLYLINE
  5
138
  8
PROFILEEDGES
 66
     1
 10
0.0
 20
0.0
 30
0.0
  0
VERTEX
  5
2DB
  8
PROFILEEDGES
 10
-150.9868338644404
 20
13.02209551195142
 30
0.0
 40
0.7573906202630731
 41
0.7573906202630731
  0
VERTEX
  5
2DC
  8
PROFILEEDGES
 10
-152.472235571637
 20
-5.851722695152425
 30
0.0
 40
0.7573906202630731
 41
0.7573906202630731
  0
SEQEND
  5
469
  8
PROFILEEDGES
  0
POLYLINE
  5
139
  8
PROFILEEDGES
 66
     1
 10
0.0
 20
0.0
 30
0.0
  0
VERTEX
  5
2DD
  8
PROFILEEDGES
 10
5.460664799700288
 20
108.8932459958579
 30
0.0
 40
0.7573906202630731
 41
0.7573906202630731
  0
VERTEX
  5
2DE
  8
PROFILEEDGES
 10
-12.94841736453326
 20
113.312875597651
 30
0.0
 40
0.7573906202630731
 41
0.7573906202630731
  0
SEQEND
  5
46A
  8
PROFILEEDGES
  0
POLYLINE
  5
13A
  8
PROFILEEDGES
 66
     1
 10
0.0
 20
0.0
 30
0.0
  0
VERTEX
  5
2DF
  8
PROFILEEDGES
 10
-146.5672042626473
 20
-43.13462306648983
 30
0.0
 40
0.7573906202630731
 41
0.7573906202630731
  0
VERTEX
  5
2E0
  8
PROFILEEDGES
 10
-139.3221727149636
 20
-60.62567648872874
 30
0.0
 40
0.7573906202630731
 41
0.7573906202630731
  0
SEQEND
  5
46B
  8
PROFILEEDGES
  0
POLYLINE
  5
13B
  8
PROFILEEDGES
 66
     1
 10
0.0
 20
0.0
 30
0.0
  0
VERTEX
  5
2E1
  8
PROFILEEDGES
 10
-150.9868338644404
 20
-24.72554090225627
 30
0.0
 40
0.7573906202630731
 41
0.7573906202630731
  0
VERTEX
  5
2E2
  8
PROFILEEDGES
 10
-146.5672042626473
 20
-43.13462306648983
 30
0.0
 40
0.7573906202630731
 41
0.7573906202630731
  0
SEQEND
  5
46C
  8
PROFILEEDGES
  0
POLYLINE
  5
13C
  8
PROFILEEDGES
 66
     1
 10
0.0
 20
0.0
 30
0.0
  0
VERTEX
  5
2E3
  8
PROFILEEDGES
 10
-86.59618936521335
 20
101.6482144481742
 30
0.0
 40
0.7573906202630731
 41
0.7573906202630731
  0
VERTEX
  5
2E4
  8
PROFILEEDGES
 10
-102.7385262607239
 20
91.756177676185
 30
0.0
 40
0.7573906202630731
 41
0.7573906202630731
  0
SEQEND
  5
46D
  8
PROFILEEDGES
  0
POLYLINE
  5
13D
  8
PROFILEEDGES
 66
     1
 10
0.0
 20
0.0
 30
0.0
  0
VERTEX
  5
2E5
  8
PROFILEEDGES
 10
22.95171822193928
 20
101.6482144481742
 30
0.0
 40
0.7573906202630731
 41
0.7573906202630731
  0
VERTEX
  5
2E6
  8
PROFILEEDGES
 10
5.460664799700288
 20
108.8932459958579
 30
0.0
 40
0.7573906202630731
 41
0.7573906202630731
  0
SEQEND
  5
46E
  8
PROFILEEDGES
  0
POLYLINE
  5
13E
  8
PROFILEEDGES
 66
     1
 10
0.0
 20
0.0
 30
0.0
  0
VERTEX
  5
2E7
  8
PROFILEEDGES
 10
65.78566479970029
 20
65.06456799393449
 30
0.0
 40
0.7573906202630731
 41
0.7573906202630731
  0
VERTEX
  5
2E8
  8
PROFILEEDGES
 10
53.49019757851988
 20
79.46071045500456
 30
0.0
 40
0.7573906202630731
 41
0.7573906202630731
  0
SEQEND
  5
46F
  8
PROFILEEDGES
  0
POLYLINE
  5
13F
  8
PROFILEEDGES
 66
     1
 10
0.0
 20
0.0
 30
0.0
  0
VERTEX
  5
2E9
  8
PROFILEEDGES
 10
39.09405511744985
 20
91.756177676185
 30
0.0
 40
0.7573906202630731
 41
0.7573906202630731
  0
VERTEX
  5
2EA
  8
PROFILEEDGES
 10
22.95171822193928
 20
101.6482144481742
 30
0.0
 40
0.7573906202630731
 41
0.7573906202630731
  0
SEQEND
  5
470
  8
PROFILEEDGES
  0
POLYLINE
  5
140
  8
PROFILEEDGES
 66
     1
 10
0.0
 20
0.0
 30
0.0
  0
VERTEX
  5
2EB
  8
PROFILEEDGES
 10
75.67770157168952
 20
48.92223109842391
 30
0.0
 40
0.7573906202630731
 41
0.7573906202630731
  0
VERTEX
  5
2EC
  8
PROFILEEDGES
 10
65.78566479970029
 20
65.06456799393449
 30
0.0
 40
0.7573906202630731
 41
0.7573906202630731
  0
SEQEND
  5
471
  8
PROFILEEDGES
  0
POLYLINE
  5
141
  8
PROFILEEDGES
 66
     1
 10
0.0
 20
0.0
 30
0.0
  0
VERTEX
  5
2ED
  8
PROFILEEDGES
 10
-12.94841736453326
 20
113.312875597651
 30
0.0
 40
0.7573906202630731
 41
0.7573906202630731
  0
VERTEX
  5
2EE
  8
PROFILEEDGES
 10
-31.82223557163704
 20
114.7982773048476
 30
0.0
 40
0.7573906202630731
 41
0.7573906202630731
  0
SEQEND
  5
472
  8
PROFILEEDGES
  0
POLYLINE
  5
142
  8
PROFILEEDGES
 66
     1
 10
0.0
 20
0.0
 30
0.0
  0
VERTEX
  5
2EF
  8
PROFILEEDGES
 10
53.49019757851988
 20
79.46071045500456
 30
0.0
 40
0.7573906202630731
 41
0.7573906202630731
  0
VERTEX
  5
2F0
  8
PROFILEEDGES
 10
39.09405511744985
 20
91.756177676185
 30
0.0
 40
0.7573906202630731
 41
0.7573906202630731
  0
SEQEND
  5
473
  8
PROFILEEDGES
  0
POLYLINE
  5
143
  8
PROFILEEDGES
 66
     1
 10
0.0
 20
0.0
 30
0.0
  0
VERTEX
  5
2F1
  8
PROFILEEDGES
 10
82.92273311937325
 20
31.43117767618501
 30
0.0
 40
0.7573906202630731
 41
0.7573906202630731
  0
VERTEX
  5
2F2
  8
PROFILEEDGES
 10
75.67770157168952
 20
48.92223109842391
 30
0.0
 40
0.7573906202630731
 41
0.7573906202630731
  0
SEQEND
  5
474
  8
PROFILEEDGES
  0
POLYLINE
  5
144
  8
PROFILEEDGES
 66
     1
 10
0.0
 20
0.0
 30
0.0
  0
VERTEX
  5
2F3
  8
PROFILEEDGES
 10
173.9877644283631
 20
36.69327730484761
 30
0.0
 40
0.7573906202630731
 41
0.7573906202630731
  0
VERTEX
  5
2F4
  8
PROFILEEDGES
 10
153.6677644283631
 20
36.69327730484761
 30
0.0
 40
0.7573906202630731
 41
0.7573906202630731
  0
SEQEND
  5
475
  8
PROFILEEDGES
  0
POLYLINE
  5
145
  8
PROFILEEDGES
 66
     1
 10
0.0
 20
0.0
 30
0.0
  0
VERTEX
  5
2F5
  8
PROFILEEDGES
 10
173.9877644283631
 20
-48.39672269515242
 30
0.0
 40
0.7573906202630731
 41
0.7573906202630731
  0
VERTEX
  5
2F6
  8
PROFILEEDGES
 10
153.6677644283631
 20
-48.39672269515242
 30
0.0
 40
0.7573906202630731
 41
0.7573906202630731
  0
SEQEND
  5
476
  8
PROFILEEDGES
  0
POLYLINE
  5
146
  8
PROFILEEDGES
 66
     1
 10
0.0
 20
0.0
 30
0.0
  0
VERTEX
  5
2F7
  8
PROFILEEDGES
 10
153.6677644283631
 20
-126.5017226951524
 30
0.0
 40
0.7573906202630731
 41
0.7573906202630731
  0
VERTEX
  5
2F8
  8
PROFILEEDGES
 10
134.2405000815745
 20
-124.5780444290949
 30
0.0
 40
0.7573906202630731
 41
0.7573906202630731
  0
SEQEND
  5
477
  8
PROFILEEDGES
  0
POLYLINE
  5
147
  8
PROFILEEDGES
 66
     1
 10
0.0
 20
0.0
 30
0.0
  0
VERTEX
  5
2F9
  8
PROFILEEDGES
 10
134.2405000815745
 20
-124.5780444290949
 30
0.0
 40
0.7573906202630731
 41
0.7573906202630731
  0
VERTEX
  5
2FA
  8
PROFILEEDGES
 10
115.5677644283631
 20
-118.8817226951524
 30
0.0
 40
0.7573906202630731
 41
0.7573906202630731
  0
SEQEND
  5
478
  8
PROFILEEDGES
  0
POLYLINE
  5
148
  8
PROFILEEDGES
 66
     1
 10
0.0
 20
0.0
 30
0.0
  0
VERTEX
  5
2FB
  8
PROFILEEDGES
 10
153.6677644283631
 20
114.7982773048476
 30
0.0
 40
0.7573906202630731
 41
0.7573906202630731
  0
VERTEX
  5
2FC
  8
PROFILEEDGES
 10
134.2405000815745
 20
112.8745990387902
 30
0.0
 40
0.7573906202630731
 41
0.7573906202630731
  0
SEQEND
  5
479
  8
PROFILEEDGES
  0
POLYLINE
  5
149
  8
PROFILEEDGES
 66
     1
 10
0.0
 20
0.0
 30
0.0
  0
VERTEX
  5
2FD
  8
PROFILEEDGES
 10
134.2405000815745
 20
112.8745990387902
 30
0.0
 40
0.7573906202630731
 41
0.7573906202630731
  0
VERTEX
  5
2FE
  8
PROFILEEDGES
 10
115.5677644283631
 20
107.1782773048476
 30
0.0
 40
0.7573906202630731
 41
0.7573906202630731
  0
SEQEND
  5
47A
  8
PROFILEEDGES
  0
POLYLINE
  5
14A
  8
PROFILEEDGES
 66
     1
 10
0.0
 20
0.0
 30
0.0
  0
VERTEX
  5
2FF
  8
PROFILEEDGES
 10
-28.07454399628713
 20
-83.05698155232737
 30
0.0
 40
0.7573906202630731
 41
0.7573906202630731
  0
VERTEX
  5
300
  8
PROFILEEDGES
 10
-27.96140614905979
 20
-82.95134750080946
 30
0.0
 40
0.7573906202630731
 41
0.7573906202630731
  0
SEQEND
  5
47B
  8
PROFILEEDGES
  0
POLYLINE
  5
14B
  8
PROFILEEDGES
 66
     1
 10
0.0
 20
0.0
 30
0.0
  0
VERTEX
  5
301
  8
PROFILEEDGES
 10
-27.96140614905979
 20
-82.95134750080946
 30
0.0
 40
0.7573906202630731
 41
0.7573906202630731
  0
VERTEX
  5
302
  8
PROFILEEDGES
 10
-26.97006831396272
 20
-82.38015798371758
 30
0.0
 40
0.7573906202630731
 41
0.7573906202630731
  0
SEQEND
  5
47C
  8
PROFILEEDGES
  0
POLYLINE
  5
14C
  8
PROFILEEDGES
 66
     1
 10
0.0
 20
0.0
 30
0.0
  0
VERTEX
  5
303
  8
PROFILEEDGES
 10
-36.67440282931153
 20
70.67671259341276
 30
0.0
 40
0.7573906202630731
 41
0.7573906202630731
  0
VERTEX
  5
304
  8
PROFILEEDGES
 10
-35.68306498807462
 20
71.24790211410829
 30
0.0
 40
0.7573906202630731
 41
0.7573906202630731
  0
SEQEND
  5
47D
  8
PROFILEEDGES
  0
POLYLINE
  5
14D
  8
PROFILEEDGES
 66
     1
 10
0.0
 20
0.0
 30
0.0
  0
VERTEX
  5
305
  8
PROFILEEDGES
 10
-35.68306498807462
 20
71.24790211410829
 30
0.0
 40
0.7573906202630731
 41
0.7573906202630731
  0
VERTEX
  5
306
  8
PROFILEEDGES
 10
-35.56992714698712
 20
71.35353616202256
 30
0.0
 40
0.7573906202630731
 41
0.7573906202630731
  0
SEQEND
  5
47E
  8
PROFILEEDGES
  0
POLYLINE
  5
14E
  8
PROFILEEDGES
 66
     1
 10
0.0
 20
0.0
 30
0.0
  0
VERTEX
  5
307
  8
PROFILEEDGES
 10
-39.1774944288121
 20
-79.44941427050234
 30
0.0
 40
0.7573906202630731
 41
0.7573906202630731
  0
VERTEX
  5
308
  8
PROFILEEDGES
 10
-39.07392439621041
 20
-79.60122402077309
 30
0.0
 40
0.7573906202630731
 41
0.7573906202630731
  0
SEQEND
  5
47F
  8
PROFILEEDGES
  0
LINE
  5
14F
  8
0
 10
-39.07392439621041
 20
-79.60122402077309
 30
0.0
 11
-38.50067086020229
 21
-80.55388995282676
 31
0.0
  0
POLYLINE
  5
150
  8
PROFILEEDGES
 66
     1
 10
0.0
 20
0.0
 30
0.0
  0
VERTEX
  5
309
  8
PROFILEEDGES
 10
-23.63970900041023
 20
64.91913952877117
 30
0.0
 40
0.7573906202630731
 41
0.7573906202630731
  0
VERTEX
  5
30A
  8
PROFILEEDGES
 10
-23.66886832002426
 20
65.28964381375471
 30
0.0
 40
0.7573906202630731
 41
0.7573906202630731
  0
SEQEND
  5
480
  8
PROFILEEDGES
  0
POLYLINE
  5
151
  8
PROFILEEDGES
 66
     1
 10
0.0
 20
0.0
 30
0.0
  0
VERTEX
  5
30B
  8
PROFILEEDGES
 10
-25.98506909294208
 20
58.16111082615263
 30
0.0
 40
0.7573906202630731
 41
0.7573906202630731
  0
VERTEX
  5
30C
  8
PROFILEEDGES
 10
-25.24906401713542
 20
59.03002899054501
 30
0.0
 40
0.7573906202630731
 41
0.7573906202630731
  0
SEQEND
  5
481
  8
PROFILEEDGES
  0
POLYLINE
  5
152
  8
PROFILEEDGES
 66
     1
 10
0.0
 20
0.0
 30
0.0
  0
VERTEX
  5
30D
  8
PROFILEEDGES
 10
-25.24906401713542
 20
59.03002899054501
 30
0.0
 40
0.7573906202630731
 41
0.7573906202630731
  0
VERTEX
  5
30E
  8
PROFILEEDGES
 10
-25.14380028307196
 20
59.14611004717321
 30
0.0
 40
0.7573906202630731
 41
0.7573906202630731
  0
SEQEND
  5
482
  8
PROFILEEDGES
  0
POLYLINE
  5
153
  8
PROFILEEDGES
 66
     1
 10
0.0
 20
0.0
 30
0.0
  0
VERTEX
  5
30F
  8
PROFILEEDGES
 10
-25.14380028307196
 20
59.14611004717321
 30
0.0
 40
0.7573906202630731
 41
0.7573906202630731
  0
VERTEX
  5
310
  8
PROFILEEDGES
 10
-24.48949204946905
 20
60.21544739675844
 30
0.0
 40
0.7573906202630731
 41
0.7573906202630731
  0
SEQEND
  5
483
  8
PROFILEEDGES
  0
POLYLINE
  5
154
  8
PROFILEEDGES
 66
     1
 10
0.0
 20
0.0
 30
0.0
  0
VERTEX
  5
311
  8
PROFILEEDGES
 10
-24.48949204946905
 20
60.21544739675844
 30
0.0
 40
0.7573906202630731
 41
0.7573906202630731
  0
VERTEX
  5
312
  8
PROFILEEDGES
 10
-24.46697671446216
 20
60.25058572949762
 30
0.0
 40
0.7573906202630731
 41
0.7573906202630731
  0
SEQEND
  5
484
  8
PROFILEEDGES
  0
POLYLINE
  5
155
  8
PROFILEEDGES
 66
     1
 10
0.0
 20
0.0
 30
0.0
  0
VERTEX
  5
313
  8
PROFILEEDGES
 10
-23.62140009712638
 20
63.31005175454352
 30
0.0
 40
0.7573906202630731
 41
0.7573906202630731
  0
VERTEX
  5
314
  8
PROFILEEDGES
 10
-23.56723557163714
 20
63.99827730484759
 30
0.0
 40
0.7573906202630731
 41
0.7573906202630731
  0
SEQEND
  5
485
  8
PROFILEEDGES
  0
LINE
  5
156
  8
0
 10
-23.66886832002426
 20
65.28964381375471
 30
0.0
 11
-23.96290588262956
 21
66.5081201982445
 31
0.0
  0
POLYLINE
  5
157
  8
PROFILEEDGES
 66
     1
 10
0.0
 20
0.0
 30
0.0
  0
VERTEX
  5
315
  8
PROFILEEDGES
 10
-23.96290588262956
 20
66.5081201982445
 30
0.0
 40
0.7573906202630731
 41
0.7573906202630731
  0
VERTEX
  5
316
  8
PROFILEEDGES
 10
-23.97126402962056
 20
66.54921259341276
 30
0.0
 40
0.7573906202630731
 41
0.7573906202630731
  0
SEQEND
  5
486
  8
PROFILEEDGES
  0
POLYLINE
  5
158
  8
PROFILEEDGES
 66
     1
 10
0.0
 20
0.0
 30
0.0
  0
VERTEX
  5
317
  8
PROFILEEDGES
 10
-24.8052378961154
 20
68.29796096016854
 30
0.0
 40
0.7573906202630731
 41
0.7573906202630731
  0
VERTEX
  5
318
  8
PROFILEEDGES
 10
-25.14380028307196
 20
68.85044456252196
 30
0.0
 40
0.7573906202630731
 41
0.7573906202630731
  0
SEQEND
  5
487
  8
PROFILEEDGES
  0
POLYLINE
  5
159
  8
PROFILEEDGES
 66
     1
 10
0.0
 20
0.0
 30
0.0
  0
VERTEX
  5
319
  8
PROFILEEDGES
 10
-28.70220849186249
 20
71.61352330870996
 30
0.0
 40
0.7573906202630731
 41
0.7573906202630731
  0
VERTEX
  5
31A
  8
PROFILEEDGES
 10
-29.27130028307182
 20
71.84924884686407
 30
0.0
 40
0.7573906202630731
 41
0.7573906202630731
  0
SEQEND
  5
488
  8
PROFILEEDGES
  0
POLYLINE
  5
15A
  8
PROFILEEDGES
 66
     1
 10
0.0
 20
0.0
 30
0.0
  0
VERTEX
  5
31B
  8
PROFILEEDGES
 10
-39.98002866175084
 20
62.84359113832605
 30
0.0
 40
0.7573906202630731
 41
0.7573906202630731
  0
VERTEX
  5
31C
  8
PROFILEEDGES
 10
-39.97560282324999
 20
62.70691079594048
 30
0.0
 40
0.7573906202630731
 41
0.7573906202630731
  0
SEQEND
  5
489
  8
PROFILEEDGES
  0
POLYLINE
  5
15B
  8
PROFILEEDGES
 66
     1
 10
0.0
 20
0.0
 30
0.0
  0
VERTEX
  5
31D
  8
PROFILEEDGES
 10
-33.71176763060237
 20
72.008037713478
 30
0.0
 40
0.7573906202630731
 41
0.7573906202630731
  0
VERTEX
  5
31E
  8
PROFILEEDGES
 10
-34.37317086020225
 20
71.84924884686407
 30
0.0
 40
0.7573906202630731
 41
0.7573906202630731
  0
SEQEND
  5
48A
  8
PROFILEEDGES
  0
POLYLINE
  5
15C
  8
PROFILEEDGES
 66
     1
 10
0.0
 20
0.0
 30
0.0
  0
VERTEX
  5
31F
  8
PROFILEEDGES
 10
-37.11944245062932
 20
57.69994176111594
 30
0.0
 40
0.7573906202630731
 41
0.7573906202630731
  0
VERTEX
  5
320
  8
PROFILEEDGES
 10
-35.82169473888592
 20
56.81474894741133
 30
0.0
 40
0.7573906202630731
 41
0.7573906202630731
  0
SEQEND
  5
48B
  8
PROFILEEDGES
  0
POLYLINE
  5
15D
  8
PROFILEEDGES
 66
     1
 10
0.0
 20
0.0
 30
0.0
  0
VERTEX
  5
321
  8
PROFILEEDGES
 10
-35.82169473888592
 20
56.81474894741133
 30
0.0
 40
0.7573906202630731
 41
0.7573906202630731
  0
VERTEX
  5
322
  8
PROFILEEDGES
 10
-35.56992714698712
 20
56.64301844767258
 30
0.0
 40
0.7573906202630731
 41
0.7573906202630731
  0
SEQEND
  5
48C
  8
PROFILEEDGES
  0
LINE
  5
15E
  8
0
 10
-35.56992714698712
 20
56.64301844767258
 30
0.0
 11
-34.52964193620241
 21
56.21940367905952
 31
0.0
  0
POLYLINE
  5
15F
  8
PROFILEEDGES
 66
     1
 10
0.0
 20
0.0
 30
0.0
  0
VERTEX
  5
323
  8
PROFILEEDGES
 10
-34.52964193620241
 20
56.21940367905952
 30
0.0
 40
0.7573906202630731
 41
0.7573906202630731
  0
VERTEX
  5
324
  8
PROFILEEDGES
 10
-34.37317086020225
 20
56.14730576283107
 30
0.0
 40
0.7573906202630731
 41
0.7573906202630731
  0
SEQEND
  5
48D
  8
PROFILEEDGES
  0
POLYLINE
  5
160
  8
PROFILEEDGES
 66
     1
 10
0.0
 20
0.0
 30
0.0
  0
VERTEX
  5
325
  8
PROFILEEDGES
 10
-40.03485535824835
 20
64.53676897292796
 30
0.0
 40
0.7573906202630731
 41
0.7573906202630731
  0
VERTEX
  5
326
  8
PROFILEEDGES
 10
-40.07723557163711
 20
63.99827730484759
 30
0.0
 40
0.7573906202630731
 41
0.7573906202630731
  0
SEQEND
  5
48E
  8
PROFILEEDGES
  0
POLYLINE
  5
161
  8
PROFILEEDGES
 66
     1
 10
0.0
 20
0.0
 30
0.0
  0
VERTEX
  5
327
  8
PROFILEEDGES
 10
-38.11952065106043
 20
69.29671411951938
 30
0.0
 40
0.7573906202630731
 41
0.7573906202630731
  0
VERTEX
  5
328
  8
PROFILEEDGES
 10
-38.50067086020229
 20
68.85044456252196
 30
0.0
 40
0.7573906202630731
 41
0.7573906202630731
  0
SEQEND
  5
48F
  8
PROFILEEDGES
  0
LINE
  5
162
  8
0
 10
-40.07723557163711
 20
63.99827730484759
 30
0.0
 11
-39.98002866175084
 21
62.84359113832605
 31
0.0
  0
POLYLINE
  5
163
  8
PROFILEEDGES
 66
     1
 10
0.0
 20
0.0
 30
0.0
  0
VERTEX
  5
329
  8
PROFILEEDGES
 10
-39.98002866175084
 20
62.84359113832605
 30
0.0
 40
0.7573906202630731
 41
0.7573906202630731
  0
VERTEX
  5
32A
  8
PROFILEEDGES
 10
-40.03485535824835
 20
64.53676897292796
 30
0.0
 40
0.7573906202630731
 41
0.7573906202630731
  0
SEQEND
  5
490
  8
PROFILEEDGES
  0
POLYLINE
  5
164
  8
PROFILEEDGES
 66
     1
 10
0.0
 20
0.0
 30
0.0
  0
VERTEX
  5
32B
  8
PROFILEEDGES
 10
-39.97560282324999
 20
62.70691079594048
 30
0.0
 40
0.7573906202630731
 41
0.7573906202630731
  0
VERTEX
  5
32C
  8
PROFILEEDGES
 10
-39.69014642725285
 20
61.52442754657764
 30
0.0
 40
0.7573906202630731
 41
0.7573906202630731
  0
SEQEND
  5
491
  8
PROFILEEDGES
  0
POLYLINE
  5
165
  8
PROFILEEDGES
 66
     1
 10
0.0
 20
0.0
 30
0.0
  0
VERTEX
  5
32D
  8
PROFILEEDGES
 10
-39.69014642725285
 20
61.52442754657764
 30
0.0
 40
0.7573906202630731
 41
0.7573906202630731
  0
VERTEX
  5
32E
  8
PROFILEEDGES
 10
-39.67320711365351
 20
61.44734201628238
 30
0.0
 40
0.7573906202630731
 41
0.7573906202630731
  0
SEQEND
  5
492
  8
PROFILEEDGES
  0
POLYLINE
  5
166
  8
PROFILEEDGES
 66
     1
 10
0.0
 20
0.0
 30
0.0
  0
VERTEX
  5
32F
  8
PROFILEEDGES
 10
-38.11952065106043
 20
69.29671411951938
 30
0.0
 40
0.7573906202630731
 41
0.7573906202630731
  0
VERTEX
  5
330
  8
PROFILEEDGES
 10
-39.07392439621041
 20
67.89777863046828
 30
0.0
 40
0.7573906202630731
 41
0.7573906202630731
  0
SEQEND
  5
493
  8
PROFILEEDGES
  0
POLYLINE
  5
167
  8
PROFILEEDGES
 66
     1
 10
0.0
 20
0.0
 30
0.0
  0
VERTEX
  5
331
  8
PROFILEEDGES
 10
-39.07392439621041
 20
67.89777863046828
 30
0.0
 40
0.7573906202630731
 41
0.7573906202630731
  0
VERTEX
  5
332
  8
PROFILEEDGES
 10
-39.1774944288121
 20
67.74596888019754
 30
0.0
 40
0.7573906202630731
 41
0.7573906202630731
  0
SEQEND
  5
494
  8
PROFILEEDGES
  0
LINE
  5
168
  8
0
 10
-38.50067086020229
 20
68.85044456252196
 30
0.0
 11
-39.07392439621041
 21
67.89777863046828
 31
0.0
  0
LINE
  5
169
  8
0
 10
-36.67440282931153
 20
57.31984201628239
 30
0.0
 11
-35.82169473888592
 21
56.81474894741133
 31
0.0
  0
POLYLINE
  5
16A
  8
PROFILEEDGES
 66
     1
 10
0.0
 20
0.0
 30
0.0
  0
VERTEX
  5
333
  8
PROFILEEDGES
 10
-34.52964193620241
 20
56.21940367905952
 30
0.0
 40
0.7573906202630731
 41
0.7573906202630731
  0
VERTEX
  5
334
  8
PROFILEEDGES
 10
-35.82169473888592
 20
56.81474894741133
 30
0.0
 40
0.7573906202630731
 41
0.7573906202630731
  0
SEQEND
  5
495
  8
PROFILEEDGES
  0
POLYLINE
  5
16B
  8
PROFILEEDGES
 66
     1
 10
0.0
 20
0.0
 30
0.0
  0
VERTEX
  5
335
  8
PROFILEEDGES
 10
-37.28565792957739
 20
70.12573829183066
 30
0.0
 40
0.7573906202630731
 41
0.7573906202630731
  0
VERTEX
  5
336
  8
PROFILEEDGES
 10
-37.659402050332
 20
69.83544378354253
 30
0.0
 40
0.7573906202630731
 41
0.7573906202630731
  0
SEQEND
  5
496
  8
PROFILEEDGES
  0
POLYLINE
  5
16C
  8
PROFILEEDGES
 66
     1
 10
0.0
 20
0.0
 30
0.0
  0
VERTEX
  5
337
  8
PROFILEEDGES
 10
-39.67320711365351
 20
-73.1507874065872
 30
0.0
 40
0.7573906202630731
 41
0.7573906202630731
  0
VERTEX
  5
338
  8
PROFILEEDGES
 10
-39.69014642725286
 20
-73.22787293688248
 30
0.0
 40
0.7573906202630731
 41
0.7573906202630731
  0
SEQEND
  5
497
  8
PROFILEEDGES
  0
POLYLINE
  5
16D
  8
PROFILEEDGES
 66
     1
 10
0.0
 20
0.0
 30
0.0
  0
VERTEX
  5
339
  8
PROFILEEDGES
 10
-39.69014642725286
 20
-73.22787293688248
 30
0.0
 40
0.7573906202630731
 41
0.7573906202630731
  0
VERTEX
  5
33A
  8
PROFILEEDGES
 10
-39.97560282324999
 20
-74.41035618624528
 30
0.0
 40
0.7573906202630731
 41
0.7573906202630731
  0
SEQEND
  5
498
  8
PROFILEEDGES
  0
POLYLINE
  5
16E
  8
PROFILEEDGES
 66
     1
 10
0.0
 20
0.0
 30
0.0
  0
VERTEX
  5
33B
  8
PROFILEEDGES
 10
-23.63970900041023
 20
64.91913952877117
 30
0.0
 40
0.7573906202630731
 41
0.7573906202630731
  0
VERTEX
  5
33C
  8
PROFILEEDGES
 10
-23.96290588262956
 20
66.5081201982445
 30
0.0
 40
0.7573906202630731
 41
0.7573906202630731
  0
SEQEND
  5
499
  8
PROFILEEDGES
  0
POLYLINE
  5
16F
  8
PROFILEEDGES
 66
     1
 10
0.0
 20
0.0
 30
0.0
  0
VERTEX
  5
33D
  8
PROFILEEDGES
 10
-39.97560282324999
 20
-74.41035618624528
 30
0.0
 40
0.7573906202630731
 41
0.7573906202630731
  0
VERTEX
  5
33E
  8
PROFILEEDGES
 10
-39.98002866175084
 20
-74.54703652863085
 30
0.0
 40
0.7573906202630731
 41
0.7573906202630731
  0
SEQEND
  5
49A
  8
PROFILEEDGES
  0
POLYLINE
  5
170
  8
PROFILEEDGES
 66
     1
 10
0.0
 20
0.0
 30
0.0
  0
VERTEX
  5
33F
  8
PROFILEEDGES
 10
-34.37317086020225
 20
-67.85075115313589
 30
0.0
 40
0.7573906202630731
 41
0.7573906202630731
  0
VERTEX
  5
340
  8
PROFILEEDGES
 10
-34.52964193620235
 20
-67.9228490693643
 30
0.0
 40
0.7573906202630731
 41
0.7573906202630731
  0
SEQEND
  5
49B
  8
PROFILEEDGES
  0
LINE
  5
171
  8
0
 10
-34.52964193620235
 20
-67.9228490693643
 30
0.0
 11
-35.56992714698712
 21
-68.3464638379774
 31
0.0
  0
POLYLINE
  5
172
  8
PROFILEEDGES
 66
     1
 10
0.0
 20
0.0
 30
0.0
  0
VERTEX
  5
341
  8
PROFILEEDGES
 10
-23.97126402962056
 20
-78.25265798371757
 30
0.0
 40
0.7573906202630731
 41
0.7573906202630731
  0
VERTEX
  5
342
  8
PROFILEEDGES
 10
-23.96290588262956
 20
-78.2115655885493
 30
0.0
 40
0.7573906202630731
 41
0.7573906202630731
  0
SEQEND
  5
49C
  8
PROFILEEDGES
  0
POLYLINE
  5
173
  8
PROFILEEDGES
 66
     1
 10
0.0
 20
0.0
 30
0.0
  0
VERTEX
  5
343
  8
PROFILEEDGES
 10
-23.96290588262956
 20
-78.2115655885493
 30
0.0
 40
0.7573906202630731
 41
0.7573906202630731
  0
VERTEX
  5
344
  8
PROFILEEDGES
 10
-23.63970900041023
 20
-76.62258491907596
 30
0.0
 40
0.7573906202630731
 41
0.7573906202630731
  0
SEQEND
  5
49D
  8
PROFILEEDGES
  0
POLYLINE
  5
174
  8
PROFILEEDGES
 66
     1
 10
0.0
 20
0.0
 30
0.0
  0
VERTEX
  5
345
  8
PROFILEEDGES
 10
-25.14380028307196
 20
-70.84955543747802
 30
0.0
 40
0.7573906202630731
 41
0.7573906202630731
  0
VERTEX
  5
346
  8
PROFILEEDGES
 10
-25.24906401713542
 20
-70.73347438084981
 30
0.0
 40
0.7573906202630731
 41
0.7573906202630731
  0
SEQEND
  5
49E
  8
PROFILEEDGES
  0
POLYLINE
  5
175
  8
PROFILEEDGES
 66
     1
 10
0.0
 20
0.0
 30
0.0
  0
VERTEX
  5
347
  8
PROFILEEDGES
 10
-25.14380028307196
 20
-80.55388995282676
 30
0.0
 40
0.7573906202630731
 41
0.7573906202630731
  0
VERTEX
  5
348
  8
PROFILEEDGES
 10
-24.80523789611544
 20
-80.00140635047342
 30
0.0
 40
0.7573906202630731
 41
0.7573906202630731
  0
SEQEND
  5
49F
  8
PROFILEEDGES
  0
POLYLINE
  5
176
  8
PROFILEEDGES
 66
     1
 10
0.0
 20
0.0
 30
0.0
  0
VERTEX
  5
349
  8
PROFILEEDGES
 10
-23.66886832002426
 20
-76.9930892040595
 30
0.0
 40
0.7573906202630731
 41
0.7573906202630731
  0
VERTEX
  5
34A
  8
PROFILEEDGES
 10
-23.63970900041023
 20
-76.62258491907596
 30
0.0
 40
0.7573906202630731
 41
0.7573906202630731
  0
SEQEND
  5
4A0
  8
PROFILEEDGES
  0
POLYLINE
  5
177
  8
PROFILEEDGES
 66
     1
 10
0.0
 20
0.0
 30
0.0
  0
VERTEX
  5
34B
  8
PROFILEEDGES
 10
-35.56992714698712
 20
-68.3464638379774
 30
0.0
 40
0.7573906202630731
 41
0.7573906202630731
  0
VERTEX
  5
34C
  8
PROFILEEDGES
 10
-35.82169473888588
 20
-68.51819433771612
 30
0.0
 40
0.7573906202630731
 41
0.7573906202630731
  0
SEQEND
  5
4A1
  8
PROFILEEDGES
  0
LINE
  5
178
  8
0
 10
-35.82169473888588
 20
-68.51819433771612
 30
0.0
 11
-36.67440282931153
 21
-69.02328740658719
 31
0.0
  0
POLYLINE
  5
179
  8
PROFILEEDGES
 66
     1
 10
0.0
 20
0.0
 30
0.0
  0
VERTEX
  5
34D
  8
PROFILEEDGES
 10
-25.24906401713542
 20
-70.73347438084981
 30
0.0
 40
0.7573906202630731
 41
0.7573906202630731
  0
VERTEX
  5
34E
  8
PROFILEEDGES
 10
-25.98506909294208
 20
-69.86455621645744
 30
0.0
 40
0.7573906202630731
 41
0.7573906202630731
  0
SEQEND
  5
4A2
  8
PROFILEEDGES
  0
POLYLINE
  5
17A
  8
PROFILEEDGES
 66
     1
 10
0.0
 20
0.0
 30
0.0
  0
VERTEX
  5
34F
  8
PROFILEEDGES
 10
-35.82169473888588
 20
-68.51819433771612
 30
0.0
 40
0.7573906202630731
 41
0.7573906202630731
  0
VERTEX
  5
350
  8
PROFILEEDGES
 10
-34.52964193620235
 20
-67.9228490693643
 30
0.0
 40
0.7573906202630731
 41
0.7573906202630731
  0
SEQEND
  5
4A3
  8
PROFILEEDGES
  0
POLYLINE
  5
17B
  8
PROFILEEDGES
 66
     1
 10
0.0
 20
0.0
 30
0.0
  0
VERTEX
  5
351
  8
PROFILEEDGES
 10
-35.82169473888588
 20
-68.51819433771612
 30
0.0
 40
0.7573906202630731
 41
0.7573906202630731
  0
VERTEX
  5
352
  8
PROFILEEDGES
 10
-37.11944245062932
 20
-69.40338715142074
 30
0.0
 40
0.7573906202630731
 41
0.7573906202630731
  0
SEQEND
  5
4A4
  8
PROFILEEDGES
  0
POLYLINE
  5
17C
  8
PROFILEEDGES
 66
     1
 10
0.0
 20
0.0
 30
0.0
  0
VERTEX
  5
353
  8
PROFILEEDGES
 10
-24.46697671446216
 20
-71.95403111980242
 30
0.0
 40
0.7573906202630731
 41
0.7573906202630731
  0
VERTEX
  5
354
  8
PROFILEEDGES
 10
-24.48949204946906
 20
-71.91889278706321
 30
0.0
 40
0.7573906202630731
 41
0.7573906202630731
  0
SEQEND
  5
4A5
  8
PROFILEEDGES
  0
POLYLINE
  5
17D
  8
PROFILEEDGES
 66
     1
 10
0.0
 20
0.0
 30
0.0
  0
VERTEX
  5
355
  8
PROFILEEDGES
 10
-24.48949204946906
 20
-71.91889278706321
 30
0.0
 40
0.7573906202630731
 41
0.7573906202630731
  0
VERTEX
  5
356
  8
PROFILEEDGES
 10
-25.14380028307196
 20
-70.84955543747802
 30
0.0
 40
0.7573906202630731
 41
0.7573906202630731
  0
SEQEND
  5
4A6
  8
PROFILEEDGES
  0
LINE
  5
17E
  8
0
 10
-23.96290588262956
 20
-78.2115655885493
 30
0.0
 11
-23.66886832002426
 21
-76.9930892040595
 31
0.0
  0
POLYLINE
  5
17F
  8
PROFILEEDGES
 66
     1
 10
0.0
 20
0.0
 30
0.0
  0
VERTEX
  5
357
  8
PROFILEEDGES
 10
-35.56992714698712
 20
-83.05698155232737
 30
0.0
 40
0.7573906202630731
 41
0.7573906202630731
  0
VERTEX
  5
358
  8
PROFILEEDGES
 10
-35.40276999909361
 20
-83.11585949669569
 30
0.0
 40
0.7573906202630731
 41
0.7573906202630731
  0
SEQEND
  5
4A7
  8
PROFILEEDGES
  0
LINE
  5
180
  8
0
 10
-35.40276999909361
 20
-83.11585949669569
 30
0.0
 11
-34.37317086020225
 21
-83.55269423716888
 31
0.0
  0
LINE
  5
181
  8
0
 10
-39.98002866175084
 20
-74.54703652863085
 30
0.0
 11
-40.07723557163711
 21
-75.70172269515238
 31
0.0
  0
POLYLINE
  5
182
  8
PROFILEEDGES
 66
     1
 10
0.0
 20
0.0
 30
0.0
  0
VERTEX
  5
359
  8
PROFILEEDGES
 10
-40.07723557163711
 20
-75.70172269515238
 30
0.0
 40
0.7573906202630731
 41
0.7573906202630731
  0
VERTEX
  5
35A
  8
PROFILEEDGES
 10
-40.03485535824835
 20
-76.24021436323277
 30
0.0
 40
0.7573906202630731
 41
0.7573906202630731
  0
SEQEND
  5
4A8
  8
PROFILEEDGES
  0
POLYLINE
  5
183
  8
PROFILEEDGES
 66
     1
 10
0.0
 20
0.0
 30
0.0
  0
VERTEX
  5
35B
  8
PROFILEEDGES
 10
-34.37317086020225
 20
-83.55269423716888
 30
0.0
 40
0.7573906202630731
 41
0.7573906202630731
  0
VERTEX
  5
35C
  8
PROFILEEDGES
 10
-33.71176763060242
 20
-83.7114831037828
 30
0.0
 40
0.7573906202630731
 41
0.7573906202630731
  0
SEQEND
  5
4A9
  8
PROFILEEDGES
  0
POLYLINE
  5
184
  8
PROFILEEDGES
 66
     1
 10
0.0
 20
0.0
 30
0.0
  0
VERTEX
  5
35D
  8
PROFILEEDGES
 10
-33.71176763060242
 20
-83.7114831037828
 30
0.0
 40
0.7573906202630731
 41
0.7573906202630731
  0
VERTEX
  5
35E
  8
PROFILEEDGES
 10
-35.40276999909361
 20
-83.11585949669569
 30
0.0
 40
0.7573906202630731
 41
0.7573906202630731
  0
SEQEND
  5
4AA
  8
PROFILEEDGES
  0
POLYLINE
  5
185
  8
PROFILEEDGES
 66
     1
 10
0.0
 20
0.0
 30
0.0
  0
VERTEX
  5
35F
  8
PROFILEEDGES
 10
-40.03485535824835
 20
-76.24021436323277
 30
0.0
 40
0.7573906202630731
 41
0.7573906202630731
  0
VERTEX
  5
360
  8
PROFILEEDGES
 10
-39.98002866175084
 20
-74.54703652863085
 30
0.0
 40
0.7573906202630731
 41
0.7573906202630731
  0
SEQEND
  5
4AB
  8
PROFILEEDGES
  0
POLYLINE
  5
186
  8
PROFILEEDGES
 66
     1
 10
0.0
 20
0.0
 30
0.0
  0
VERTEX
  5
361
  8
PROFILEEDGES
 10
-38.50067086020229
 20
-80.55388995282676
 30
0.0
 40
0.7573906202630731
 41
0.7573906202630731
  0
VERTEX
  5
362
  8
PROFILEEDGES
 10
-38.11952065106042
 20
-81.00015950982419
 30
0.0
 40
0.7573906202630731
 41
0.7573906202630731
  0
SEQEND
  5
4AC
  8
PROFILEEDGES
  0
POLYLINE
  5
187
  8
PROFILEEDGES
 66
     1
 10
0.0
 20
0.0
 30
0.0
  0
VERTEX
  5
363
  8
PROFILEEDGES
 10
-39.07392439621041
 20
-79.60122402077309
 30
0.0
 40
0.7573906202630731
 41
0.7573906202630731
  0
VERTEX
  5
364
  8
PROFILEEDGES
 10
-38.11952065106042
 20
-81.00015950982419
 30
0.0
 40
0.7573906202630731
 41
0.7573906202630731
  0
SEQEND
  5
4AD
  8
PROFILEEDGES
  0
POLYLINE
  5
188
  8
PROFILEEDGES
 66
     1
 10
0.0
 20
0.0
 30
0.0
  0
VERTEX
  5
365
  8
PROFILEEDGES
 10
-37.28565792957739
 20
70.12573829183066
 30
0.0
 40
0.7573906202630731
 41
0.7573906202630731
  0
VERTEX
  5
366
  8
PROFILEEDGES
 10
-35.68306498807462
 20
71.24790211410829
 30
0.0
 40
0.7573906202630731
 41
0.7573906202630731
  0
SEQEND
  5
4AE
  8
PROFILEEDGES
  0
POLYLINE
  5
189
  8
PROFILEEDGES
 66
     1
 10
0.0
 20
0.0
 30
0.0
  0
VERTEX
  5
367
  8
PROFILEEDGES
 10
-23.56723557163714
 20
63.99827730484759
 30
0.0
 40
0.7573906202630731
 41
0.7573906202630731
  0
VERTEX
  5
368
  8
PROFILEEDGES
 10
-23.60621617172887
 20
64.49357279035215
 30
0.0
 40
0.7573906202630731
 41
0.7573906202630731
  0
SEQEND
  5
4AF
  8
PROFILEEDGES
  0
POLYLINE
  5
18A
  8
PROFILEEDGES
 66
     1
 10
0.0
 20
0.0
 30
0.0
  0
VERTEX
  5
369
  8
PROFILEEDGES
 10
-23.60621617172887
 20
64.49357279035215
 30
0.0
 40
0.7573906202630731
 41
0.7573906202630731
  0
VERTEX
  5
36A
  8
PROFILEEDGES
 10
-23.63970900041023
 20
64.91913952877117
 30
0.0
 40
0.7573906202630731
 41
0.7573906202630731
  0
SEQEND
  5
4B0
  8
PROFILEEDGES
  0
POLYLINE
  5
18B
  8
PROFILEEDGES
 66
     1
 10
0.0
 20
0.0
 30
0.0
  0
VERTEX
  5
36B
  8
PROFILEEDGES
 10
-25.14380028307196
 20
68.85044456252196
 30
0.0
 40
0.7573906202630731
 41
0.7573906202630731
  0
VERTEX
  5
36C
  8
PROFILEEDGES
 10
-25.48859540908713
 20
69.25414778621459
 30
0.0
 40
0.7573906202630731
 41
0.7573906202630731
  0
SEQEND
  5
4B1
  8
PROFILEEDGES
  0
POLYLINE
  5
18C
  8
PROFILEEDGES
 66
     1
 10
0.0
 20
0.0
 30
0.0
  0
VERTEX
  5
36D
  8
PROFILEEDGES
 10
-29.27130028307182
 20
71.84924884686407
 30
0.0
 40
0.7573906202630731
 41
0.7573906202630731
  0
VERTEX
  5
36E
  8
PROFILEEDGES
 10
-29.87341732909694
 20
71.99380436009476
 30
0.0
 40
0.7573906202630731
 41
0.7573906202630731
  0
SEQEND
  5
4B2
  8
PROFILEEDGES
  0
POLYLINE
  5
18D
  8
PROFILEEDGES
 66
     1
 10
0.0
 20
0.0
 30
0.0
  0
VERTEX
  5
36F
  8
PROFILEEDGES
 10
-37.11944245062932
 20
57.69994176111594
 30
0.0
 40
0.7573906202630731
 41
0.7573906202630731
  0
VERTEX
  5
370
  8
PROFILEEDGES
 10
-36.67440282931153
 20
57.31984201628239
 30
0.0
 40
0.7573906202630731
 41
0.7573906202630731
  0
SEQEND
  5
4B3
  8
PROFILEEDGES
  0
POLYLINE
  5
18E
  8
PROFILEEDGES
 66
     1
 10
0.0
 20
0.0
 30
0.0
  0
VERTEX
  5
371
  8
PROFILEEDGES
 10
-35.3494318013461
 20
71.4312014779108
 30
0.0
 40
0.7573906202630731
 41
0.7573906202630731
  0
VERTEX
  5
372
  8
PROFILEEDGES
 10
-33.71176763060237
 20
72.008037713478
 30
0.0
 40
0.7573906202630731
 41
0.7573906202630731
  0
SEQEND
  5
4B4
  8
PROFILEEDGES
  0
LINE
  5
18F
  8
0
 10
-34.37317086020225
 20
71.84924884686407
 30
0.0
 11
-35.3494318013461
 21
71.4312014779108
 31
0.0
  0
POLYLINE
  5
190
  8
PROFILEEDGES
 66
     1
 10
0.0
 20
0.0
 30
0.0
  0
VERTEX
  5
373
  8
PROFILEEDGES
 10
-23.56723557163714
 20
-75.70172269515238
 30
0.0
 40
0.7573906202630731
 41
0.7573906202630731
  0
VERTEX
  5
374
  8
PROFILEEDGES
 10
-23.62140009712638
 20
-75.01349714484832
 30
0.0
 40
0.7573906202630731
 41
0.7573906202630731
  0
SEQEND
  5
4B5
  8
PROFILEEDGES
  0
POLYLINE
  5
191
  8
PROFILEEDGES
 66
     1
 10
0.0
 20
0.0
 30
0.0
  0
VERTEX
  5
375
  8
PROFILEEDGES
 10
-23.63970900041023
 20
-76.62258491907596
 30
0.0
 40
0.7573906202630731
 41
0.7573906202630731
  0
VERTEX
  5
376
  8
PROFILEEDGES
 10
-23.60621617172887
 20
-76.19701818065694
 30
0.0
 40
0.7573906202630731
 41
0.7573906202630731
  0
SEQEND
  5
4B6
  8
PROFILEEDGES
  0
POLYLINE
  5
192
  8
PROFILEEDGES
 66
     1
 10
0.0
 20
0.0
 30
0.0
  0
VERTEX
  5
377
  8
PROFILEEDGES
 10
-23.60621617172887
 20
-76.19701818065694
 30
0.0
 40
0.7573906202630731
 41
0.7573906202630731
  0
VERTEX
  5
378
  8
PROFILEEDGES
 10
-23.56723557163714
 20
-75.70172269515238
 30
0.0
 40
0.7573906202630731
 41
0.7573906202630731
  0
SEQEND
  5
4B7
  8
PROFILEEDGES
  0
POLYLINE
  5
193
  8
PROFILEEDGES
 66
     1
 10
0.0
 20
0.0
 30
0.0
  0
VERTEX
  5
379
  8
PROFILEEDGES
 10
-36.67440282931153
 20
-69.02328740658719
 30
0.0
 40
0.7573906202630731
 41
0.7573906202630731
  0
VERTEX
  5
37A
  8
PROFILEEDGES
 10
-37.11944245062932
 20
-69.40338715142074
 30
0.0
 40
0.7573906202630731
 41
0.7573906202630731
  0
SEQEND
  5
4B8
  8
PROFILEEDGES
  0
POLYLINE
  5
194
  8
PROFILEEDGES
 66
     1
 10
0.0
 20
0.0
 30
0.0
  0
VERTEX
  5
37B
  8
PROFILEEDGES
 10
-25.48859540908712
 20
-80.95759317651938
 30
0.0
 40
0.7573906202630731
 41
0.7573906202630731
  0
VERTEX
  5
37C
  8
PROFILEEDGES
 10
-25.14380028307196
 20
-80.55388995282676
 30
0.0
 40
0.7573906202630731
 41
0.7573906202630731
  0
SEQEND
  5
4B9
  8
PROFILEEDGES
  0
POLYLINE
  5
195
  8
PROFILEEDGES
 66
     1
 10
0.0
 20
0.0
 30
0.0
  0
VERTEX
  5
37D
  8
PROFILEEDGES
 10
-29.87341732909687
 20
-83.69724975039955
 30
0.0
 40
0.7573906202630731
 41
0.7573906202630731
  0
VERTEX
  5
37E
  8
PROFILEEDGES
 10
-29.27130028307182
 20
-83.55269423716888
 30
0.0
 40
0.7573906202630731
 41
0.7573906202630731
  0
SEQEND
  5
4BA
  8
PROFILEEDGES
  0
POLYLINE
  5
196
  8
PROFILEEDGES
 66
     1
 10
0.0
 20
0.0
 30
0.0
  0
VERTEX
  5
37F
  8
PROFILEEDGES
 10
-26.37265009616219
 20
-81.83851310601025
 30
0.0
 40
0.7573906202630731
 41
0.7573906202630731
  0
VERTEX
  5
380
  8
PROFILEEDGES
 10
-25.98506909294208
 20
-81.53888917384734
 30
0.0
 40
0.7573906202630731
 41
0.7573906202630731
  0
SEQEND
  5
4BB
  8
PROFILEEDGES
  0
POLYLINE
  5
197
  8
PROFILEEDGES
 66
     1
 10
0.0
 20
0.0
 30
0.0
  0
VERTEX
  5
381
  8
PROFILEEDGES
 10
-26.37265009616219
 20
-81.83851310601025
 30
0.0
 40
0.7573906202630731
 41
0.7573906202630731
  0
VERTEX
  5
382
  8
PROFILEEDGES
 10
-27.96140614905979
 20
-82.95134750080946
 30
0.0
 40
0.7573906202630731
 41
0.7573906202630731
  0
SEQEND
  5
4BC
  8
PROFILEEDGES
  0
POLYLINE
  5
198
  8
PROFILEEDGES
 66
     1
 10
0.0
 20
0.0
 30
0.0
  0
VERTEX
  5
383
  8
PROFILEEDGES
 10
-29.27130028307182
 20
-83.55269423716888
 30
0.0
 40
0.7573906202630731
 41
0.7573906202630731
  0
VERTEX
  5
384
  8
PROFILEEDGES
 10
-28.70220849186249
 20
-83.31696869901475
 30
0.0
 40
0.7573906202630731
 41
0.7573906202630731
  0
SEQEND
  5
4BD
  8
PROFILEEDGES
  0
POLYLINE
  5
199
  8
PROFILEEDGES
 66
     1
 10
0.0
 20
0.0
 30
0.0
  0
VERTEX
  5
385
  8
PROFILEEDGES
 10
-26.97006831396272
 20
-82.38015798371758
 30
0.0
 40
0.7573906202630731
 41
0.7573906202630731
  0
VERTEX
  5
386
  8
PROFILEEDGES
 10
-26.37265009616219
 20
-81.83851310601025
 30
0.0
 40
0.7573906202630731
 41
0.7573906202630731
  0
SEQEND
  5
4BE
  8
PROFILEEDGES
  0
POLYLINE
  5
19A
  8
PROFILEEDGES
 66
     1
 10
0.0
 20
0.0
 30
0.0
  0
VERTEX
  5
387
  8
PROFILEEDGES
 10
-37.28565792957739
 20
70.12573829183066
 30
0.0
 40
0.7573906202630731
 41
0.7573906202630731
  0
VERTEX
  5
388
  8
PROFILEEDGES
 10
-36.78029810918263
 20
70.58626948019308
 30
0.0
 40
0.7573906202630731
 41
0.7573906202630731
  0
SEQEND
  5
4BF
  8
PROFILEEDGES
  0
POLYLINE
  5
19B
  8
PROFILEEDGES
 66
     1
 10
0.0
 20
0.0
 30
0.0
  0
VERTEX
  5
389
  8
PROFILEEDGES
 10
-36.67440282931153
 20
70.67671259341276
 30
0.0
 40
0.7573906202630731
 41
0.7573906202630731
  0
VERTEX
  5
38A
  8
PROFILEEDGES
 10
-36.78029810918263
 20
70.58626948019308
 30
0.0
 40
0.7573906202630731
 41
0.7573906202630731
  0
SEQEND
  5
4C0
  8
PROFILEEDGES
  0
POLYLINE
  5
19C
  8
PROFILEEDGES
 66
     1
 10
0.0
 20
0.0
 30
0.0
  0
VERTEX
  5
38B
  8
PROFILEEDGES
 10
-35.56992714698712
 20
71.35353616202256
 30
0.0
 40
0.7573906202630731
 41
0.7573906202630731
  0
VERTEX
  5
38C
  8
PROFILEEDGES
 10
-35.3494318013461
 20
71.4312014779108
 30
0.0
 40
0.7573906202630731
 41
0.7573906202630731
  0
SEQEND
  5
4C1
  8
PROFILEEDGES
  0
POLYLINE
  5
19D
  8
PROFILEEDGES
 66
     1
 10
0.0
 20
0.0
 30
0.0
  0
VERTEX
  5
38D
  8
PROFILEEDGES
 10
-30.53086906273006
 20
72.15164455646047
 30
0.0
 40
0.7573906202630731
 41
0.7573906202630731
  0
VERTEX
  5
38E
  8
PROFILEEDGES
 10
-29.87341732909694
 20
71.99380436009476
 30
0.0
 40
0.7573906202630731
 41
0.7573906202630731
  0
SEQEND
  5
4C2
  8
PROFILEEDGES
  0
POLYLINE
  5
19E
  8
PROFILEEDGES
 66
     1
 10
0.0
 20
0.0
 30
0.0
  0
VERTEX
  5
38F
  8
PROFILEEDGES
 10
-25.98506909294208
 20
69.83544378354253
 30
0.0
 40
0.7573906202630731
 41
0.7573906202630731
  0
VERTEX
  5
390
  8
PROFILEEDGES
 10
-25.48859540908713
 20
69.25414778621459
 30
0.0
 40
0.7573906202630731
 41
0.7573906202630731
  0
SEQEND
  5
4C3
  8
PROFILEEDGES
  0
POLYLINE
  5
19F
  8
PROFILEEDGES
 66
     1
 10
0.0
 20
0.0
 30
0.0
  0
VERTEX
  5
391
  8
PROFILEEDGES
 10
-30.53086906273006
 20
-83.85508994676526
 30
0.0
 40
0.7573906202630731
 41
0.7573906202630731
  0
VERTEX
  5
392
  8
PROFILEEDGES
 10
-29.87341732909687
 20
-83.69724975039955
 30
0.0
 40
0.7573906202630731
 41
0.7573906202630731
  0
SEQEND
  5
4C4
  8
PROFILEEDGES
  0
POLYLINE
  5
1A0
  8
PROFILEEDGES
 66
     1
 10
0.0
 20
0.0
 30
0.0
  0
VERTEX
  5
393
  8
PROFILEEDGES
 10
-25.98506909294208
 20
-81.53888917384734
 30
0.0
 40
0.7573906202630731
 41
0.7573906202630731
  0
VERTEX
  5
394
  8
PROFILEEDGES
 10
-25.48859540908712
 20
-80.95759317651938
 30
0.0
 40
0.7573906202630731
 41
0.7573906202630731
  0
SEQEND
  5
4C5
  8
PROFILEEDGES
  0
POLYLINE
  5
1A1
  8
PROFILEEDGES
 66
     1
 10
0.0
 20
0.0
 30
0.0
  0
VERTEX
  5
395
  8
PROFILEEDGES
 10
-28.70220849186249
 20
-83.31696869901475
 30
0.0
 40
0.7573906202630731
 41
0.7573906202630731
  0
VERTEX
  5
396
  8
PROFILEEDGES
 10
-28.07454399628713
 20
-83.05698155232737
 30
0.0
 40
0.7573906202630731
 41
0.7573906202630731
  0
SEQEND
  5
4C6
  8
PROFILEEDGES
  0
POLYLINE
  5
1A2
  8
PROFILEEDGES
 66
     1
 10
0.0
 20
0.0
 30
0.0
  0
VERTEX
  5
397
  8
PROFILEEDGES
 10
-28.07454399628713
 20
-68.34646383797741
 30
0.0
 40
0.7573906202630731
 41
0.7573906202630731
  0
VERTEX
  5
398
  8
PROFILEEDGES
 10
-29.27130028307182
 20
-67.85075115313589
 30
0.0
 40
0.7573906202630731
 41
0.7573906202630731
  0
SEQEND
  5
4C7
  8
PROFILEEDGES
  0
POLYLINE
  5
1A3
  8
PROFILEEDGES
 66
     1
 10
0.0
 20
0.0
 30
0.0
  0
VERTEX
  5
399
  8
PROFILEEDGES
 10
-30.53086906273006
 20
-67.54835544353952
 30
0.0
 40
0.7573906202630731
 41
0.7573906202630731
  0
VERTEX
  5
39A
  8
PROFILEEDGES
 10
-29.27130028307182
 20
-67.85075115313589
 30
0.0
 40
0.7573906202630731
 41
0.7573906202630731
  0
SEQEND
  5
4C8
  8
PROFILEEDGES
  0
POLYLINE
  5
1A4
  8
PROFILEEDGES
 66
     1
 10
0.0
 20
0.0
 30
0.0
  0
VERTEX
  5
39B
  8
PROFILEEDGES
 10
-26.97006831396272
 20
-69.02328740658719
 30
0.0
 40
0.7573906202630731
 41
0.7573906202630731
  0
VERTEX
  5
39C
  8
PROFILEEDGES
 10
-28.07454399628713
 20
-68.34646383797741
 30
0.0
 40
0.7573906202630731
 41
0.7573906202630731
  0
SEQEND
  5
4C9
  8
PROFILEEDGES
  0
POLYLINE
  5
1A5
  8
PROFILEEDGES
 66
     1
 10
0.0
 20
0.0
 30
0.0
  0
VERTEX
  5
39D
  8
PROFILEEDGES
 10
-26.97006831396272
 20
-69.02328740658719
 30
0.0
 40
0.7573906202630731
 41
0.7573906202630731
  0
VERTEX
  5
39E
  8
PROFILEEDGES
 10
-25.98506909294208
 20
-69.86455621645744
 30
0.0
 40
0.7573906202630731
 41
0.7573906202630731
  0
SEQEND
  5
4CA
  8
PROFILEEDGES
  0
POLYLINE
  5
1A6
  8
PROFILEEDGES
 66
     1
 10
0.0
 20
0.0
 30
0.0
  0
VERTEX
  5
39F
  8
PROFILEEDGES
 10
-24.80523789611544
 20
-80.00140635047342
 30
0.0
 40
0.7573906202630731
 41
0.7573906202630731
  0
VERTEX
  5
3A0
  8
PROFILEEDGES
 10
-24.46697671446216
 20
-79.44941427050234
 30
0.0
 40
0.7573906202630731
 41
0.7573906202630731
  0
SEQEND
  5
4CB
  8
PROFILEEDGES
  0
POLYLINE
  5
1A7
  8
PROFILEEDGES
 66
     1
 10
0.0
 20
0.0
 30
0.0
  0
VERTEX
  5
3A1
  8
PROFILEEDGES
 10
-23.66886832002426
 20
-74.4103561862453
 30
0.0
 40
0.7573906202630731
 41
0.7573906202630731
  0
VERTEX
  5
3A2
  8
PROFILEEDGES
 10
-23.97126402962056
 20
-73.1507874065872
 30
0.0
 40
0.7573906202630731
 41
0.7573906202630731
  0
SEQEND
  5
4CC
  8
PROFILEEDGES
  0
POLYLINE
  5
1A8
  8
PROFILEEDGES
 66
     1
 10
0.0
 20
0.0
 30
0.0
  0
VERTEX
  5
3A3
  8
PROFILEEDGES
 10
-23.66886832002426
 20
-74.4103561862453
 30
0.0
 40
0.7573906202630731
 41
0.7573906202630731
  0
VERTEX
  5
3A4
  8
PROFILEEDGES
 10
-23.62140009712638
 20
-75.01349714484832
 30
0.0
 40
0.7573906202630731
 41
0.7573906202630731
  0
SEQEND
  5
4CD
  8
PROFILEEDGES
  0
POLYLINE
  5
1A9
  8
PROFILEEDGES
 66
     1
 10
0.0
 20
0.0
 30
0.0
  0
VERTEX
  5
3A5
  8
PROFILEEDGES
 10
-34.37317086020225
 20
56.14730576283107
 30
0.0
 40
0.7573906202630731
 41
0.7573906202630731
  0
VERTEX
  5
3A6
  8
PROFILEEDGES
 10
-33.11360208054419
 20
55.84491005323473
 30
0.0
 40
0.7573906202630731
 41
0.7573906202630731
  0
SEQEND
  5
4CE
  8
PROFILEEDGES
  0
POLYLINE
  5
1AA
  8
PROFILEEDGES
 66
     1
 10
0.0
 20
0.0
 30
0.0
  0
VERTEX
  5
3A7
  8
PROFILEEDGES
 10
-37.659402050332
 20
58.16111082615263
 30
0.0
 40
0.7573906202630731
 41
0.7573906202630731
  0
VERTEX
  5
3A8
  8
PROFILEEDGES
 10
-37.11944245062932
 20
57.69994176111594
 30
0.0
 40
0.7573906202630731
 41
0.7573906202630731
  0
SEQEND
  5
4CF
  8
PROFILEEDGES
  0
POLYLINE
  5
1AB
  8
PROFILEEDGES
 66
     1
 10
0.0
 20
0.0
 30
0.0
  0
VERTEX
  5
3A9
  8
PROFILEEDGES
 10
-38.50067086020229
 20
59.14611004717321
 30
0.0
 40
0.7573906202630731
 41
0.7573906202630731
  0
VERTEX
  5
3AA
  8
PROFILEEDGES
 10
-37.659402050332
 20
58.16111082615263
 30
0.0
 40
0.7573906202630731
 41
0.7573906202630731
  0
SEQEND
  5
4D0
  8
PROFILEEDGES
  0
POLYLINE
  5
1AC
  8
PROFILEEDGES
 66
     1
 10
0.0
 20
0.0
 30
0.0
  0
VERTEX
  5
3AB
  8
PROFILEEDGES
 10
-38.50067086020229
 20
59.14611004717321
 30
0.0
 40
0.7573906202630731
 41
0.7573906202630731
  0
VERTEX
  5
3AC
  8
PROFILEEDGES
 10
-39.1774944288121
 20
60.25058572949762
 30
0.0
 40
0.7573906202630731
 41
0.7573906202630731
  0
SEQEND
  5
4D1
  8
PROFILEEDGES
  0
POLYLINE
  5
1AD
  8
PROFILEEDGES
 66
     1
 10
0.0
 20
0.0
 30
0.0
  0
VERTEX
  5
3AD
  8
PROFILEEDGES
 10
-39.97560282324999
 20
65.28964381375468
 30
0.0
 40
0.7573906202630731
 41
0.7573906202630731
  0
VERTEX
  5
3AE
  8
PROFILEEDGES
 10
-40.03485535824835
 20
64.53676897292796
 30
0.0
 40
0.7573906202630731
 41
0.7573906202630731
  0
SEQEND
  5
4D2
  8
PROFILEEDGES
  0
POLYLINE
  5
1AE
  8
PROFILEEDGES
 66
     1
 10
0.0
 20
0.0
 30
0.0
  0
VERTEX
  5
3AF
  8
PROFILEEDGES
 10
-39.67320711365351
 20
66.54921259341276
 30
0.0
 40
0.7573906202630731
 41
0.7573906202630731
  0
VERTEX
  5
3B0
  8
PROFILEEDGES
 10
-39.97560282324999
 20
65.28964381375468
 30
0.0
 40
0.7573906202630731
 41
0.7573906202630731
  0
SEQEND
  5
4D3
  8
PROFILEEDGES
  0
POLYLINE
  5
1AF
  8
PROFILEEDGES
 66
     1
 10
0.0
 20
0.0
 30
0.0
  0
VERTEX
  5
3B1
  8
PROFILEEDGES
 10
-33.11360208054419
 20
72.15164455646047
 30
0.0
 40
0.7573906202630731
 41
0.7573906202630731
  0
VERTEX
  5
3B2
  8
PROFILEEDGES
 10
-33.71176763060237
 20
72.008037713478
 30
0.0
 40
0.7573906202630731
 41
0.7573906202630731
  0
SEQEND
  5
4D4
  8
PROFILEEDGES
  0
POLYLINE
  5
1B0
  8
PROFILEEDGES
 66
     1
 10
0.0
 20
0.0
 30
0.0
  0
VERTEX
  5
3B3
  8
PROFILEEDGES
 10
-37.659402050332
 20
69.83544378354253
 30
0.0
 40
0.7573906202630731
 41
0.7573906202630731
  0
VERTEX
  5
3B4
  8
PROFILEEDGES
 10
-38.11952065106043
 20
69.29671411951938
 30
0.0
 40
0.7573906202630731
 41
0.7573906202630731
  0
SEQEND
  5
4D5
  8
PROFILEEDGES
  0
POLYLINE
  5
1B1
  8
PROFILEEDGES
 66
     1
 10
0.0
 20
0.0
 30
0.0
  0
VERTEX
  5
3B5
  8
PROFILEEDGES
 10
-24.46697671446216
 20
67.74596888019754
 30
0.0
 40
0.7573906202630731
 41
0.7573906202630731
  0
VERTEX
  5
3B6
  8
PROFILEEDGES
 10
-24.8052378961154
 20
68.29796096016854
 30
0.0
 40
0.7573906202630731
 41
0.7573906202630731
  0
SEQEND
  5
4D6
  8
PROFILEEDGES
  0
POLYLINE
  5
1B2
  8
PROFILEEDGES
 66
     1
 10
0.0
 20
0.0
 30
0.0
  0
VERTEX
  5
3B7
  8
PROFILEEDGES
 10
-23.66886832002426
 20
62.70691079594048
 30
0.0
 40
0.7573906202630731
 41
0.7573906202630731
  0
VERTEX
  5
3B8
  8
PROFILEEDGES
 10
-23.62140009712638
 20
63.31005175454352
 30
0.0
 40
0.7573906202630731
 41
0.7573906202630731
  0
SEQEND
  5
4D7
  8
PROFILEEDGES
  0
POLYLINE
  5
1B3
  8
PROFILEEDGES
 66
     1
 10
0.0
 20
0.0
 30
0.0
  0
VERTEX
  5
3B9
  8
PROFILEEDGES
 10
-23.66886832002426
 20
62.70691079594048
 30
0.0
 40
0.7573906202630731
 41
0.7573906202630731
  0
VERTEX
  5
3BA
  8
PROFILEEDGES
 10
-23.97126402962056
 20
61.44734201628238
 30
0.0
 40
0.7573906202630731
 41
0.7573906202630731
  0
SEQEND
  5
4D8
  8
PROFILEEDGES
  0
POLYLINE
  5
1B4
  8
PROFILEEDGES
 66
     1
 10
0.0
 20
0.0
 30
0.0
  0
VERTEX
  5
3BB
  8
PROFILEEDGES
 10
-28.07454399628713
 20
71.35353616202256
 30
0.0
 40
0.7573906202630731
 41
0.7573906202630731
  0
VERTEX
  5
3BC
  8
PROFILEEDGES
 10
-28.70220849186249
 20
71.61352330870996
 30
0.0
 40
0.7573906202630731
 41
0.7573906202630731
  0
SEQEND
  5
4D9
  8
PROFILEEDGES
  0
POLYLINE
  5
1B5
  8
PROFILEEDGES
 66
     1
 10
0.0
 20
0.0
 30
0.0
  0
VERTEX
  5
3BD
  8
PROFILEEDGES
 10
-25.98506909294208
 20
69.83544378354253
 30
0.0
 40
0.7573906202630731
 41
0.7573906202630731
  0
VERTEX
  5
3BE
  8
PROFILEEDGES
 10
-26.97006831396272
 20
70.67671259341277
 30
0.0
 40
0.7573906202630731
 41
0.7573906202630731
  0
SEQEND
  5
4DA
  8
PROFILEEDGES
  0
POLYLINE
  5
1B6
  8
PROFILEEDGES
 66
     1
 10
0.0
 20
0.0
 30
0.0
  0
VERTEX
  5
3BF
  8
PROFILEEDGES
 10
-26.97006831396272
 20
57.31984201628239
 30
0.0
 40
0.7573906202630731
 41
0.7573906202630731
  0
VERTEX
  5
3C0
  8
PROFILEEDGES
 10
-25.98506909294208
 20
58.16111082615263
 30
0.0
 40
0.7573906202630731
 41
0.7573906202630731
  0
SEQEND
  5
4DB
  8
PROFILEEDGES
  0
POLYLINE
  5
1B7
  8
PROFILEEDGES
 66
     1
 10
0.0
 20
0.0
 30
0.0
  0
VERTEX
  5
3C1
  8
PROFILEEDGES
 10
-26.97006831396272
 20
57.31984201628239
 30
0.0
 40
0.7573906202630731
 41
0.7573906202630731
  0
VERTEX
  5
3C2
  8
PROFILEEDGES
 10
-28.07454399628713
 20
56.6430184476726
 30
0.0
 40
0.7573906202630731
 41
0.7573906202630731
  0
SEQEND
  5
4DC
  8
PROFILEEDGES
  0
POLYLINE
  5
1B8
  8
PROFILEEDGES
 66
     1
 10
0.0
 20
0.0
 30
0.0
  0
VERTEX
  5
3C3
  8
PROFILEEDGES
 10
-29.27130028307182
 20
56.14730576283107
 30
0.0
 40
0.7573906202630731
 41
0.7573906202630731
  0
VERTEX
  5
3C4
  8
PROFILEEDGES
 10
-28.07454399628713
 20
56.6430184476726
 30
0.0
 40
0.7573906202630731
 41
0.7573906202630731
  0
SEQEND
  5
4DD
  8
PROFILEEDGES
  0
POLYLINE
  5
1B9
  8
PROFILEEDGES
 66
     1
 10
0.0
 20
0.0
 30
0.0
  0
VERTEX
  5
3C5
  8
PROFILEEDGES
 10
-30.53086906273006
 20
55.84491005323473
 30
0.0
 40
0.7573906202630731
 41
0.7573906202630731
  0
VERTEX
  5
3C6
  8
PROFILEEDGES
 10
-29.27130028307182
 20
56.14730576283107
 30
0.0
 40
0.7573906202630731
 41
0.7573906202630731
  0
SEQEND
  5
4DE
  8
PROFILEEDGES
  0
POLYLINE
  5
1BA
  8
PROFILEEDGES
 66
     1
 10
0.0
 20
0.0
 30
0.0
  0
VERTEX
  5
3C7
  8
PROFILEEDGES
 10
-34.37317086020225
 20
-67.85075115313589
 30
0.0
 40
0.7573906202630731
 41
0.7573906202630731
  0
VERTEX
  5
3C8
  8
PROFILEEDGES
 10
-33.11360208054419
 20
-67.54835544353952
 30
0.0
 40
0.7573906202630731
 41
0.7573906202630731
  0
SEQEND
  5
4DF
  8
PROFILEEDGES
  0
POLYLINE
  5
1BB
  8
PROFILEEDGES
 66
     1
 10
0.0
 20
0.0
 30
0.0
  0
VERTEX
  5
3C9
  8
PROFILEEDGES
 10
-39.97560282324999
 20
-76.99308920405949
 30
0.0
 40
0.7573906202630731
 41
0.7573906202630731
  0
VERTEX
  5
3CA
  8
PROFILEEDGES
 10
-39.67320711365351
 20
-78.25265798371757
 30
0.0
 40
0.7573906202630731
 41
0.7573906202630731
  0
SEQEND
  5
4E0
  8
PROFILEEDGES
  0
POLYLINE
  5
1BC
  8
PROFILEEDGES
 66
     1
 10
0.0
 20
0.0
 30
0.0
  0
VERTEX
  5
3CB
  8
PROFILEEDGES
 10
-39.97560282324999
 20
-76.99308920405949
 30
0.0
 40
0.7573906202630731
 41
0.7573906202630731
  0
VERTEX
  5
3CC
  8
PROFILEEDGES
 10
-40.03485535824835
 20
-76.24021436323277
 30
0.0
 40
0.7573906202630731
 41
0.7573906202630731
  0
SEQEND
  5
4E1
  8
PROFILEEDGES
  0
POLYLINE
  5
1BD
  8
PROFILEEDGES
 66
     1
 10
0.0
 20
0.0
 30
0.0
  0
VERTEX
  5
3CD
  8
PROFILEEDGES
 10
-37.659402050332
 20
-81.53888917384734
 30
0.0
 40
0.7573906202630731
 41
0.7573906202630731
  0
VERTEX
  5
3CE
  8
PROFILEEDGES
 10
-38.11952065106042
 20
-81.00015950982419
 30
0.0
 40
0.7573906202630731
 41
0.7573906202630731
  0
SEQEND
  5
4E2
  8
PROFILEEDGES
  0
POLYLINE
  5
1BE
  8
PROFILEEDGES
 66
     1
 10
0.0
 20
0.0
 30
0.0
  0
VERTEX
  5
3CF
  8
PROFILEEDGES
 10
-33.11360208054419
 20
-83.85508994676526
 30
0.0
 40
0.7573906202630731
 41
0.7573906202630731
  0
VERTEX
  5
3D0
  8
PROFILEEDGES
 10
-33.71176763060242
 20
-83.7114831037828
 30
0.0
 40
0.7573906202630731
 41
0.7573906202630731
  0
SEQEND
  5
4E3
  8
PROFILEEDGES
  0
POLYLINE
  5
1BF
  8
PROFILEEDGES
 66
     1
 10
0.0
 20
0.0
 30
0.0
  0
VERTEX
  5
3D1
  8
PROFILEEDGES
 10
-39.1774944288121
 20
-71.95403111980242
 30
0.0
 40
0.7573906202630731
 41
0.7573906202630731
  0
VERTEX
  5
3D2
  8
PROFILEEDGES
 10
-38.50067086020229
 20
-70.84955543747802
 30
0.0
 40
0.7573906202630731
 41
0.7573906202630731
  0
SEQEND
  5
4E4
  8
PROFILEEDGES
  0
POLYLINE
  5
1C0
  8
PROFILEEDGES
 66
     1
 10
0.0
 20
0.0
 30
0.0
  0
VERTEX
  5
3D3
  8
PROFILEEDGES
 10
-36.67440282931153
 20
-82.38015798371757
 30
0.0
 40
0.7573906202630731
 41
0.7573906202630731
  0
VERTEX
  5
3D4
  8
PROFILEEDGES
 10
-37.659402050332
 20
-81.53888917384734
 30
0.0
 40
0.7573906202630731
 41
0.7573906202630731
  0
SEQEND
  5
4E5
  8
PROFILEEDGES
  0
POLYLINE
  5
1C1
  8
PROFILEEDGES
 66
     1
 10
0.0
 20
0.0
 30
0.0
  0
VERTEX
  5
3D5
  8
PROFILEEDGES
 10
-37.659402050332
 20
-69.86455621645744
 30
0.0
 40
0.7573906202630731
 41
0.7573906202630731
  0
VERTEX
  5
3D6
  8
PROFILEEDGES
 10
-38.50067086020229
 20
-70.84955543747802
 30
0.0
 40
0.7573906202630731
 41
0.7573906202630731
  0
SEQEND
  5
4E6
  8
PROFILEEDGES
  0
POLYLINE
  5
1C2
  8
PROFILEEDGES
 66
     1
 10
0.0
 20
0.0
 30
0.0
  0
VERTEX
  5
3D7
  8
PROFILEEDGES
 10
-37.659402050332
 20
-69.86455621645744
 30
0.0
 40
0.7573906202630731
 41
0.7573906202630731
  0
VERTEX
  5
3D8
  8
PROFILEEDGES
 10
-37.11944245062932
 20
-69.40338715142074
 30
0.0
 40
0.7573906202630731
 41
0.7573906202630731
  0
SEQEND
  5
4E7
  8
PROFILEEDGES
  0
POLYLINE
  5
1C3
  8
PROFILEEDGES
 66
     1
 10
0.0
 20
0.0
 30
0.0
  0
VERTEX
  5
3D9
  8
PROFILEEDGES
 10
173.9877644283631
 20
36.69327730484761
 30
0.0
 40
0.7573906202630731
 41
0.7573906202630731
  0
VERTEX
  5
3DA
  8
PROFILEEDGES
 10
173.9877644283631
 20
-48.39672269515242
 30
0.0
 40
0.7573906202630731
 41
0.7573906202630731
  0
SEQEND
  5
4E8
  8
PROFILEEDGES
  0
POLYLINE
  5
1C4
  8
PROFILEEDGES
 66
     1
 10
0.0
 20
0.0
 30
0.0
  0
VERTEX
  5
3DB
  8
PROFILEEDGES
 10
115.5677644283631
 20
-118.8817226951524
 30
0.0
 40
0.7573906202630731
 41
0.7573906202630731
  0
VERTEX
  5
3DC
  8
PROFILEEDGES
 10
115.5677644283631
 20
107.1782773048476
 30
0.0
 40
0.7573906202630731
 41
0.7573906202630731
  0
SEQEND
  5
4E9
  8
PROFILEEDGES
  0
POLYLINE
  5
1C5
  8
PROFILEEDGES
 66
     1
 10
0.0
 20
0.0
 30
0.0
  0
VERTEX
  5
3DD
  8
PROFILEEDGES
 10
153.6677644283631
 20
-126.5017226951524
 30
0.0
 40
0.7573906202630731
 41
0.7573906202630731
  0
VERTEX
  5
3DE
  8
PROFILEEDGES
 10
153.6677644283631
 20
-48.39672269515242
 30
0.0
 40
0.7573906202630731
 41
0.7573906202630731
  0
SEQEND
  5
4EA
  8
PROFILEEDGES
  0
POLYLINE
  5
1C6
  8
PROFILEEDGES
 66
     1
 10
0.0
 20
0.0
 30
0.0
  0
VERTEX
  5
3DF
  8
PROFILEEDGES
 10
153.6677644283631
 20
114.7982773048476
 30
0.0
 40
0.7573906202630731
 41
0.7573906202630731
  0
VERTEX
  5
3E0
  8
PROFILEEDGES
 10
153.6677644283631
 20
36.69327730484761
 30
0.0
 40
0.7573906202630731
 41
0.7573906202630731
  0
SEQEND
  5
4EB
  8
PROFILEEDGES
  0
POLYLINE
  5
1C7
  8
PROFILEEDGES
 66
     1
 10
0.0
 20
0.0
 30
0.0
  0
VERTEX
  5
3E1
  8
PROFILEEDGES
 10
153.6677644283631
 20
-48.39672269515242
 30
0.0
 40
0.7573906202630731
 41
0.7573906202630731
  0
VERTEX
  5
3E2
  8
PROFILEEDGES
 10
153.6677644283631
 20
36.69327730484761
 30
0.0
 40
0.7573906202630731
 41
0.7573906202630731
  0
SEQEND
  5
4EC
  8
PROFILEEDGES
  0
ENDSEC
  0
EOF
