  0
SECTION
  2
HEADER
  9
$ACADVER
  1
AC1009
  9
$DWGCODEPAGE
  3
ansi_1252
  9
$INSBASE
 10
0.0
 20
0.0
 30
0.0
  9
$EXTMIN
 10
1.000000000000000E+20
 20
1.000000000000000E+20
 30
1.000000000000000E+20
  9
$EXTMAX
 10
-1.000000000000000E+20
 20
-1.000000000000000E+20
 30
-1.000000000000000E+20
  9
$LIMMIN
 10
0.0
 20
0.0
  9
$LIMMAX
 10
12.0
 20
9.0
  9
$ORTHOMODE
 70
     0
  9
$REGENMODE
 70
     1
  9
$FILLMODE
 70
     1
  9
$QTEXTMODE
 70
     0
  9
$MIRRTEXT
 70
     1
  9
$DRAGMODE
 70
     2
  9
$LTSCALE
 40
1.0
  9
$OSMODE
 70
    37
  9
$ATTMODE
 70
     1
  9
$TEXTSIZE
 40
0.2
  9
$TRACEWID
 40
0.05
  9
$TEXTSTYLE
  7
STANDARD
  9
$CLAYER
  8
0
  9
$CELTYPE
  6
BYLAYER
  9
$CECOLOR
 62
   256
  9
$DIMSCALE
 40
1.0
  9
$DIMASZ
 40
0.18
  9
$DIMEXO
 40
0.0625
  9
$DIMDLI
 40
0.38
  9
$DIMRND
 40
0.0
  9
$DIMDLE
 40
0.0
  9
$DIMEXE
 40
0.18
  9
$DIMTP
 40
0.0
  9
$DIMTM
 40
0.0
  9
$DIMTXT
 40
0.18
  9
$DIMCEN
 40
0.09
  9
$DIMTSZ
 40
0.0
  9
$DIMTOL
 70
     0
  9
$DIMLIM
 70
     0
  9
$DIMTIH
 70
     1
  9
$DIMTOH
 70
     1
  9
$DIMSE1
 70
     0
  9
$DIMSE2
 70
     0
  9
$DIMTAD
 70
     0
  9
$DIMZIN
 70
     0
  9
$DIMBLK
  1

  9
$DIMASO
 70
     1
  9
$DIMSHO
 70
     1
  9
$DIMPOST
  1

  9
$DIMAPOST
  1

  9
$DIMALT
 70
     0
  9
$DIMALTD
 70
     2
  9
$DIMALTF
 40
25.4
  9
$DIMLFAC
 40
1.0
  9
$DIMTOFL
 70
     0
  9
$DIMTVP
 40
0.0
  9
$DIMTIX
 70
     0
  9
$DIMSOXD
 70
     0
  9
$DIMSAH
 70
     0
  9
$DIMBLK1
  1

  9
$DIMBLK2
  1

  9
$DIMSTYLE
  2
STANDARD
  9
$DIMCLRD
 70
     0
  9
$DIMCLRE
 70
     0
  9
$DIMCLRT
 70
     0
  9
$DIMTFAC
 40
1.0
  9
$DIMGAP
 40
0.09
  9
$LUNITS
 70
     2
  9
$LUPREC
 70
     4
  9
$SKETCHINC
 40
0.1
  9
$FILLETRAD
 40
0.0
  9
$AUNITS
 70
     0
  9
$AUPREC
 70
     0
  9
$MENU
  1
.
  9
$ELEVATION
 40
0.0
  9
$PELEVATION
 40
0.0
  9
$THICKNESS
 40
0.0
  9
$LIMCHECK
 70
     0
  9
$CHAMFERA
 40
0.0
  9
$CHAMFERB
 40
0.0
  9
$SKPOLY
 70
     0
  9
$TDCREATE
 40
2460273.636236667
  9
$TDUPDATE
 40
2460273.636239966
  9
$TDINDWG
 40
0.0000000116
  9
$TDUSRTIMER
 40
0.0000000116
  9
$USRTIMER
 70
     1
  9
$ANGBASE
 50
0.0
  9
$ANGDIR
 70
     0
  9
$PDMODE
 70
     0
  9
$PDSIZE
 40
0.0
  9
$PLINEWID
 40
0.0
  9
$COORDS
 70
     1
  9
$SPLFRAME
 70
     0
  9
$SPLINETYPE
 70
     6
  9
$SPLINESEGS
 70
     8
  9
$ATTDIA
 70
     0
  9
$ATTREQ
 70
     1
  9
$HANDLING
 70
     1
  9
$HANDSEED
  5
F41
  9
$SURFTAB1
 70
     6
  9
$SURFTAB2
 70
     6
  9
$SURFTYPE
 70
     6
  9
$SURFU
 70
     6
  9
$SURFV
 70
     6
  9
$UCSNAME
  2

  9
$UCSORG
 10
0.0
 20
0.0
 30
0.0
  9
$UCSXDIR
 10
1.0
 20
0.0
 30
0.0
  9
$UCSYDIR
 10
0.0
 20
1.0
 30
0.0
  9
$PUCSNAME
  2

  9
$PUCSORG
 10
0.0
 20
0.0
 30
0.0
  9
$PUCSXDIR
 10
1.0
 20
0.0
 30
0.0
  9
$PUCSYDIR
 10
0.0
 20
1.0
 30
0.0
  9
$USERI1
 70
     0
  9
$USERI2
 70
     0
  9
$USERI3
 70
     0
  9
$USERI4
 70
     0
  9
$USERI5
 70
     0
  9
$USERR1
 40
0.0
  9
$USERR2
 40
0.0
  9
$USERR3
 40
0.0
  9
$USERR4
 40
0.0
  9
$USERR5
 40
0.0
  9
$WORLDVIEW
 70
     1
  9
$SHADEDGE
 70
     3
  9
$SHADEDIF
 70
    70
  9
$TILEMODE
 70
     1
  9
$MAXACTVP
 70
    64
  9
$PLIMCHECK
 70
     0
  9
$PEXTMIN
 10
1.000000000000000E+20
 20
1.000000000000000E+20
 30
1.000000000000000E+20
  9
$PEXTMAX
 10
-1.000000000000000E+20
 20
-1.000000000000000E+20
 30
-1.000000000000000E+20
  9
$PLIMMIN
 10
0.0
 20
0.0
  9
$PLIMMAX
 10
12.0
 20
9.0
  9
$UNITMODE
 70
     0
  9
$VISRETAIN
 70
     1
  9
$PLINEGEN
 70
     0
  9
$PSLTSCALE
 70
     1
  0
ENDSEC
  0
SECTION
  2
TABLES
  0
TABLE
  2
VPORT
 70
     1
  0
VPORT
  2
*ACTIVE
 70
     0
 10
0.0
 20
0.0
 11
1.0
 21
1.0
 12
0.0
 22
0.0
 13
0.0
 23
0.0
 14
0.5
 24
0.5
 15
0.5
 25
0.5
 16
0.0
 26
0.0
 36
1.0
 17
0.0
 27
0.0
 37
-1000.0
 40
286.3832409382953
 41
1.658454647256439
 42
50.0
 43
692.925538693565
 44
920.5892599296526
 50
0.0
 51
0.0
 71
     0
 72
   100
 73
     1
 74
     3
 75
     0
 76
     0
 77
     0
 78
     0
  0
ENDTAB
  0
TABLE
  2
LTYPE
 70
     1
  0
LTYPE
  2
CONTINUOUS
 70
     0
  3
Solid line
 72
    65
 73
     0
 40
0.0
  0
ENDTAB
  0
TABLE
  2
LAYER
 70
     3
  0
LAYER
  2
0
 70
     0
 62
     7
  6
CONTINUOUS
  0
LAYER
  2
PROFILEEDGES
 70
     0
 62
     7
  6
CONTINUOUS
  0
LAYER
  2
SECTIONCUTEDGES
 70
     0
 62
     7
  6
CONTINUOUS
  0
ENDTAB
  0
TABLE
  2
STYLE
 70
     1
  0
STYLE
  2
STANDARD
 70
     0
 40
0.0
 41
1.0
 50
0.0
 71
     0
 42
0.2
  3
txt
  4

  0
ENDTAB
  0
TABLE
  2
VIEW
 70
     0
  0
ENDTAB
  0
TABLE
  2
UCS
 70
     0
  0
ENDTAB
  0
TABLE
  2
APPID
 70
     1
  0
APPID
  2
ACAD
 70
     0
  0
ENDTAB
  0
TABLE
  2
DIMSTYLE
 70
     1
  0
DIMSTYLE
  2
STANDARD
 70
     0
  3

  4

  5

  6

  7

 40
1.0
 41
0.18
 42
0.0625
 43
0.38
 44
0.18
 45
0.0
 46
0.0
 47
0.0
 48
0.0
140
0.18
141
0.09
142
0.0
143
25.4
144
1.0
145
0.0
146
1.0
147
0.09
 71
     0
 72
     0
 73
     1
 74
     1
 75
     0
 76
     0
 77
     0
 78
     0
170
     0
171
     2
172
     0
173
     0
174
     0
175
     0
176
     0
177
     0
178
     0
  0
ENDTAB
  0
ENDSEC
  0
SECTION
  2
BLOCKS
  0
BLOCK
  8
0
  2
$MODEL_SPACE
 70
     0
 10
0.0
 20
0.0
 30
0.0
  3
$MODEL_SPACE
  1

  0
ENDBLK
  5
21
  8
0
  0
BLOCK
 67
     1
  8
0
  2
$PAPER_SPACE
 70
     0
 10
0.0
 20
0.0
 30
0.0
  3
$PAPER_SPACE
  1

  0
ENDBLK
  5
1D
 67
     1
  8
0
  0
ENDSEC
  0
SECTION
  2
ENTITIES
  0
LINE
  5
60
  8
0
 10
-41.01381781124967
 20
-52.77032008236991
 30
0.0
 11
-41.01381781124981
 21
-111.71594008237
 31
0.0
  0
POLYLINE
  5
61
  8
PROFILEEDGES
 66
     1
 10
0.0
 20
0.0
 30
0.0
  0
VERTEX
  5
428
  8
PROFILEEDGES
 10
-43.02464787626784
 20
-52.77032008236993
 30
0.0
 40
25.4
 41
25.4
  0
VERTEX
  5
429
  8
PROFILEEDGES
 10
-43.02464787626798
 20
-111.71594008237
 30
0.0
 40
25.4
 41
25.4
  0
SEQEND
  5
B8E
  8
PROFILEEDGES
  0
LINE
  5
62
  8
0
 10
-34.05254989869211
 20
-52.77032008236986
 30
0.0
 11
-34.05254989869224
 21
-111.7159400823702
 31
0.0
  0
POLYLINE
  5
63
  8
PROFILEEDGES
 66
     1
 10
0.0
 20
0.0
 30
0.0
  0
VERTEX
  5
42A
  8
PROFILEEDGES
 10
-111.9666376407234
 20
-52.77032008236977
 30
0.0
 40
25.4
 41
25.4
  0
VERTEX
  5
42B
  8
PROFILEEDGES
 10
-111.9666376407235
 20
-111.7159400823699
 30
0.0
 40
25.4
 41
25.4
  0
SEQEND
  5
B8F
  8
PROFILEEDGES
  0
LINE
  5
64
  8
0
 10
-113.9661369233431
 20
-52.77032008236974
 30
0.0
 11
-113.9661369233433
 21
-111.7159400823699
 31
0.0
  0
LINE
  5
65
  8
0
 10
-120.9274048359007
 20
-52.77032008236966
 30
0.0
 11
-120.9274048359008
 21
-111.71594008237
 31
0.0
  0
POLYLINE
  5
66
  8
PROFILEEDGES
 66
     1
 10
0.0
 20
0.0
 30
0.0
  0
VERTEX
  5
42C
  8
PROFILEEDGES
 10
-63.10696826751693
 20
-96.49989056627739
 30
0.0
 40
25.4
 41
25.4
  0
VERTEX
  5
42D
  8
PROFILEEDGES
 10
-62.75357236729489
 20
-96.48832158237032
 30
0.0
 40
25.4
 41
25.4
  0
SEQEND
  5
B90
  8
PROFILEEDGES
  0
POLYLINE
  5
67
  8
PROFILEEDGES
 66
     1
 10
0.0
 20
0.0
 30
0.0
  0
VERTEX
  5
42E
  8
PROFILEEDGES
 10
-63.45885087223661
 20
-96.53454797783344
 30
0.0
 40
25.4
 41
25.4
  0
VERTEX
  5
42F
  8
PROFILEEDGES
 10
-63.10696826751693
 20
-96.49989056627739
 30
0.0
 40
25.4
 41
25.4
  0
SEQEND
  5
B91
  8
PROFILEEDGES
  0
POLYLINE
  5
68
  8
PROFILEEDGES
 66
     1
 10
0.0
 20
0.0
 30
0.0
  0
VERTEX
  5
430
  8
PROFILEEDGES
 10
-63.80771336612727
 20
-96.59214540868145
 30
0.0
 40
25.4
 41
25.4
  0
VERTEX
  5
431
  8
PROFILEEDGES
 10
-63.45885087223661
 20
-96.53454797783344
 30
0.0
 40
25.4
 41
25.4
  0
SEQEND
  5
B92
  8
PROFILEEDGES
  0
POLYLINE
  5
69
  8
PROFILEEDGES
 66
     1
 10
0.0
 20
0.0
 30
0.0
  0
VERTEX
  5
432
  8
PROFILEEDGES
 10
-64.15206186642331
 20
-96.67243621778005
 30
0.0
 40
25.4
 41
25.4
  0
VERTEX
  5
433
  8
PROFILEEDGES
 10
-63.80771336612727
 20
-96.59214540868145
 30
0.0
 40
25.4
 41
25.4
  0
SEQEND
  5
B93
  8
PROFILEEDGES
  0
POLYLINE
  5
6A
  8
PROFILEEDGES
 66
     1
 10
0.0
 20
0.0
 30
0.0
  0
VERTEX
  5
434
  8
PROFILEEDGES
 10
-64.49042181998328
 20
-96.77507658755813
 30
0.0
 40
25.4
 41
25.4
  0
VERTEX
  5
435
  8
PROFILEEDGES
 10
-64.15206186642331
 20
-96.67243621778005
 30
0.0
 40
25.4
 41
25.4
  0
SEQEND
  5
B94
  8
PROFILEEDGES
  0
POLYLINE
  5
6B
  8
PROFILEEDGES
 66
     1
 10
0.0
 20
0.0
 30
0.0
  0
VERTEX
  5
436
  8
PROFILEEDGES
 10
-64.82134431754082
 20
-96.89962699619475
 30
0.0
 40
25.4
 41
25.4
  0
VERTEX
  5
437
  8
PROFILEEDGES
 10
-64.49042181998328
 20
-96.77507658755813
 30
0.0
 40
25.4
 41
25.4
  0
SEQEND
  5
B95
  8
PROFILEEDGES
  0
POLYLINE
  5
6C
  8
PROFILEEDGES
 66
     1
 10
0.0
 20
0.0
 30
0.0
  0
VERTEX
  5
438
  8
PROFILEEDGES
 10
-65.14341229815629
 20
-97.04555409971879
 30
0.0
 40
25.4
 41
25.4
  0
VERTEX
  5
439
  8
PROFILEEDGES
 10
-64.82134431754082
 20
-96.89962699619475
 30
0.0
 40
25.4
 41
25.4
  0
SEQEND
  5
B96
  8
PROFILEEDGES
  0
POLYLINE
  5
6D
  8
PROFILEEDGES
 66
     1
 10
0.0
 20
0.0
 30
0.0
  0
VERTEX
  5
43A
  8
PROFILEEDGES
 10
-65.45524661729712
 20
-97.21223301586978
 30
0.0
 40
25.4
 41
25.4
  0
VERTEX
  5
43B
  8
PROFILEEDGES
 10
-65.14341229815629
 20
-97.04555409971879
 30
0.0
 40
25.4
 41
25.4
  0
SEQEND
  5
B97
  8
PROFILEEDGES
  0
POLYLINE
  5
6E
  8
PROFILEEDGES
 66
     1
 10
0.0
 20
0.0
 30
0.0
  0
VERTEX
  5
43C
  8
PROFILEEDGES
 10
-65.7555119525268
 20
-97.39894999993979
 30
0.0
 40
25.4
 41
25.4
  0
VERTEX
  5
43D
  8
PROFILEEDGES
 10
-65.45524661729712
 20
-97.21223301586978
 30
0.0
 40
25.4
 41
25.4
  0
SEQEND
  5
B98
  8
PROFILEEDGES
  0
POLYLINE
  5
6F
  8
PROFILEEDGES
 66
     1
 10
0.0
 20
0.0
 30
0.0
  0
VERTEX
  5
43E
  8
PROFILEEDGES
 10
-66.04292252158697
 20
-97.60490550113767
 30
0.0
 40
25.4
 41
25.4
  0
VERTEX
  5
43F
  8
PROFILEEDGES
 10
-65.7555119525268
 20
-97.39894999993979
 30
0.0
 40
25.4
 41
25.4
  0
SEQEND
  5
B99
  8
PROFILEEDGES
  0
POLYLINE
  5
70
  8
PROFILEEDGES
 66
     1
 10
0.0
 20
0.0
 30
0.0
  0
VERTEX
  5
440
  8
PROFILEEDGES
 10
-66.31624758829875
 20
-97.8292175863885
 30
0.0
 40
25.4
 41
25.4
  0
VERTEX
  5
441
  8
PROFILEEDGES
 10
-66.04292252158697
 20
-97.60490550113767
 30
0.0
 40
25.4
 41
25.4
  0
SEQEND
  5
B9A
  8
PROFILEEDGES
  0
POLYLINE
  5
71
  8
PROFILEEDGES
 66
     1
 10
0.0
 20
0.0
 30
0.0
  0
VERTEX
  5
442
  8
PROFILEEDGES
 10
-66.57431673275921
 20
-98.07092571690616
 30
0.0
 40
25.4
 41
25.4
  0
VERTEX
  5
443
  8
PROFILEEDGES
 10
-66.31624758829875
 20
-97.8292175863885
 30
0.0
 40
25.4
 41
25.4
  0
SEQEND
  5
B9B
  8
PROFILEEDGES
  0
POLYLINE
  5
72
  8
PROFILEEDGES
 66
     1
 10
0.0
 20
0.0
 30
0.0
  0
VERTEX
  5
444
  8
PROFILEEDGES
 10
-66.81602486327742
 20
-98.32899486136807
 30
0.0
 40
25.4
 41
25.4
  0
VERTEX
  5
445
  8
PROFILEEDGES
 10
-66.57431673275921
 20
-98.07092571690616
 30
0.0
 40
25.4
 41
25.4
  0
SEQEND
  5
B9C
  8
PROFILEEDGES
  0
POLYLINE
  5
73
  8
PROFILEEDGES
 66
     1
 10
0.0
 20
0.0
 30
0.0
  0
VERTEX
  5
446
  8
PROFILEEDGES
 10
-67.04033694852679
 20
-98.60231992807819
 30
0.0
 40
25.4
 41
25.4
  0
VERTEX
  5
447
  8
PROFILEEDGES
 10
-66.81602486327742
 20
-98.32899486136807
 30
0.0
 40
25.4
 41
25.4
  0
SEQEND
  5
B9D
  8
PROFILEEDGES
  0
POLYLINE
  5
74
  8
PROFILEEDGES
 66
     1
 10
0.0
 20
0.0
 30
0.0
  0
VERTEX
  5
448
  8
PROFILEEDGES
 10
-67.24629244972513
 20
-98.8897304971392
 30
0.0
 40
25.4
 41
25.4
  0
VERTEX
  5
449
  8
PROFILEEDGES
 10
-67.04033694852679
 20
-98.60231992807819
 30
0.0
 40
25.4
 41
25.4
  0
SEQEND
  5
B9E
  8
PROFILEEDGES
  0
POLYLINE
  5
75
  8
PROFILEEDGES
 66
     1
 10
0.0
 20
0.0
 30
0.0
  0
VERTEX
  5
44A
  8
PROFILEEDGES
 10
-67.43300943379641
 20
-99.1899958323703
 30
0.0
 40
25.4
 41
25.4
  0
VERTEX
  5
44B
  8
PROFILEEDGES
 10
-67.24629244972513
 20
-98.8897304971392
 30
0.0
 40
25.4
 41
25.4
  0
SEQEND
  5
B9F
  8
PROFILEEDGES
  0
POLYLINE
  5
76
  8
PROFILEEDGES
 66
     1
 10
0.0
 20
0.0
 30
0.0
  0
VERTEX
  5
44C
  8
PROFILEEDGES
 10
-67.5996883499486
 20
-99.5018301515085
 30
0.0
 40
25.4
 41
25.4
  0
VERTEX
  5
44D
  8
PROFILEEDGES
 10
-67.43300943379641
 20
-99.1899958323703
 30
0.0
 40
25.4
 41
25.4
  0
SEQEND
  5
BA0
  8
PROFILEEDGES
  0
POLYLINE
  5
77
  8
PROFILEEDGES
 66
     1
 10
0.0
 20
0.0
 30
0.0
  0
VERTEX
  5
44E
  8
PROFILEEDGES
 10
-67.74561545346994
 20
-99.82389813212554
 30
0.0
 40
25.4
 41
25.4
  0
VERTEX
  5
44F
  8
PROFILEEDGES
 10
-67.5996883499486
 20
-99.5018301515085
 30
0.0
 40
25.4
 41
25.4
  0
SEQEND
  5
BA1
  8
PROFILEEDGES
  0
POLYLINE
  5
78
  8
PROFILEEDGES
 66
     1
 10
0.0
 20
0.0
 30
0.0
  0
VERTEX
  5
450
  8
PROFILEEDGES
 10
-67.87016586210837
 20
-100.1548206296837
 30
0.0
 40
25.4
 41
25.4
  0
VERTEX
  5
451
  8
PROFILEEDGES
 10
-67.74561545346994
 20
-99.82389813212554
 30
0.0
 40
25.4
 41
25.4
  0
SEQEND
  5
BA2
  8
PROFILEEDGES
  0
POLYLINE
  5
79
  8
PROFILEEDGES
 66
     1
 10
0.0
 20
0.0
 30
0.0
  0
VERTEX
  5
452
  8
PROFILEEDGES
 10
-67.97280623188622
 20
-100.4931805832442
 30
0.0
 40
25.4
 41
25.4
  0
VERTEX
  5
453
  8
PROFILEEDGES
 10
-67.87016586210837
 20
-100.1548206296837
 30
0.0
 40
25.4
 41
25.4
  0
SEQEND
  5
BA3
  8
PROFILEEDGES
  0
POLYLINE
  5
7A
  8
PROFILEEDGES
 66
     1
 10
0.0
 20
0.0
 30
0.0
  0
VERTEX
  5
454
  8
PROFILEEDGES
 10
-68.0530970409829
 20
-100.8375290835399
 30
0.0
 40
25.4
 41
25.4
  0
VERTEX
  5
455
  8
PROFILEEDGES
 10
-67.97280623188622
 20
-100.4931805832442
 30
0.0
 40
25.4
 41
25.4
  0
SEQEND
  5
BA4
  8
PROFILEEDGES
  0
POLYLINE
  5
7B
  8
PROFILEEDGES
 66
     1
 10
0.0
 20
0.0
 30
0.0
  0
VERTEX
  5
456
  8
PROFILEEDGES
 10
-68.11069447183291
 20
-101.1863915774274
 30
0.0
 40
25.4
 41
25.4
  0
VERTEX
  5
457
  8
PROFILEEDGES
 10
-68.0530970409829
 20
-100.8375290835399
 30
0.0
 40
25.4
 41
25.4
  0
SEQEND
  5
BA5
  8
PROFILEEDGES
  0
POLYLINE
  5
7C
  8
PROFILEEDGES
 66
     1
 10
0.0
 20
0.0
 30
0.0
  0
VERTEX
  5
458
  8
PROFILEEDGES
 10
-68.14535188338682
 20
-101.5382741821493
 30
0.0
 40
25.4
 41
25.4
  0
VERTEX
  5
459
  8
PROFILEEDGES
 10
-68.11069447183291
 20
-101.1863915774274
 30
0.0
 40
25.4
 41
25.4
  0
SEQEND
  5
BA6
  8
PROFILEEDGES
  0
POLYLINE
  5
7D
  8
PROFILEEDGES
 66
     1
 10
0.0
 20
0.0
 30
0.0
  0
VERTEX
  5
45A
  8
PROFILEEDGES
 10
-68.1569208672951
 20
-101.8916700823703
 30
0.0
 40
25.4
 41
25.4
  0
VERTEX
  5
45B
  8
PROFILEEDGES
 10
-68.14535188338682
 20
-101.5382741821493
 30
0.0
 40
25.4
 41
25.4
  0
SEQEND
  5
BA7
  8
PROFILEEDGES
  0
POLYLINE
  5
7E
  8
PROFILEEDGES
 66
     1
 10
0.0
 20
0.0
 30
0.0
  0
VERTEX
  5
45C
  8
PROFILEEDGES
 10
-68.14535188338682
 20
-102.2450659825913
 30
0.0
 40
25.4
 41
25.4
  0
VERTEX
  5
45D
  8
PROFILEEDGES
 10
-68.1569208672951
 20
-101.8916700823703
 30
0.0
 40
25.4
 41
25.4
  0
SEQEND
  5
BA8
  8
PROFILEEDGES
  0
POLYLINE
  5
7F
  8
PROFILEEDGES
 66
     1
 10
0.0
 20
0.0
 30
0.0
  0
VERTEX
  5
45E
  8
PROFILEEDGES
 10
-68.11069447183291
 20
-102.5969485873132
 30
0.0
 40
25.4
 41
25.4
  0
VERTEX
  5
45F
  8
PROFILEEDGES
 10
-68.14535188338682
 20
-102.2450659825913
 30
0.0
 40
25.4
 41
25.4
  0
SEQEND
  5
BA9
  8
PROFILEEDGES
  0
POLYLINE
  5
80
  8
PROFILEEDGES
 66
     1
 10
0.0
 20
0.0
 30
0.0
  0
VERTEX
  5
460
  8
PROFILEEDGES
 10
-68.0530970409829
 20
-102.9458110812007
 30
0.0
 40
25.4
 41
25.4
  0
VERTEX
  5
461
  8
PROFILEEDGES
 10
-68.11069447183291
 20
-102.5969485873132
 30
0.0
 40
25.4
 41
25.4
  0
SEQEND
  5
BAA
  8
PROFILEEDGES
  0
POLYLINE
  5
81
  8
PROFILEEDGES
 66
     1
 10
0.0
 20
0.0
 30
0.0
  0
VERTEX
  5
462
  8
PROFILEEDGES
 10
-67.97280623188625
 20
-103.2901595814964
 30
0.0
 40
25.4
 41
25.4
  0
VERTEX
  5
463
  8
PROFILEEDGES
 10
-68.0530970409829
 20
-102.9458110812007
 30
0.0
 40
25.4
 41
25.4
  0
SEQEND
  5
BAB
  8
PROFILEEDGES
  0
POLYLINE
  5
82
  8
PROFILEEDGES
 66
     1
 10
0.0
 20
0.0
 30
0.0
  0
VERTEX
  5
464
  8
PROFILEEDGES
 10
-67.8701658621084
 20
-103.6285195350569
 30
0.0
 40
25.4
 41
25.4
  0
VERTEX
  5
465
  8
PROFILEEDGES
 10
-67.97280623188625
 20
-103.2901595814964
 30
0.0
 40
25.4
 41
25.4
  0
SEQEND
  5
BAC
  8
PROFILEEDGES
  0
POLYLINE
  5
83
  8
PROFILEEDGES
 66
     1
 10
0.0
 20
0.0
 30
0.0
  0
VERTEX
  5
466
  8
PROFILEEDGES
 10
-67.74561545346995
 20
-103.9594420326151
 30
0.0
 40
25.4
 41
25.4
  0
VERTEX
  5
467
  8
PROFILEEDGES
 10
-67.8701658621084
 20
-103.6285195350569
 30
0.0
 40
25.4
 41
25.4
  0
SEQEND
  5
BAD
  8
PROFILEEDGES
  0
POLYLINE
  5
84
  8
PROFILEEDGES
 66
     1
 10
0.0
 20
0.0
 30
0.0
  0
VERTEX
  5
468
  8
PROFILEEDGES
 10
-67.5996883499486
 20
-104.2815100132321
 30
0.0
 40
25.4
 41
25.4
  0
VERTEX
  5
469
  8
PROFILEEDGES
 10
-67.74561545346995
 20
-103.9594420326151
 30
0.0
 40
25.4
 41
25.4
  0
SEQEND
  5
BAE
  8
PROFILEEDGES
  0
POLYLINE
  5
85
  8
PROFILEEDGES
 66
     1
 10
0.0
 20
0.0
 30
0.0
  0
VERTEX
  5
46A
  8
PROFILEEDGES
 10
-67.43300943379641
 20
-104.5933443323703
 30
0.0
 40
25.4
 41
25.4
  0
VERTEX
  5
46B
  8
PROFILEEDGES
 10
-67.5996883499486
 20
-104.2815100132321
 30
0.0
 40
25.4
 41
25.4
  0
SEQEND
  5
BAF
  8
PROFILEEDGES
  0
POLYLINE
  5
86
  8
PROFILEEDGES
 66
     1
 10
0.0
 20
0.0
 30
0.0
  0
VERTEX
  5
46C
  8
PROFILEEDGES
 10
-67.24629244972513
 20
-104.8936096676014
 30
0.0
 40
25.4
 41
25.4
  0
VERTEX
  5
46D
  8
PROFILEEDGES
 10
-67.43300943379641
 20
-104.5933443323703
 30
0.0
 40
25.4
 41
25.4
  0
SEQEND
  5
BB0
  8
PROFILEEDGES
  0
POLYLINE
  5
87
  8
PROFILEEDGES
 66
     1
 10
0.0
 20
0.0
 30
0.0
  0
VERTEX
  5
46E
  8
PROFILEEDGES
 10
-67.0403369485268
 20
-105.1810202366624
 30
0.0
 40
25.4
 41
25.4
  0
VERTEX
  5
46F
  8
PROFILEEDGES
 10
-67.24629244972513
 20
-104.8936096676014
 30
0.0
 40
25.4
 41
25.4
  0
SEQEND
  5
BB1
  8
PROFILEEDGES
  0
POLYLINE
  5
88
  8
PROFILEEDGES
 66
     1
 10
0.0
 20
0.0
 30
0.0
  0
VERTEX
  5
470
  8
PROFILEEDGES
 10
-66.81602486327742
 20
-105.4543453033725
 30
0.0
 40
25.4
 41
25.4
  0
VERTEX
  5
471
  8
PROFILEEDGES
 10
-67.0403369485268
 20
-105.1810202366624
 30
0.0
 40
25.4
 41
25.4
  0
SEQEND
  5
BB2
  8
PROFILEEDGES
  0
POLYLINE
  5
89
  8
PROFILEEDGES
 66
     1
 10
0.0
 20
0.0
 30
0.0
  0
VERTEX
  5
472
  8
PROFILEEDGES
 10
-66.57431673275924
 20
-105.7124144478345
 30
0.0
 40
25.4
 41
25.4
  0
VERTEX
  5
473
  8
PROFILEEDGES
 10
-66.81602486327742
 20
-105.4543453033725
 30
0.0
 40
25.4
 41
25.4
  0
SEQEND
  5
BB3
  8
PROFILEEDGES
  0
POLYLINE
  5
8A
  8
PROFILEEDGES
 66
     1
 10
0.0
 20
0.0
 30
0.0
  0
VERTEX
  5
474
  8
PROFILEEDGES
 10
-66.31624758829878
 20
-105.9541225783521
 30
0.0
 40
25.4
 41
25.4
  0
VERTEX
  5
475
  8
PROFILEEDGES
 10
-66.57431673275924
 20
-105.7124144478345
 30
0.0
 40
25.4
 41
25.4
  0
SEQEND
  5
BB4
  8
PROFILEEDGES
  0
POLYLINE
  5
8B
  8
PROFILEEDGES
 66
     1
 10
0.0
 20
0.0
 30
0.0
  0
VERTEX
  5
476
  8
PROFILEEDGES
 10
-66.04292252158699
 20
-106.1784346636029
 30
0.0
 40
25.4
 41
25.4
  0
VERTEX
  5
477
  8
PROFILEEDGES
 10
-66.31624758829878
 20
-105.9541225783521
 30
0.0
 40
25.4
 41
25.4
  0
SEQEND
  5
BB5
  8
PROFILEEDGES
  0
POLYLINE
  5
8C
  8
PROFILEEDGES
 66
     1
 10
0.0
 20
0.0
 30
0.0
  0
VERTEX
  5
478
  8
PROFILEEDGES
 10
-65.75551195252683
 20
-106.3843901648008
 30
0.0
 40
25.4
 41
25.4
  0
VERTEX
  5
479
  8
PROFILEEDGES
 10
-66.04292252158699
 20
-106.1784346636029
 30
0.0
 40
25.4
 41
25.4
  0
SEQEND
  5
BB6
  8
PROFILEEDGES
  0
POLYLINE
  5
8D
  8
PROFILEEDGES
 66
     1
 10
0.0
 20
0.0
 30
0.0
  0
VERTEX
  5
47A
  8
PROFILEEDGES
 10
-65.45524661729714
 20
-106.5711071488709
 30
0.0
 40
25.4
 41
25.4
  0
VERTEX
  5
47B
  8
PROFILEEDGES
 10
-65.75551195252683
 20
-106.3843901648008
 30
0.0
 40
25.4
 41
25.4
  0
SEQEND
  5
BB7
  8
PROFILEEDGES
  0
POLYLINE
  5
8E
  8
PROFILEEDGES
 66
     1
 10
0.0
 20
0.0
 30
0.0
  0
VERTEX
  5
47C
  8
PROFILEEDGES
 10
-65.1434122981563
 20
-106.7377860650218
 30
0.0
 40
25.4
 41
25.4
  0
VERTEX
  5
47D
  8
PROFILEEDGES
 10
-65.45524661729714
 20
-106.5711071488709
 30
0.0
 40
25.4
 41
25.4
  0
SEQEND
  5
BB8
  8
PROFILEEDGES
  0
POLYLINE
  5
8F
  8
PROFILEEDGES
 66
     1
 10
0.0
 20
0.0
 30
0.0
  0
VERTEX
  5
47E
  8
PROFILEEDGES
 10
-64.82134431754085
 20
-106.8837131685459
 30
0.0
 40
25.4
 41
25.4
  0
VERTEX
  5
47F
  8
PROFILEEDGES
 10
-65.1434122981563
 20
-106.7377860650218
 30
0.0
 40
25.4
 41
25.4
  0
SEQEND
  5
BB9
  8
PROFILEEDGES
  0
POLYLINE
  5
90
  8
PROFILEEDGES
 66
     1
 10
0.0
 20
0.0
 30
0.0
  0
VERTEX
  5
480
  8
PROFILEEDGES
 10
-64.49042181998331
 20
-107.0082635771825
 30
0.0
 40
25.4
 41
25.4
  0
VERTEX
  5
481
  8
PROFILEEDGES
 10
-64.82134431754085
 20
-106.8837131685459
 30
0.0
 40
25.4
 41
25.4
  0
SEQEND
  5
BBA
  8
PROFILEEDGES
  0
POLYLINE
  5
91
  8
PROFILEEDGES
 66
     1
 10
0.0
 20
0.0
 30
0.0
  0
VERTEX
  5
482
  8
PROFILEEDGES
 10
-64.15206186642334
 20
-107.1109039469606
 30
0.0
 40
25.4
 41
25.4
  0
VERTEX
  5
483
  8
PROFILEEDGES
 10
-64.49042181998331
 20
-107.0082635771825
 30
0.0
 40
25.4
 41
25.4
  0
SEQEND
  5
BBB
  8
PROFILEEDGES
  0
POLYLINE
  5
92
  8
PROFILEEDGES
 66
     1
 10
0.0
 20
0.0
 30
0.0
  0
VERTEX
  5
484
  8
PROFILEEDGES
 10
-63.80771336612729
 20
-107.1911947560592
 30
0.0
 40
25.4
 41
25.4
  0
VERTEX
  5
485
  8
PROFILEEDGES
 10
-64.15206186642334
 20
-107.1109039469606
 30
0.0
 40
25.4
 41
25.4
  0
SEQEND
  5
BBC
  8
PROFILEEDGES
  0
POLYLINE
  5
93
  8
PROFILEEDGES
 66
     1
 10
0.0
 20
0.0
 30
0.0
  0
VERTEX
  5
486
  8
PROFILEEDGES
 10
-63.45885087223663
 20
-107.2487921869072
 30
0.0
 40
25.4
 41
25.4
  0
VERTEX
  5
487
  8
PROFILEEDGES
 10
-63.80771336612729
 20
-107.1911947560592
 30
0.0
 40
25.4
 41
25.4
  0
SEQEND
  5
BBD
  8
PROFILEEDGES
  0
POLYLINE
  5
94
  8
PROFILEEDGES
 66
     1
 10
0.0
 20
0.0
 30
0.0
  0
VERTEX
  5
488
  8
PROFILEEDGES
 10
-63.10696826751695
 20
-107.2834495984632
 30
0.0
 40
25.4
 41
25.4
  0
VERTEX
  5
489
  8
PROFILEEDGES
 10
-63.45885087223663
 20
-107.2487921869072
 30
0.0
 40
25.4
 41
25.4
  0
SEQEND
  5
BBE
  8
PROFILEEDGES
  0
POLYLINE
  5
95
  8
PROFILEEDGES
 66
     1
 10
0.0
 20
0.0
 30
0.0
  0
VERTEX
  5
48A
  8
PROFILEEDGES
 10
-62.75357236729491
 20
-107.2950185823703
 30
0.0
 40
25.4
 41
25.4
  0
VERTEX
  5
48B
  8
PROFILEEDGES
 10
-63.10696826751695
 20
-107.2834495984632
 30
0.0
 40
25.4
 41
25.4
  0
SEQEND
  5
BBF
  8
PROFILEEDGES
  0
POLYLINE
  5
96
  8
PROFILEEDGES
 66
     1
 10
0.0
 20
0.0
 30
0.0
  0
VERTEX
  5
48C
  8
PROFILEEDGES
 10
-62.4001764670757
 20
-107.2834495984632
 30
0.0
 40
25.4
 41
25.4
  0
VERTEX
  5
48D
  8
PROFILEEDGES
 10
-62.75357236729491
 20
-107.2950185823703
 30
0.0
 40
25.4
 41
25.4
  0
SEQEND
  5
BC0
  8
PROFILEEDGES
  0
POLYLINE
  5
97
  8
PROFILEEDGES
 66
     1
 10
0.0
 20
0.0
 30
0.0
  0
VERTEX
  5
48E
  8
PROFILEEDGES
 10
-62.04829386235176
 20
-107.2487921869072
 30
0.0
 40
25.4
 41
25.4
  0
VERTEX
  5
48F
  8
PROFILEEDGES
 10
-62.4001764670757
 20
-107.2834495984632
 30
0.0
 40
25.4
 41
25.4
  0
SEQEND
  5
BC1
  8
PROFILEEDGES
  0
POLYLINE
  5
98
  8
PROFILEEDGES
 66
     1
 10
0.0
 20
0.0
 30
0.0
  0
VERTEX
  5
490
  8
PROFILEEDGES
 10
-61.69943136846679
 20
-107.1911947560592
 30
0.0
 40
25.4
 41
25.4
  0
VERTEX
  5
491
  8
PROFILEEDGES
 10
-62.04829386235176
 20
-107.2487921869072
 30
0.0
 40
25.4
 41
25.4
  0
SEQEND
  5
BC2
  8
PROFILEEDGES
  0
POLYLINE
  5
99
  8
PROFILEEDGES
 66
     1
 10
0.0
 20
0.0
 30
0.0
  0
VERTEX
  5
492
  8
PROFILEEDGES
 10
-61.35508286817074
 20
-107.1109039469606
 30
0.0
 40
25.4
 41
25.4
  0
VERTEX
  5
493
  8
PROFILEEDGES
 10
-61.69943136846679
 20
-107.1911947560592
 30
0.0
 40
25.4
 41
25.4
  0
SEQEND
  5
BC3
  8
PROFILEEDGES
  0
POLYLINE
  5
9A
  8
PROFILEEDGES
 66
     1
 10
0.0
 20
0.0
 30
0.0
  0
VERTEX
  5
494
  8
PROFILEEDGES
 10
-61.01672291460935
 20
-107.0082635771825
 30
0.0
 40
25.4
 41
25.4
  0
VERTEX
  5
495
  8
PROFILEEDGES
 10
-61.35508286817074
 20
-107.1109039469606
 30
0.0
 40
25.4
 41
25.4
  0
SEQEND
  5
BC4
  8
PROFILEEDGES
  0
POLYLINE
  5
9B
  8
PROFILEEDGES
 66
     1
 10
0.0
 20
0.0
 30
0.0
  0
VERTEX
  5
496
  8
PROFILEEDGES
 10
-60.68580041705181
 20
-106.8837131685459
 30
0.0
 40
25.4
 41
25.4
  0
VERTEX
  5
497
  8
PROFILEEDGES
 10
-61.01672291460935
 20
-107.0082635771825
 30
0.0
 40
25.4
 41
25.4
  0
SEQEND
  5
BC5
  8
PROFILEEDGES
  0
POLYLINE
  5
9C
  8
PROFILEEDGES
 66
     1
 10
0.0
 20
0.0
 30
0.0
  0
VERTEX
  5
498
  8
PROFILEEDGES
 10
-60.36373243643209
 20
-106.7377860650219
 30
0.0
 40
25.4
 41
25.4
  0
VERTEX
  5
499
  8
PROFILEEDGES
 10
-60.68580041705181
 20
-106.8837131685459
 30
0.0
 40
25.4
 41
25.4
  0
SEQEND
  5
BC6
  8
PROFILEEDGES
  0
POLYLINE
  5
9D
  8
PROFILEEDGES
 66
     1
 10
0.0
 20
0.0
 30
0.0
  0
VERTEX
  5
49A
  8
PROFILEEDGES
 10
-60.05189811729694
 20
-106.5711071488709
 30
0.0
 40
25.4
 41
25.4
  0
VERTEX
  5
49B
  8
PROFILEEDGES
 10
-60.36373243643209
 20
-106.7377860650219
 30
0.0
 40
25.4
 41
25.4
  0
SEQEND
  5
BC7
  8
PROFILEEDGES
  0
POLYLINE
  5
9E
  8
PROFILEEDGES
 66
     1
 10
0.0
 20
0.0
 30
0.0
  0
VERTEX
  5
49C
  8
PROFILEEDGES
 10
-59.75163278206582
 20
-106.3843901648008
 30
0.0
 40
25.4
 41
25.4
  0
VERTEX
  5
49D
  8
PROFILEEDGES
 10
-60.05189811729694
 20
-106.5711071488709
 30
0.0
 40
25.4
 41
25.4
  0
SEQEND
  5
BC8
  8
PROFILEEDGES
  0
POLYLINE
  5
9F
  8
PROFILEEDGES
 66
     1
 10
0.0
 20
0.0
 30
0.0
  0
VERTEX
  5
49E
  8
PROFILEEDGES
 10
-59.46422221300283
 20
-106.1784346636029
 30
0.0
 40
25.4
 41
25.4
  0
VERTEX
  5
49F
  8
PROFILEEDGES
 10
-59.75163278206582
 20
-106.3843901648008
 30
0.0
 40
25.4
 41
25.4
  0
SEQEND
  5
BC9
  8
PROFILEEDGES
  0
POLYLINE
  5
A0
  8
PROFILEEDGES
 66
     1
 10
0.0
 20
0.0
 30
0.0
  0
VERTEX
  5
4A0
  8
PROFILEEDGES
 10
-59.19089714629389
 20
-105.9541225783522
 30
0.0
 40
25.4
 41
25.4
  0
VERTEX
  5
4A1
  8
PROFILEEDGES
 10
-59.46422221300283
 20
-106.1784346636029
 30
0.0
 40
25.4
 41
25.4
  0
SEQEND
  5
BCA
  8
PROFILEEDGES
  0
POLYLINE
  5
A1
  8
PROFILEEDGES
 66
     1
 10
0.0
 20
0.0
 30
0.0
  0
VERTEX
  5
4A2
  8
PROFILEEDGES
 10
-58.932828001832
 20
-105.7124144478345
 30
0.0
 40
25.4
 41
25.4
  0
VERTEX
  5
4A3
  8
PROFILEEDGES
 10
-59.19089714629389
 20
-105.9541225783522
 30
0.0
 40
25.4
 41
25.4
  0
SEQEND
  5
BCB
  8
PROFILEEDGES
  0
POLYLINE
  5
A2
  8
PROFILEEDGES
 66
     1
 10
0.0
 20
0.0
 30
0.0
  0
VERTEX
  5
4A4
  8
PROFILEEDGES
 10
-58.6911198713138
 20
-105.4543453033725
 30
0.0
 40
25.4
 41
25.4
  0
VERTEX
  5
4A5
  8
PROFILEEDGES
 10
-58.932828001832
 20
-105.7124144478345
 30
0.0
 40
25.4
 41
25.4
  0
SEQEND
  5
BCC
  8
PROFILEEDGES
  0
POLYLINE
  5
A3
  8
PROFILEEDGES
 66
     1
 10
0.0
 20
0.0
 30
0.0
  0
VERTEX
  5
4A6
  8
PROFILEEDGES
 10
-58.46680778606159
 20
-105.1810202366624
 30
0.0
 40
25.4
 41
25.4
  0
VERTEX
  5
4A7
  8
PROFILEEDGES
 10
-58.6911198713138
 20
-105.4543453033725
 30
0.0
 40
25.4
 41
25.4
  0
SEQEND
  5
BCD
  8
PROFILEEDGES
  0
POLYLINE
  5
A4
  8
PROFILEEDGES
 66
     1
 10
0.0
 20
0.0
 30
0.0
  0
VERTEX
  5
4A8
  8
PROFILEEDGES
 10
-58.26085228486325
 20
-104.8936096676014
 30
0.0
 40
25.4
 41
25.4
  0
VERTEX
  5
4A9
  8
PROFILEEDGES
 10
-58.46680778606159
 20
-105.1810202366624
 30
0.0
 40
25.4
 41
25.4
  0
SEQEND
  5
BCE
  8
PROFILEEDGES
  0
POLYLINE
  5
A5
  8
PROFILEEDGES
 66
     1
 10
0.0
 20
0.0
 30
0.0
  0
VERTEX
  5
4AA
  8
PROFILEEDGES
 10
-58.07413530079624
 20
-104.5933443323703
 30
0.0
 40
25.4
 41
25.4
  0
VERTEX
  5
4AB
  8
PROFILEEDGES
 10
-58.26085228486325
 20
-104.8936096676014
 30
0.0
 40
25.4
 41
25.4
  0
SEQEND
  5
BCF
  8
PROFILEEDGES
  0
POLYLINE
  5
A6
  8
PROFILEEDGES
 66
     1
 10
0.0
 20
0.0
 30
0.0
  0
VERTEX
  5
4AC
  8
PROFILEEDGES
 10
-57.90745638464545
 20
-104.2815100132321
 30
0.0
 40
25.4
 41
25.4
  0
VERTEX
  5
4AD
  8
PROFILEEDGES
 10
-58.07413530079624
 20
-104.5933443323703
 30
0.0
 40
25.4
 41
25.4
  0
SEQEND
  5
BD0
  8
PROFILEEDGES
  0
POLYLINE
  5
A7
  8
PROFILEEDGES
 66
     1
 10
0.0
 20
0.0
 30
0.0
  0
VERTEX
  5
4AE
  8
PROFILEEDGES
 10
-57.76152928111843
 20
-103.9594420326151
 30
0.0
 40
25.4
 41
25.4
  0
VERTEX
  5
4AF
  8
PROFILEEDGES
 10
-57.90745638464545
 20
-104.2815100132321
 30
0.0
 40
25.4
 41
25.4
  0
SEQEND
  5
BD1
  8
PROFILEEDGES
  0
POLYLINE
  5
A8
  8
PROFILEEDGES
 66
     1
 10
0.0
 20
0.0
 30
0.0
  0
VERTEX
  5
4B0
  8
PROFILEEDGES
 10
-57.63697887248424
 20
-103.6285195350569
 30
0.0
 40
25.4
 41
25.4
  0
VERTEX
  5
4B1
  8
PROFILEEDGES
 10
-57.76152928111843
 20
-103.9594420326151
 30
0.0
 40
25.4
 41
25.4
  0
SEQEND
  5
BD2
  8
PROFILEEDGES
  0
POLYLINE
  5
A9
  8
PROFILEEDGES
 66
     1
 10
0.0
 20
0.0
 30
0.0
  0
VERTEX
  5
4B2
  8
PROFILEEDGES
 10
-57.53433850270498
 20
-103.2901595814964
 30
0.0
 40
25.4
 41
25.4
  0
VERTEX
  5
4B3
  8
PROFILEEDGES
 10
-57.63697887248424
 20
-103.6285195350569
 30
0.0
 40
25.4
 41
25.4
  0
SEQEND
  5
BD3
  8
PROFILEEDGES
  0
POLYLINE
  5
AA
  8
PROFILEEDGES
 66
     1
 10
0.0
 20
0.0
 30
0.0
  0
VERTEX
  5
4B4
  8
PROFILEEDGES
 10
-57.45404769360547
 20
-102.9458110812006
 30
0.0
 40
25.4
 41
25.4
  0
VERTEX
  5
4B5
  8
PROFILEEDGES
 10
-57.53433850270498
 20
-103.2901595814964
 30
0.0
 40
25.4
 41
25.4
  0
SEQEND
  5
BD4
  8
PROFILEEDGES
  0
POLYLINE
  5
AB
  8
PROFILEEDGES
 66
     1
 10
0.0
 20
0.0
 30
0.0
  0
VERTEX
  5
4B6
  8
PROFILEEDGES
 10
-57.39645026275971
 20
-102.5969485873132
 30
0.0
 40
25.4
 41
25.4
  0
VERTEX
  5
4B7
  8
PROFILEEDGES
 10
-57.45404769360547
 20
-102.9458110812006
 30
0.0
 40
25.4
 41
25.4
  0
SEQEND
  5
BD5
  8
PROFILEEDGES
  0
POLYLINE
  5
AC
  8
PROFILEEDGES
 66
     1
 10
0.0
 20
0.0
 30
0.0
  0
VERTEX
  5
4B8
  8
PROFILEEDGES
 10
-57.36179285120156
 20
-102.2450659825913
 30
0.0
 40
25.4
 41
25.4
  0
VERTEX
  5
4B9
  8
PROFILEEDGES
 10
-57.39645026275971
 20
-102.5969485873132
 30
0.0
 40
25.4
 41
25.4
  0
SEQEND
  5
BD6
  8
PROFILEEDGES
  0
POLYLINE
  5
AD
  8
PROFILEEDGES
 66
     1
 10
0.0
 20
0.0
 30
0.0
  0
VERTEX
  5
4BA
  8
PROFILEEDGES
 10
-57.3502238672947
 20
-101.8916700823703
 30
0.0
 40
25.4
 41
25.4
  0
VERTEX
  5
4BB
  8
PROFILEEDGES
 10
-57.36179285120156
 20
-102.2450659825913
 30
0.0
 40
25.4
 41
25.4
  0
SEQEND
  5
BD7
  8
PROFILEEDGES
  0
POLYLINE
  5
AE
  8
PROFILEEDGES
 66
     1
 10
0.0
 20
0.0
 30
0.0
  0
VERTEX
  5
4BC
  8
PROFILEEDGES
 10
-57.36179285120156
 20
-101.5382741821493
 30
0.0
 40
25.4
 41
25.4
  0
VERTEX
  5
4BD
  8
PROFILEEDGES
 10
-57.3502238672947
 20
-101.8916700823703
 30
0.0
 40
25.4
 41
25.4
  0
SEQEND
  5
BD8
  8
PROFILEEDGES
  0
POLYLINE
  5
AF
  8
PROFILEEDGES
 66
     1
 10
0.0
 20
0.0
 30
0.0
  0
VERTEX
  5
4BE
  8
PROFILEEDGES
 10
-57.39645026275971
 20
-101.1863915774274
 30
0.0
 40
25.4
 41
25.4
  0
VERTEX
  5
4BF
  8
PROFILEEDGES
 10
-57.36179285120156
 20
-101.5382741821493
 30
0.0
 40
25.4
 41
25.4
  0
SEQEND
  5
BD9
  8
PROFILEEDGES
  0
POLYLINE
  5
B0
  8
PROFILEEDGES
 66
     1
 10
0.0
 20
0.0
 30
0.0
  0
VERTEX
  5
4C0
  8
PROFILEEDGES
 10
-57.45404769360547
 20
-100.83752908354
 30
0.0
 40
25.4
 41
25.4
  0
VERTEX
  5
4C1
  8
PROFILEEDGES
 10
-57.39645026275971
 20
-101.1863915774274
 30
0.0
 40
25.4
 41
25.4
  0
SEQEND
  5
BDA
  8
PROFILEEDGES
  0
POLYLINE
  5
B1
  8
PROFILEEDGES
 66
     1
 10
0.0
 20
0.0
 30
0.0
  0
VERTEX
  5
4C2
  8
PROFILEEDGES
 10
-57.53433850270498
 20
-100.4931805832442
 30
0.0
 40
25.4
 41
25.4
  0
VERTEX
  5
4C3
  8
PROFILEEDGES
 10
-57.45404769360547
 20
-100.83752908354
 30
0.0
 40
25.4
 41
25.4
  0
SEQEND
  5
BDB
  8
PROFILEEDGES
  0
POLYLINE
  5
B2
  8
PROFILEEDGES
 66
     1
 10
0.0
 20
0.0
 30
0.0
  0
VERTEX
  5
4C4
  8
PROFILEEDGES
 10
-57.63697887248424
 20
-100.1548206296837
 30
0.0
 40
25.4
 41
25.4
  0
VERTEX
  5
4C5
  8
PROFILEEDGES
 10
-57.53433850270498
 20
-100.4931805832442
 30
0.0
 40
25.4
 41
25.4
  0
SEQEND
  5
BDC
  8
PROFILEEDGES
  0
POLYLINE
  5
B3
  8
PROFILEEDGES
 66
     1
 10
0.0
 20
0.0
 30
0.0
  0
VERTEX
  5
4C6
  8
PROFILEEDGES
 10
-57.76152928111843
 20
-99.82389813212558
 30
0.0
 40
25.4
 41
25.4
  0
VERTEX
  5
4C7
  8
PROFILEEDGES
 10
-57.63697887248424
 20
-100.1548206296837
 30
0.0
 40
25.4
 41
25.4
  0
SEQEND
  5
BDD
  8
PROFILEEDGES
  0
POLYLINE
  5
B4
  8
PROFILEEDGES
 66
     1
 10
0.0
 20
0.0
 30
0.0
  0
VERTEX
  5
4C8
  8
PROFILEEDGES
 10
-57.90745638464545
 20
-99.50183015150853
 30
0.0
 40
25.4
 41
25.4
  0
VERTEX
  5
4C9
  8
PROFILEEDGES
 10
-57.76152928111843
 20
-99.82389813212558
 30
0.0
 40
25.4
 41
25.4
  0
SEQEND
  5
BDE
  8
PROFILEEDGES
  0
POLYLINE
  5
B5
  8
PROFILEEDGES
 66
     1
 10
0.0
 20
0.0
 30
0.0
  0
VERTEX
  5
4CA
  8
PROFILEEDGES
 10
-58.07413530079621
 20
-99.18999583237034
 30
0.0
 40
25.4
 41
25.4
  0
VERTEX
  5
4CB
  8
PROFILEEDGES
 10
-57.90745638464545
 20
-99.50183015150853
 30
0.0
 40
25.4
 41
25.4
  0
SEQEND
  5
BDF
  8
PROFILEEDGES
  0
POLYLINE
  5
B6
  8
PROFILEEDGES
 66
     1
 10
0.0
 20
0.0
 30
0.0
  0
VERTEX
  5
4CC
  8
PROFILEEDGES
 10
-58.26085228486323
 20
-98.88973049713921
 30
0.0
 40
25.4
 41
25.4
  0
VERTEX
  5
4CD
  8
PROFILEEDGES
 10
-58.07413530079621
 20
-99.18999583237034
 30
0.0
 40
25.4
 41
25.4
  0
SEQEND
  5
BE0
  8
PROFILEEDGES
  0
POLYLINE
  5
B7
  8
PROFILEEDGES
 66
     1
 10
0.0
 20
0.0
 30
0.0
  0
VERTEX
  5
4CE
  8
PROFILEEDGES
 10
-58.46680778606157
 20
-98.6023199280782
 30
0.0
 40
25.4
 41
25.4
  0
VERTEX
  5
4CF
  8
PROFILEEDGES
 10
-58.26085228486323
 20
-98.88973049713921
 30
0.0
 40
25.4
 41
25.4
  0
SEQEND
  5
BE1
  8
PROFILEEDGES
  0
POLYLINE
  5
B8
  8
PROFILEEDGES
 66
     1
 10
0.0
 20
0.0
 30
0.0
  0
VERTEX
  5
4D0
  8
PROFILEEDGES
 10
-58.69111987131378
 20
-98.3289948613681
 30
0.0
 40
25.4
 41
25.4
  0
VERTEX
  5
4D1
  8
PROFILEEDGES
 10
-58.46680778606157
 20
-98.6023199280782
 30
0.0
 40
25.4
 41
25.4
  0
SEQEND
  5
BE2
  8
PROFILEEDGES
  0
POLYLINE
  5
B9
  8
PROFILEEDGES
 66
     1
 10
0.0
 20
0.0
 30
0.0
  0
VERTEX
  5
4D2
  8
PROFILEEDGES
 10
-58.93282800183198
 20
-98.07092571690617
 30
0.0
 40
25.4
 41
25.4
  0
VERTEX
  5
4D3
  8
PROFILEEDGES
 10
-58.69111987131378
 20
-98.3289948613681
 30
0.0
 40
25.4
 41
25.4
  0
SEQEND
  5
BE3
  8
PROFILEEDGES
  0
POLYLINE
  5
BA
  8
PROFILEEDGES
 66
     1
 10
0.0
 20
0.0
 30
0.0
  0
VERTEX
  5
4D4
  8
PROFILEEDGES
 10
-59.19089714629386
 20
-97.82921758638851
 30
0.0
 40
25.4
 41
25.4
  0
VERTEX
  5
4D5
  8
PROFILEEDGES
 10
-58.93282800183198
 20
-98.07092571690617
 30
0.0
 40
25.4
 41
25.4
  0
SEQEND
  5
BE4
  8
PROFILEEDGES
  0
POLYLINE
  5
BB
  8
PROFILEEDGES
 66
     1
 10
0.0
 20
0.0
 30
0.0
  0
VERTEX
  5
4D6
  8
PROFILEEDGES
 10
-59.46422221300281
 20
-97.60490550113771
 30
0.0
 40
25.4
 41
25.4
  0
VERTEX
  5
4D7
  8
PROFILEEDGES
 10
-59.19089714629386
 20
-97.82921758638851
 30
0.0
 40
25.4
 41
25.4
  0
SEQEND
  5
BE5
  8
PROFILEEDGES
  0
POLYLINE
  5
BC
  8
PROFILEEDGES
 66
     1
 10
0.0
 20
0.0
 30
0.0
  0
VERTEX
  5
4D8
  8
PROFILEEDGES
 10
-59.7516327820658
 20
-97.3989499999398
 30
0.0
 40
25.4
 41
25.4
  0
VERTEX
  5
4D9
  8
PROFILEEDGES
 10
-59.46422221300281
 20
-97.60490550113771
 30
0.0
 40
25.4
 41
25.4
  0
SEQEND
  5
BE6
  8
PROFILEEDGES
  0
POLYLINE
  5
BD
  8
PROFILEEDGES
 66
     1
 10
0.0
 20
0.0
 30
0.0
  0
VERTEX
  5
4DA
  8
PROFILEEDGES
 10
-60.05189811729692
 20
-97.21223301586981
 30
0.0
 40
25.4
 41
25.4
  0
VERTEX
  5
4DB
  8
PROFILEEDGES
 10
-59.7516327820658
 20
-97.3989499999398
 30
0.0
 40
25.4
 41
25.4
  0
SEQEND
  5
BE7
  8
PROFILEEDGES
  0
POLYLINE
  5
BE
  8
PROFILEEDGES
 66
     1
 10
0.0
 20
0.0
 30
0.0
  0
VERTEX
  5
4DC
  8
PROFILEEDGES
 10
-60.36373243643207
 20
-97.0455540997188
 30
0.0
 40
25.4
 41
25.4
  0
VERTEX
  5
4DD
  8
PROFILEEDGES
 10
-60.05189811729692
 20
-97.21223301586981
 30
0.0
 40
25.4
 41
25.4
  0
SEQEND
  5
BE8
  8
PROFILEEDGES
  0
POLYLINE
  5
BF
  8
PROFILEEDGES
 66
     1
 10
0.0
 20
0.0
 30
0.0
  0
VERTEX
  5
4DE
  8
PROFILEEDGES
 10
-60.68580041705179
 20
-96.89962699619477
 30
0.0
 40
25.4
 41
25.4
  0
VERTEX
  5
4DF
  8
PROFILEEDGES
 10
-60.36373243643207
 20
-97.0455540997188
 30
0.0
 40
25.4
 41
25.4
  0
SEQEND
  5
BE9
  8
PROFILEEDGES
  0
POLYLINE
  5
C0
  8
PROFILEEDGES
 66
     1
 10
0.0
 20
0.0
 30
0.0
  0
VERTEX
  5
4E0
  8
PROFILEEDGES
 10
-61.01672291460932
 20
-96.77507658755815
 30
0.0
 40
25.4
 41
25.4
  0
VERTEX
  5
4E1
  8
PROFILEEDGES
 10
-60.68580041705179
 20
-96.89962699619477
 30
0.0
 40
25.4
 41
25.4
  0
SEQEND
  5
BEA
  8
PROFILEEDGES
  0
POLYLINE
  5
C1
  8
PROFILEEDGES
 66
     1
 10
0.0
 20
0.0
 30
0.0
  0
VERTEX
  5
4E2
  8
PROFILEEDGES
 10
-61.35508286817072
 20
-96.67243621778005
 30
0.0
 40
25.4
 41
25.4
  0
VERTEX
  5
4E3
  8
PROFILEEDGES
 10
-61.01672291460932
 20
-96.77507658755815
 30
0.0
 40
25.4
 41
25.4
  0
SEQEND
  5
BEB
  8
PROFILEEDGES
  0
POLYLINE
  5
C2
  8
PROFILEEDGES
 66
     1
 10
0.0
 20
0.0
 30
0.0
  0
VERTEX
  5
4E4
  8
PROFILEEDGES
 10
-61.69943136846677
 20
-96.59214540868145
 30
0.0
 40
25.4
 41
25.4
  0
VERTEX
  5
4E5
  8
PROFILEEDGES
 10
-61.35508286817072
 20
-96.67243621778005
 30
0.0
 40
25.4
 41
25.4
  0
SEQEND
  5
BEC
  8
PROFILEEDGES
  0
POLYLINE
  5
C3
  8
PROFILEEDGES
 66
     1
 10
0.0
 20
0.0
 30
0.0
  0
VERTEX
  5
4E6
  8
PROFILEEDGES
 10
-62.04829386235174
 20
-96.53454797783345
 30
0.0
 40
25.4
 41
25.4
  0
VERTEX
  5
4E7
  8
PROFILEEDGES
 10
-61.69943136846677
 20
-96.59214540868145
 30
0.0
 40
25.4
 41
25.4
  0
SEQEND
  5
BED
  8
PROFILEEDGES
  0
POLYLINE
  5
C4
  8
PROFILEEDGES
 66
     1
 10
0.0
 20
0.0
 30
0.0
  0
VERTEX
  5
4E8
  8
PROFILEEDGES
 10
-62.40017646707568
 20
-96.4998905662774
 30
0.0
 40
25.4
 41
25.4
  0
VERTEX
  5
4E9
  8
PROFILEEDGES
 10
-62.04829386235174
 20
-96.53454797783345
 30
0.0
 40
25.4
 41
25.4
  0
SEQEND
  5
BEE
  8
PROFILEEDGES
  0
POLYLINE
  5
C5
  8
PROFILEEDGES
 66
     1
 10
0.0
 20
0.0
 30
0.0
  0
VERTEX
  5
4EA
  8
PROFILEEDGES
 10
-62.75357236729489
 20
-96.48832158237032
 30
0.0
 40
25.4
 41
25.4
  0
VERTEX
  5
4EB
  8
PROFILEEDGES
 10
-62.40017646707568
 20
-96.4998905662774
 30
0.0
 40
25.4
 41
25.4
  0
SEQEND
  5
BEF
  8
PROFILEEDGES
  0
POLYLINE
  5
C6
  8
PROFILEEDGES
 66
     1
 10
0.0
 20
0.0
 30
0.0
  0
VERTEX
  5
4EC
  8
PROFILEEDGES
 10
-77.48997736729575
 20
-75.85735458237026
 30
0.0
 40
25.4
 41
25.4
  0
VERTEX
  5
4ED
  8
PROFILEEDGES
 10
-77.07232766703554
 20
-75.87102701789681
 30
0.0
 40
25.4
 41
25.4
  0
SEQEND
  5
BF0
  8
PROFILEEDGES
  0
POLYLINE
  5
C7
  8
PROFILEEDGES
 66
     1
 10
0.0
 20
0.0
 30
0.0
  0
VERTEX
  5
4EE
  8
PROFILEEDGES
 10
-77.90762706755598
 20
-75.87102701789681
 30
0.0
 40
25.4
 41
25.4
  0
VERTEX
  5
4EF
  8
PROFILEEDGES
 10
-77.48997736729575
 20
-75.85735458237026
 30
0.0
 40
25.4
 41
25.4
  0
SEQEND
  5
BF1
  8
PROFILEEDGES
  0
POLYLINE
  5
C8
  8
PROFILEEDGES
 66
     1
 10
0.0
 20
0.0
 30
0.0
  0
VERTEX
  5
4F0
  8
PROFILEEDGES
 10
-78.32348832768375
 20
-75.9119857770085
 30
0.0
 40
25.4
 41
25.4
  0
VERTEX
  5
4F1
  8
PROFILEEDGES
 10
-77.90762706755598
 20
-75.87102701789681
 30
0.0
 40
25.4
 41
25.4
  0
SEQEND
  5
BF2
  8
PROFILEEDGES
  0
POLYLINE
  5
C9
  8
PROFILEEDGES
 66
     1
 10
0.0
 20
0.0
 30
0.0
  0
VERTEX
  5
4F2
  8
PROFILEEDGES
 10
-78.7357803659143
 20
-75.98005546801069
 30
0.0
 40
25.4
 41
25.4
  0
VERTEX
  5
4F3
  8
PROFILEEDGES
 10
-78.32348832768375
 20
-75.9119857770085
 30
0.0
 40
25.4
 41
25.4
  0
SEQEND
  5
BF3
  8
PROFILEEDGES
  0
POLYLINE
  5
CA
  8
PROFILEEDGES
 66
     1
 10
0.0
 20
0.0
 30
0.0
  0
VERTEX
  5
4F4
  8
PROFILEEDGES
 10
-79.14273768444625
 20
-76.07494460603628
 30
0.0
 40
25.4
 41
25.4
  0
VERTEX
  5
4F5
  8
PROFILEEDGES
 10
-78.7357803659143
 20
-75.98005546801069
 30
0.0
 40
25.4
 41
25.4
  0
SEQEND
  5
BF4
  8
PROFILEEDGES
  0
POLYLINE
  5
CB
  8
PROFILEEDGES
 66
     1
 10
0.0
 20
0.0
 30
0.0
  0
VERTEX
  5
4F6
  8
PROFILEEDGES
 10
-79.5426176295618
 20
-76.19624686122859
 30
0.0
 40
25.4
 41
25.4
  0
VERTEX
  5
4F7
  8
PROFILEEDGES
 10
-79.14273768444625
 20
-76.07494460603628
 30
0.0
 40
25.4
 41
25.4
  0
SEQEND
  5
BF5
  8
PROFILEEDGES
  0
POLYLINE
  5
CC
  8
PROFILEEDGES
 66
     1
 10
0.0
 20
0.0
 30
0.0
  0
VERTEX
  5
4F8
  8
PROFILEEDGES
 10
-79.93370785394889
 20
-76.34344279870825
 30
0.0
 40
25.4
 41
25.4
  0
VERTEX
  5
4F9
  8
PROFILEEDGES
 10
-79.5426176295618
 20
-76.19624686122859
 30
0.0
 40
25.4
 41
25.4
  0
SEQEND
  5
BF6
  8
PROFILEEDGES
  0
POLYLINE
  5
CD
  8
PROFILEEDGES
 66
     1
 10
0.0
 20
0.0
 30
0.0
  0
VERTEX
  5
4FA
  8
PROFILEEDGES
 10
-80.31433364922236
 20
-76.515902102873
 30
0.0
 40
25.4
 41
25.4
  0
VERTEX
  5
4FB
  8
PROFILEEDGES
 10
-79.93370785394889
 20
-76.34344279870825
 30
0.0
 40
25.4
 41
25.4
  0
SEQEND
  5
BF7
  8
PROFILEEDGES
  0
POLYLINE
  5
CE
  8
PROFILEEDGES
 66
     1
 10
0.0
 20
0.0
 30
0.0
  0
VERTEX
  5
4FC
  8
PROFILEEDGES
 10
-80.68286511729362
 20
-76.712886276506
 30
0.0
 40
25.4
 41
25.4
  0
VERTEX
  5
4FD
  8
PROFILEEDGES
 10
-80.31433364922236
 20
-76.515902102873
 30
0.0
 40
25.4
 41
25.4
  0
SEQEND
  5
BF8
  8
PROFILEEDGES
  0
POLYLINE
  5
CF
  8
PROFILEEDGES
 66
     1
 10
0.0
 20
0.0
 30
0.0
  0
VERTEX
  5
4FE
  8
PROFILEEDGES
 10
-81.03772414984233
 20
-76.93355180313416
 30
0.0
 40
25.4
 41
25.4
  0
VERTEX
  5
4FF
  8
PROFILEEDGES
 10
-80.68286511729362
 20
-76.712886276506
 30
0.0
 40
25.4
 41
25.4
  0
SEQEND
  5
BF9
  8
PROFILEEDGES
  0
POLYLINE
  5
D0
  8
PROFILEEDGES
 66
     1
 10
0.0
 20
0.0
 30
0.0
  0
VERTEX
  5
500
  8
PROFILEEDGES
 10
-81.37739118600484
 20
-77.17695375909534
 30
0.0
 40
25.4
 41
25.4
  0
VERTEX
  5
501
  8
PROFILEEDGES
 10
-81.03772414984233
 20
-76.93355180313416
 30
0.0
 40
25.4
 41
25.4
  0
SEQEND
  5
BFA
  8
PROFILEEDGES
  0
POLYLINE
  5
D1
  8
PROFILEEDGES
 66
     1
 10
0.0
 20
0.0
 30
0.0
  0
VERTEX
  5
502
  8
PROFILEEDGES
 10
-81.70041171938838
 20
-77.44204985984629
 30
0.0
 40
25.4
 41
25.4
  0
VERTEX
  5
503
  8
PROFILEEDGES
 10
-81.37739118600484
 20
-77.17695375909534
 30
0.0
 40
25.4
 41
25.4
  0
SEQEND
  5
BFB
  8
PROFILEEDGES
  0
POLYLINE
  5
D2
  8
PROFILEEDGES
 66
     1
 10
0.0
 20
0.0
 30
0.0
  0
VERTEX
  5
504
  8
PROFILEEDGES
 10
-82.00540252647895
 20
-77.72770492318536
 30
0.0
 40
25.4
 41
25.4
  0
VERTEX
  5
505
  8
PROFILEEDGES
 10
-81.70041171938838
 20
-77.44204985984629
 30
0.0
 40
25.4
 41
25.4
  0
SEQEND
  5
BFC
  8
PROFILEEDGES
  0
POLYLINE
  5
D3
  8
PROFILEEDGES
 66
     1
 10
0.0
 20
0.0
 30
0.0
  0
VERTEX
  5
506
  8
PROFILEEDGES
 10
-82.2910575898211
 20
-78.0326957302767
 30
0.0
 40
25.4
 41
25.4
  0
VERTEX
  5
507
  8
PROFILEEDGES
 10
-82.00540252647895
 20
-77.72770492318536
 30
0.0
 40
25.4
 41
25.4
  0
SEQEND
  5
BFD
  8
PROFILEEDGES
  0
POLYLINE
  5
D4
  8
PROFILEEDGES
 66
     1
 10
0.0
 20
0.0
 30
0.0
  0
VERTEX
  5
508
  8
PROFILEEDGES
 10
-82.55615369057138
 20
-78.35571626366139
 30
0.0
 40
25.4
 41
25.4
  0
VERTEX
  5
509
  8
PROFILEEDGES
 10
-82.2910575898211
 20
-78.0326957302767
 30
0.0
 40
25.4
 41
25.4
  0
SEQEND
  5
BFE
  8
PROFILEEDGES
  0
POLYLINE
  5
D5
  8
PROFILEEDGES
 66
     1
 10
0.0
 20
0.0
 30
0.0
  0
VERTEX
  5
50A
  8
PROFILEEDGES
 10
-82.79955564652983
 20
-78.69538329982437
 30
0.0
 40
25.4
 41
25.4
  0
VERTEX
  5
50B
  8
PROFILEEDGES
 10
-82.55615369057138
 20
-78.35571626366139
 30
0.0
 40
25.4
 41
25.4
  0
SEQEND
  5
BFF
  8
PROFILEEDGES
  0
POLYLINE
  5
D6
  8
PROFILEEDGES
 66
     1
 10
0.0
 20
0.0
 30
0.0
  0
VERTEX
  5
50C
  8
PROFILEEDGES
 10
-83.0202211731599
 20
-79.05024233237025
 30
0.0
 40
25.4
 41
25.4
  0
VERTEX
  5
50D
  8
PROFILEEDGES
 10
-82.79955564652983
 20
-78.69538329982437
 30
0.0
 40
25.4
 41
25.4
  0
SEQEND
  5
C00
  8
PROFILEEDGES
  0
POLYLINE
  5
D7
  8
PROFILEEDGES
 66
     1
 10
0.0
 20
0.0
 30
0.0
  0
VERTEX
  5
50E
  8
PROFILEEDGES
 10
-83.21720534679288
 20
-79.41877380044265
 30
0.0
 40
25.4
 41
25.4
  0
VERTEX
  5
50F
  8
PROFILEEDGES
 10
-83.0202211731599
 20
-79.05024233237025
 30
0.0
 40
25.4
 41
25.4
  0
SEQEND
  5
C01
  8
PROFILEEDGES
  0
POLYLINE
  5
D8
  8
PROFILEEDGES
 66
     1
 10
0.0
 20
0.0
 30
0.0
  0
VERTEX
  5
510
  8
PROFILEEDGES
 10
-83.38966465095655
 20
-79.79939959571736
 30
0.0
 40
25.4
 41
25.4
  0
VERTEX
  5
511
  8
PROFILEEDGES
 10
-83.21720534679288
 20
-79.41877380044265
 30
0.0
 40
25.4
 41
25.4
  0
SEQEND
  5
C02
  8
PROFILEEDGES
  0
POLYLINE
  5
D9
  8
PROFILEEDGES
 66
     1
 10
0.0
 20
0.0
 30
0.0
  0
VERTEX
  5
512
  8
PROFILEEDGES
 10
-83.53686058843678
 20
-80.1904898201042
 30
0.0
 40
25.4
 41
25.4
  0
VERTEX
  5
513
  8
PROFILEEDGES
 10
-83.38966465095655
 20
-79.79939959571736
 30
0.0
 40
25.4
 41
25.4
  0
SEQEND
  5
C03
  8
PROFILEEDGES
  0
POLYLINE
  5
DA
  8
PROFILEEDGES
 66
     1
 10
0.0
 20
0.0
 30
0.0
  0
VERTEX
  5
514
  8
PROFILEEDGES
 10
-83.65816284362802
 20
-80.59036976522117
 30
0.0
 40
25.4
 41
25.4
  0
VERTEX
  5
515
  8
PROFILEEDGES
 10
-83.53686058843678
 20
-80.1904898201042
 30
0.0
 40
25.4
 41
25.4
  0
SEQEND
  5
C04
  8
PROFILEEDGES
  0
POLYLINE
  5
DB
  8
PROFILEEDGES
 66
     1
 10
0.0
 20
0.0
 30
0.0
  0
VERTEX
  5
516
  8
PROFILEEDGES
 10
-83.75305198165586
 20
-80.99732708375254
 30
0.0
 40
25.4
 41
25.4
  0
VERTEX
  5
517
  8
PROFILEEDGES
 10
-83.65816284362802
 20
-80.59036976522117
 30
0.0
 40
25.4
 41
25.4
  0
SEQEND
  5
C05
  8
PROFILEEDGES
  0
POLYLINE
  5
DC
  8
PROFILEEDGES
 66
     1
 10
0.0
 20
0.0
 30
0.0
  0
VERTEX
  5
518
  8
PROFILEEDGES
 10
-83.82112167265798
 20
-81.40961912198316
 30
0.0
 40
25.4
 41
25.4
  0
VERTEX
  5
519
  8
PROFILEEDGES
 10
-83.75305198165586
 20
-80.99732708375254
 30
0.0
 40
25.4
 41
25.4
  0
SEQEND
  5
C06
  8
PROFILEEDGES
  0
POLYLINE
  5
DD
  8
PROFILEEDGES
 66
     1
 10
0.0
 20
0.0
 30
0.0
  0
VERTEX
  5
51A
  8
PROFILEEDGES
 10
-83.86208043177037
 20
-81.82548038210906
 30
0.0
 40
25.4
 41
25.4
  0
VERTEX
  5
51B
  8
PROFILEEDGES
 10
-83.82112167265798
 20
-81.40961912198316
 30
0.0
 40
25.4
 41
25.4
  0
SEQEND
  5
C07
  8
PROFILEEDGES
  0
POLYLINE
  5
DE
  8
PROFILEEDGES
 66
     1
 10
0.0
 20
0.0
 30
0.0
  0
VERTEX
  5
51C
  8
PROFILEEDGES
 10
-83.87575286729432
 20
-82.24313008237023
 30
0.0
 40
25.4
 41
25.4
  0
VERTEX
  5
51D
  8
PROFILEEDGES
 10
-83.86208043177037
 20
-81.82548038210906
 30
0.0
 40
25.4
 41
25.4
  0
SEQEND
  5
C08
  8
PROFILEEDGES
  0
POLYLINE
  5
DF
  8
PROFILEEDGES
 66
     1
 10
0.0
 20
0.0
 30
0.0
  0
VERTEX
  5
51E
  8
PROFILEEDGES
 10
-83.86208043177037
 20
-82.66077978263144
 30
0.0
 40
25.4
 41
25.4
  0
VERTEX
  5
51F
  8
PROFILEEDGES
 10
-83.87575286729432
 20
-82.24313008237023
 30
0.0
 40
25.4
 41
25.4
  0
SEQEND
  5
C09
  8
PROFILEEDGES
  0
POLYLINE
  5
E0
  8
PROFILEEDGES
 66
     1
 10
0.0
 20
0.0
 30
0.0
  0
VERTEX
  5
520
  8
PROFILEEDGES
 10
-83.82112167265798
 20
-83.07664104275734
 30
0.0
 40
25.4
 41
25.4
  0
VERTEX
  5
521
  8
PROFILEEDGES
 10
-83.86208043177037
 20
-82.66077978263144
 30
0.0
 40
25.4
 41
25.4
  0
SEQEND
  5
C0A
  8
PROFILEEDGES
  0
POLYLINE
  5
E1
  8
PROFILEEDGES
 66
     1
 10
0.0
 20
0.0
 30
0.0
  0
VERTEX
  5
522
  8
PROFILEEDGES
 10
-83.75305198165587
 20
-83.48893308098793
 30
0.0
 40
25.4
 41
25.4
  0
VERTEX
  5
523
  8
PROFILEEDGES
 10
-83.82112167265798
 20
-83.07664104275734
 30
0.0
 40
25.4
 41
25.4
  0
SEQEND
  5
C0B
  8
PROFILEEDGES
  0
POLYLINE
  5
E2
  8
PROFILEEDGES
 66
     1
 10
0.0
 20
0.0
 30
0.0
  0
VERTEX
  5
524
  8
PROFILEEDGES
 10
-83.65816284362802
 20
-83.8958903995193
 30
0.0
 40
25.4
 41
25.4
  0
VERTEX
  5
525
  8
PROFILEEDGES
 10
-83.75305198165587
 20
-83.48893308098793
 30
0.0
 40
25.4
 41
25.4
  0
SEQEND
  5
C0C
  8
PROFILEEDGES
  0
POLYLINE
  5
E3
  8
PROFILEEDGES
 66
     1
 10
0.0
 20
0.0
 30
0.0
  0
VERTEX
  5
526
  8
PROFILEEDGES
 10
-83.5368605884368
 20
-84.29577034463625
 30
0.0
 40
25.4
 41
25.4
  0
VERTEX
  5
527
  8
PROFILEEDGES
 10
-83.65816284362802
 20
-83.8958903995193
 30
0.0
 40
25.4
 41
25.4
  0
SEQEND
  5
C0D
  8
PROFILEEDGES
  0
POLYLINE
  5
E4
  8
PROFILEEDGES
 66
     1
 10
0.0
 20
0.0
 30
0.0
  0
VERTEX
  5
528
  8
PROFILEEDGES
 10
-83.38966465095655
 20
-84.68686056902314
 30
0.0
 40
25.4
 41
25.4
  0
VERTEX
  5
529
  8
PROFILEEDGES
 10
-83.5368605884368
 20
-84.29577034463625
 30
0.0
 40
25.4
 41
25.4
  0
SEQEND
  5
C0E
  8
PROFILEEDGES
  0
POLYLINE
  5
E5
  8
PROFILEEDGES
 66
     1
 10
0.0
 20
0.0
 30
0.0
  0
VERTEX
  5
52A
  8
PROFILEEDGES
 10
-83.2172053467929
 20
-85.06748636429784
 30
0.0
 40
25.4
 41
25.4
  0
VERTEX
  5
52B
  8
PROFILEEDGES
 10
-83.38966465095655
 20
-84.68686056902314
 30
0.0
 40
25.4
 41
25.4
  0
SEQEND
  5
C0F
  8
PROFILEEDGES
  0
POLYLINE
  5
E6
  8
PROFILEEDGES
 66
     1
 10
0.0
 20
0.0
 30
0.0
  0
VERTEX
  5
52C
  8
PROFILEEDGES
 10
-83.02022117315991
 20
-85.43601783237025
 30
0.0
 40
25.4
 41
25.4
  0
VERTEX
  5
52D
  8
PROFILEEDGES
 10
-83.2172053467929
 20
-85.06748636429784
 30
0.0
 40
25.4
 41
25.4
  0
SEQEND
  5
C10
  8
PROFILEEDGES
  0
POLYLINE
  5
E7
  8
PROFILEEDGES
 66
     1
 10
0.0
 20
0.0
 30
0.0
  0
VERTEX
  5
52E
  8
PROFILEEDGES
 10
-82.79955564652984
 20
-85.79087686491614
 30
0.0
 40
25.4
 41
25.4
  0
VERTEX
  5
52F
  8
PROFILEEDGES
 10
-83.02022117315991
 20
-85.43601783237025
 30
0.0
 40
25.4
 41
25.4
  0
SEQEND
  5
C11
  8
PROFILEEDGES
  0
POLYLINE
  5
E8
  8
PROFILEEDGES
 66
     1
 10
0.0
 20
0.0
 30
0.0
  0
VERTEX
  5
530
  8
PROFILEEDGES
 10
-82.5561536905714
 20
-86.13054390107911
 30
0.0
 40
25.4
 41
25.4
  0
VERTEX
  5
531
  8
PROFILEEDGES
 10
-82.79955564652984
 20
-85.79087686491614
 30
0.0
 40
25.4
 41
25.4
  0
SEQEND
  5
C12
  8
PROFILEEDGES
  0
POLYLINE
  5
E9
  8
PROFILEEDGES
 66
     1
 10
0.0
 20
0.0
 30
0.0
  0
VERTEX
  5
532
  8
PROFILEEDGES
 10
-82.29105758982111
 20
-86.4535644344638
 30
0.0
 40
25.4
 41
25.4
  0
VERTEX
  5
533
  8
PROFILEEDGES
 10
-82.5561536905714
 20
-86.13054390107911
 30
0.0
 40
25.4
 41
25.4
  0
SEQEND
  5
C13
  8
PROFILEEDGES
  0
POLYLINE
  5
EA
  8
PROFILEEDGES
 66
     1
 10
0.0
 20
0.0
 30
0.0
  0
VERTEX
  5
534
  8
PROFILEEDGES
 10
-82.00540252647896
 20
-86.75855524155517
 30
0.0
 40
25.4
 41
25.4
  0
VERTEX
  5
535
  8
PROFILEEDGES
 10
-82.29105758982111
 20
-86.4535644344638
 30
0.0
 40
25.4
 41
25.4
  0
SEQEND
  5
C14
  8
PROFILEEDGES
  0
POLYLINE
  5
EB
  8
PROFILEEDGES
 66
     1
 10
0.0
 20
0.0
 30
0.0
  0
VERTEX
  5
536
  8
PROFILEEDGES
 10
-81.70041171938841
 20
-87.04421030489422
 30
0.0
 40
25.4
 41
25.4
  0
VERTEX
  5
537
  8
PROFILEEDGES
 10
-82.00540252647896
 20
-86.75855524155517
 30
0.0
 40
25.4
 41
25.4
  0
SEQEND
  5
C15
  8
PROFILEEDGES
  0
POLYLINE
  5
EC
  8
PROFILEEDGES
 66
     1
 10
0.0
 20
0.0
 30
0.0
  0
VERTEX
  5
538
  8
PROFILEEDGES
 10
-81.37739118600486
 20
-87.30930640564519
 30
0.0
 40
25.4
 41
25.4
  0
VERTEX
  5
539
  8
PROFILEEDGES
 10
-81.70041171938841
 20
-87.04421030489422
 30
0.0
 40
25.4
 41
25.4
  0
SEQEND
  5
C16
  8
PROFILEEDGES
  0
POLYLINE
  5
ED
  8
PROFILEEDGES
 66
     1
 10
0.0
 20
0.0
 30
0.0
  0
VERTEX
  5
53A
  8
PROFILEEDGES
 10
-81.03772414984235
 20
-87.55270836160636
 30
0.0
 40
25.4
 41
25.4
  0
VERTEX
  5
53B
  8
PROFILEEDGES
 10
-81.37739118600486
 20
-87.30930640564519
 30
0.0
 40
25.4
 41
25.4
  0
SEQEND
  5
C17
  8
PROFILEEDGES
  0
POLYLINE
  5
EE
  8
PROFILEEDGES
 66
     1
 10
0.0
 20
0.0
 30
0.0
  0
VERTEX
  5
53C
  8
PROFILEEDGES
 10
-80.68286511729364
 20
-87.77337388823453
 30
0.0
 40
25.4
 41
25.4
  0
VERTEX
  5
53D
  8
PROFILEEDGES
 10
-81.03772414984235
 20
-87.55270836160636
 30
0.0
 40
25.4
 41
25.4
  0
SEQEND
  5
C18
  8
PROFILEEDGES
  0
POLYLINE
  5
EF
  8
PROFILEEDGES
 66
     1
 10
0.0
 20
0.0
 30
0.0
  0
VERTEX
  5
53E
  8
PROFILEEDGES
 10
-80.31433364922239
 20
-87.97035806186753
 30
0.0
 40
25.4
 41
25.4
  0
VERTEX
  5
53F
  8
PROFILEEDGES
 10
-80.68286511729364
 20
-87.77337388823453
 30
0.0
 40
25.4
 41
25.4
  0
SEQEND
  5
C19
  8
PROFILEEDGES
  0
POLYLINE
  5
F0
  8
PROFILEEDGES
 66
     1
 10
0.0
 20
0.0
 30
0.0
  0
VERTEX
  5
540
  8
PROFILEEDGES
 10
-79.93370785394892
 20
-88.14281736603229
 30
0.0
 40
25.4
 41
25.4
  0
VERTEX
  5
541
  8
PROFILEEDGES
 10
-80.31433364922239
 20
-87.97035806186753
 30
0.0
 40
25.4
 41
25.4
  0
SEQEND
  5
C1A
  8
PROFILEEDGES
  0
POLYLINE
  5
F1
  8
PROFILEEDGES
 66
     1
 10
0.0
 20
0.0
 30
0.0
  0
VERTEX
  5
542
  8
PROFILEEDGES
 10
-79.54261762956183
 20
-88.29001330351194
 30
0.0
 40
25.4
 41
25.4
  0
VERTEX
  5
543
  8
PROFILEEDGES
 10
-79.93370785394892
 20
-88.14281736603229
 30
0.0
 40
25.4
 41
25.4
  0
SEQEND
  5
C1B
  8
PROFILEEDGES
  0
POLYLINE
  5
F2
  8
PROFILEEDGES
 66
     1
 10
0.0
 20
0.0
 30
0.0
  0
VERTEX
  5
544
  8
PROFILEEDGES
 10
-79.14273768444627
 20
-88.41131555870426
 30
0.0
 40
25.4
 41
25.4
  0
VERTEX
  5
545
  8
PROFILEEDGES
 10
-79.54261762956183
 20
-88.29001330351194
 30
0.0
 40
25.4
 41
25.4
  0
SEQEND
  5
C1C
  8
PROFILEEDGES
  0
POLYLINE
  5
F3
  8
PROFILEEDGES
 66
     1
 10
0.0
 20
0.0
 30
0.0
  0
VERTEX
  5
546
  8
PROFILEEDGES
 10
-78.73578036591432
 20
-88.50620469672984
 30
0.0
 40
25.4
 41
25.4
  0
VERTEX
  5
547
  8
PROFILEEDGES
 10
-79.14273768444627
 20
-88.41131555870426
 30
0.0
 40
25.4
 41
25.4
  0
SEQEND
  5
C1D
  8
PROFILEEDGES
  0
POLYLINE
  5
F4
  8
PROFILEEDGES
 66
     1
 10
0.0
 20
0.0
 30
0.0
  0
VERTEX
  5
548
  8
PROFILEEDGES
 10
-78.32348832768379
 20
-88.57427438773203
 30
0.0
 40
25.4
 41
25.4
  0
VERTEX
  5
549
  8
PROFILEEDGES
 10
-78.73578036591432
 20
-88.50620469672984
 30
0.0
 40
25.4
 41
25.4
  0
SEQEND
  5
C1E
  8
PROFILEEDGES
  0
POLYLINE
  5
F5
  8
PROFILEEDGES
 66
     1
 10
0.0
 20
0.0
 30
0.0
  0
VERTEX
  5
54A
  8
PROFILEEDGES
 10
-77.907627067556
 20
-88.61523314684374
 30
0.0
 40
25.4
 41
25.4
  0
VERTEX
  5
54B
  8
PROFILEEDGES
 10
-78.32348832768379
 20
-88.57427438773203
 30
0.0
 40
25.4
 41
25.4
  0
SEQEND
  5
C1F
  8
PROFILEEDGES
  0
POLYLINE
  5
F6
  8
PROFILEEDGES
 66
     1
 10
0.0
 20
0.0
 30
0.0
  0
VERTEX
  5
54C
  8
PROFILEEDGES
 10
-77.4899773672958
 20
-88.62890558237028
 30
0.0
 40
25.4
 41
25.4
  0
VERTEX
  5
54D
  8
PROFILEEDGES
 10
-77.907627067556
 20
-88.61523314684374
 30
0.0
 40
25.4
 41
25.4
  0
SEQEND
  5
C20
  8
PROFILEEDGES
  0
POLYLINE
  5
F7
  8
PROFILEEDGES
 66
     1
 10
0.0
 20
0.0
 30
0.0
  0
VERTEX
  5
54E
  8
PROFILEEDGES
 10
-77.07232766703555
 20
-88.61523314684374
 30
0.0
 40
25.4
 41
25.4
  0
VERTEX
  5
54F
  8
PROFILEEDGES
 10
-77.4899773672958
 20
-88.62890558237028
 30
0.0
 40
25.4
 41
25.4
  0
SEQEND
  5
C21
  8
PROFILEEDGES
  0
POLYLINE
  5
F8
  8
PROFILEEDGES
 66
     1
 10
0.0
 20
0.0
 30
0.0
  0
VERTEX
  5
550
  8
PROFILEEDGES
 10
-76.6564664069078
 20
-88.57427438773205
 30
0.0
 40
25.4
 41
25.4
  0
VERTEX
  5
551
  8
PROFILEEDGES
 10
-77.07232766703555
 20
-88.61523314684374
 30
0.0
 40
25.4
 41
25.4
  0
SEQEND
  5
C22
  8
PROFILEEDGES
  0
POLYLINE
  5
F9
  8
PROFILEEDGES
 66
     1
 10
0.0
 20
0.0
 30
0.0
  0
VERTEX
  5
552
  8
PROFILEEDGES
 10
-76.24417436867726
 20
-88.50620469672984
 30
0.0
 40
25.4
 41
25.4
  0
VERTEX
  5
553
  8
PROFILEEDGES
 10
-76.6564664069078
 20
-88.57427438773205
 30
0.0
 40
25.4
 41
25.4
  0
SEQEND
  5
C23
  8
PROFILEEDGES
  0
POLYLINE
  5
FA
  8
PROFILEEDGES
 66
     1
 10
0.0
 20
0.0
 30
0.0
  0
VERTEX
  5
554
  8
PROFILEEDGES
 10
-75.83721705014672
 20
-88.41131555870426
 30
0.0
 40
25.4
 41
25.4
  0
VERTEX
  5
555
  8
PROFILEEDGES
 10
-76.24417436867726
 20
-88.50620469672984
 30
0.0
 40
25.4
 41
25.4
  0
SEQEND
  5
C24
  8
PROFILEEDGES
  0
POLYLINE
  5
FB
  8
PROFILEEDGES
 66
     1
 10
0.0
 20
0.0
 30
0.0
  0
VERTEX
  5
556
  8
PROFILEEDGES
 10
-75.43733710502832
 20
-88.29001330351194
 30
0.0
 40
25.4
 41
25.4
  0
VERTEX
  5
557
  8
PROFILEEDGES
 10
-75.83721705014672
 20
-88.41131555870426
 30
0.0
 40
25.4
 41
25.4
  0
SEQEND
  5
C25
  8
PROFILEEDGES
  0
POLYLINE
  5
FC
  8
PROFILEEDGES
 66
     1
 10
0.0
 20
0.0
 30
0.0
  0
VERTEX
  5
558
  8
PROFILEEDGES
 10
-75.04624688064408
 20
-88.1428173660323
 30
0.0
 40
25.4
 41
25.4
  0
VERTEX
  5
559
  8
PROFILEEDGES
 10
-75.43733710502832
 20
-88.29001330351194
 30
0.0
 40
25.4
 41
25.4
  0
SEQEND
  5
C26
  8
PROFILEEDGES
  0
POLYLINE
  5
FD
  8
PROFILEEDGES
 66
     1
 10
0.0
 20
0.0
 30
0.0
  0
VERTEX
  5
55A
  8
PROFILEEDGES
 10
-74.66562108536918
 20
-87.97035806186753
 30
0.0
 40
25.4
 41
25.4
  0
VERTEX
  5
55B
  8
PROFILEEDGES
 10
-75.04624688064408
 20
-88.1428173660323
 30
0.0
 40
25.4
 41
25.4
  0
SEQEND
  5
C27
  8
PROFILEEDGES
  0
POLYLINE
  5
FE
  8
PROFILEEDGES
 66
     1
 10
0.0
 20
0.0
 30
0.0
  0
VERTEX
  5
55C
  8
PROFILEEDGES
 10
-74.2970896172965
 20
-87.77337388823456
 30
0.0
 40
25.4
 41
25.4
  0
VERTEX
  5
55D
  8
PROFILEEDGES
 10
-74.66562108536918
 20
-87.97035806186753
 30
0.0
 40
25.4
 41
25.4
  0
SEQEND
  5
C28
  8
PROFILEEDGES
  0
POLYLINE
  5
FF
  8
PROFILEEDGES
 66
     1
 10
0.0
 20
0.0
 30
0.0
  0
VERTEX
  5
55E
  8
PROFILEEDGES
 10
-73.9422305847478
 20
-87.55270836160638
 30
0.0
 40
25.4
 41
25.4
  0
VERTEX
  5
55F
  8
PROFILEEDGES
 10
-74.2970896172965
 20
-87.77337388823456
 30
0.0
 40
25.4
 41
25.4
  0
SEQEND
  5
C29
  8
PROFILEEDGES
  0
POLYLINE
  5
100
  8
PROFILEEDGES
 66
     1
 10
0.0
 20
0.0
 30
0.0
  0
VERTEX
  5
560
  8
PROFILEEDGES
 10
-73.6025635485853
 20
-87.3093064056452
 30
0.0
 40
25.4
 41
25.4
  0
VERTEX
  5
561
  8
PROFILEEDGES
 10
-73.9422305847478
 20
-87.55270836160638
 30
0.0
 40
25.4
 41
25.4
  0
SEQEND
  5
C2A
  8
PROFILEEDGES
  0
POLYLINE
  5
101
  8
PROFILEEDGES
 66
     1
 10
0.0
 20
0.0
 30
0.0
  0
VERTEX
  5
562
  8
PROFILEEDGES
 10
-73.27954301520315
 20
-87.04421030489425
 30
0.0
 40
25.4
 41
25.4
  0
VERTEX
  5
563
  8
PROFILEEDGES
 10
-73.6025635485853
 20
-87.3093064056452
 30
0.0
 40
25.4
 41
25.4
  0
SEQEND
  5
C2B
  8
PROFILEEDGES
  0
POLYLINE
  5
102
  8
PROFILEEDGES
 66
     1
 10
0.0
 20
0.0
 30
0.0
  0
VERTEX
  5
564
  8
PROFILEEDGES
 10
-72.97455220811118
 20
-86.75855524155517
 30
0.0
 40
25.4
 41
25.4
  0
VERTEX
  5
565
  8
PROFILEEDGES
 10
-73.27954301520315
 20
-87.04421030489425
 30
0.0
 40
25.4
 41
25.4
  0
SEQEND
  5
C2C
  8
PROFILEEDGES
  0
POLYLINE
  5
103
  8
PROFILEEDGES
 66
     1
 10
0.0
 20
0.0
 30
0.0
  0
VERTEX
  5
566
  8
PROFILEEDGES
 10
-72.68889714477046
 20
-86.4535644344638
 30
0.0
 40
25.4
 41
25.4
  0
VERTEX
  5
567
  8
PROFILEEDGES
 10
-72.97455220811118
 20
-86.75855524155517
 30
0.0
 40
25.4
 41
25.4
  0
SEQEND
  5
C2D
  8
PROFILEEDGES
  0
POLYLINE
  5
104
  8
PROFILEEDGES
 66
     1
 10
0.0
 20
0.0
 30
0.0
  0
VERTEX
  5
568
  8
PROFILEEDGES
 10
-72.42380104401875
 20
-86.13054390107914
 30
0.0
 40
25.4
 41
25.4
  0
VERTEX
  5
569
  8
PROFILEEDGES
 10
-72.68889714477046
 20
-86.4535644344638
 30
0.0
 40
25.4
 41
25.4
  0
SEQEND
  5
C2E
  8
PROFILEEDGES
  0
POLYLINE
  5
105
  8
PROFILEEDGES
 66
     1
 10
0.0
 20
0.0
 30
0.0
  0
VERTEX
  5
56A
  8
PROFILEEDGES
 10
-72.1803990880603
 20
-85.79087686491614
 30
0.0
 40
25.4
 41
25.4
  0
VERTEX
  5
56B
  8
PROFILEEDGES
 10
-72.42380104401875
 20
-86.13054390107914
 30
0.0
 40
25.4
 41
25.4
  0
SEQEND
  5
C2F
  8
PROFILEEDGES
  0
POLYLINE
  5
106
  8
PROFILEEDGES
 66
     1
 10
0.0
 20
0.0
 30
0.0
  0
VERTEX
  5
56C
  8
PROFILEEDGES
 10
-71.95973356143023
 20
-85.43601783237025
 30
0.0
 40
25.4
 41
25.4
  0
VERTEX
  5
56D
  8
PROFILEEDGES
 10
-72.1803990880603
 20
-85.79087686491614
 30
0.0
 40
25.4
 41
25.4
  0
SEQEND
  5
C30
  8
PROFILEEDGES
  0
POLYLINE
  5
107
  8
PROFILEEDGES
 66
     1
 10
0.0
 20
0.0
 30
0.0
  0
VERTEX
  5
56E
  8
PROFILEEDGES
 10
-71.76274938779865
 20
-85.06748636429784
 30
0.0
 40
25.4
 41
25.4
  0
VERTEX
  5
56F
  8
PROFILEEDGES
 10
-71.95973356143023
 20
-85.43601783237025
 30
0.0
 40
25.4
 41
25.4
  0
SEQEND
  5
C31
  8
PROFILEEDGES
  0
POLYLINE
  5
108
  8
PROFILEEDGES
 66
     1
 10
0.0
 20
0.0
 30
0.0
  0
VERTEX
  5
570
  8
PROFILEEDGES
 10
-71.59029008363501
 20
-84.68686056902312
 30
0.0
 40
25.4
 41
25.4
  0
VERTEX
  5
571
  8
PROFILEEDGES
 10
-71.76274938779865
 20
-85.06748636429784
 30
0.0
 40
25.4
 41
25.4
  0
SEQEND
  5
C32
  8
PROFILEEDGES
  0
POLYLINE
  5
109
  8
PROFILEEDGES
 66
     1
 10
0.0
 20
0.0
 30
0.0
  0
VERTEX
  5
572
  8
PROFILEEDGES
 10
-71.44309414615476
 20
-84.29577034463627
 30
0.0
 40
25.4
 41
25.4
  0
VERTEX
  5
573
  8
PROFILEEDGES
 10
-71.59029008363501
 20
-84.68686056902312
 30
0.0
 40
25.4
 41
25.4
  0
SEQEND
  5
C33
  8
PROFILEEDGES
  0
POLYLINE
  5
10A
  8
PROFILEEDGES
 66
     1
 10
0.0
 20
0.0
 30
0.0
  0
VERTEX
  5
574
  8
PROFILEEDGES
 10
-71.32179189096212
 20
-83.8958903995193
 30
0.0
 40
25.4
 41
25.4
  0
VERTEX
  5
575
  8
PROFILEEDGES
 10
-71.44309414615476
 20
-84.29577034463627
 30
0.0
 40
25.4
 41
25.4
  0
SEQEND
  5
C34
  8
PROFILEEDGES
  0
POLYLINE
  5
10B
  8
PROFILEEDGES
 66
     1
 10
0.0
 20
0.0
 30
0.0
  0
VERTEX
  5
576
  8
PROFILEEDGES
 10
-71.22690275293569
 20
-83.48893308098792
 30
0.0
 40
25.4
 41
25.4
  0
VERTEX
  5
577
  8
PROFILEEDGES
 10
-71.32179189096212
 20
-83.8958903995193
 30
0.0
 40
25.4
 41
25.4
  0
SEQEND
  5
C35
  8
PROFILEEDGES
  0
POLYLINE
  5
10C
  8
PROFILEEDGES
 66
     1
 10
0.0
 20
0.0
 30
0.0
  0
VERTEX
  5
578
  8
PROFILEEDGES
 10
-71.15883306193214
 20
-83.07664104275732
 30
0.0
 40
25.4
 41
25.4
  0
VERTEX
  5
579
  8
PROFILEEDGES
 10
-71.22690275293569
 20
-83.48893308098792
 30
0.0
 40
25.4
 41
25.4
  0
SEQEND
  5
C36
  8
PROFILEEDGES
  0
POLYLINE
  5
10D
  8
PROFILEEDGES
 66
     1
 10
0.0
 20
0.0
 30
0.0
  0
VERTEX
  5
57A
  8
PROFILEEDGES
 10
-71.11787430282119
 20
-82.66077978263144
 30
0.0
 40
25.4
 41
25.4
  0
VERTEX
  5
57B
  8
PROFILEEDGES
 10
-71.15883306193214
 20
-83.07664104275732
 30
0.0
 40
25.4
 41
25.4
  0
SEQEND
  5
C37
  8
PROFILEEDGES
  0
POLYLINE
  5
10E
  8
PROFILEEDGES
 66
     1
 10
0.0
 20
0.0
 30
0.0
  0
VERTEX
  5
57C
  8
PROFILEEDGES
 10
-71.10420186729579
 20
-82.24313008237027
 30
0.0
 40
25.4
 41
25.4
  0
VERTEX
  5
57D
  8
PROFILEEDGES
 10
-71.11787430282119
 20
-82.66077978263144
 30
0.0
 40
25.4
 41
25.4
  0
SEQEND
  5
C38
  8
PROFILEEDGES
  0
POLYLINE
  5
10F
  8
PROFILEEDGES
 66
     1
 10
0.0
 20
0.0
 30
0.0
  0
VERTEX
  5
57E
  8
PROFILEEDGES
 10
-71.11787430282119
 20
-81.82548038210913
 30
0.0
 40
25.4
 41
25.4
  0
VERTEX
  5
57F
  8
PROFILEEDGES
 10
-71.10420186729579
 20
-82.24313008237027
 30
0.0
 40
25.4
 41
25.4
  0
SEQEND
  5
C39
  8
PROFILEEDGES
  0
POLYLINE
  5
110
  8
PROFILEEDGES
 66
     1
 10
0.0
 20
0.0
 30
0.0
  0
VERTEX
  5
580
  8
PROFILEEDGES
 10
-71.15883306193214
 20
-81.4096191219832
 30
0.0
 40
25.4
 41
25.4
  0
VERTEX
  5
581
  8
PROFILEEDGES
 10
-71.11787430282119
 20
-81.82548038210913
 30
0.0
 40
25.4
 41
25.4
  0
SEQEND
  5
C3A
  8
PROFILEEDGES
  0
POLYLINE
  5
111
  8
PROFILEEDGES
 66
     1
 10
0.0
 20
0.0
 30
0.0
  0
VERTEX
  5
582
  8
PROFILEEDGES
 10
-71.22690275293567
 20
-80.9973270837526
 30
0.0
 40
25.4
 41
25.4
  0
VERTEX
  5
583
  8
PROFILEEDGES
 10
-71.15883306193214
 20
-81.4096191219832
 30
0.0
 40
25.4
 41
25.4
  0
SEQEND
  5
C3B
  8
PROFILEEDGES
  0
POLYLINE
  5
112
  8
PROFILEEDGES
 66
     1
 10
0.0
 20
0.0
 30
0.0
  0
VERTEX
  5
584
  8
PROFILEEDGES
 10
-71.32179189096209
 20
-80.59036976522123
 30
0.0
 40
25.4
 41
25.4
  0
VERTEX
  5
585
  8
PROFILEEDGES
 10
-71.22690275293567
 20
-80.9973270837526
 30
0.0
 40
25.4
 41
25.4
  0
SEQEND
  5
C3C
  8
PROFILEEDGES
  0
POLYLINE
  5
113
  8
PROFILEEDGES
 66
     1
 10
0.0
 20
0.0
 30
0.0
  0
VERTEX
  5
586
  8
PROFILEEDGES
 10
-71.44309414615475
 20
-80.19048982010425
 30
0.0
 40
25.4
 41
25.4
  0
VERTEX
  5
587
  8
PROFILEEDGES
 10
-71.32179189096209
 20
-80.59036976522123
 30
0.0
 40
25.4
 41
25.4
  0
SEQEND
  5
C3D
  8
PROFILEEDGES
  0
POLYLINE
  5
114
  8
PROFILEEDGES
 66
     1
 10
0.0
 20
0.0
 30
0.0
  0
VERTEX
  5
588
  8
PROFILEEDGES
 10
-71.59029008363498
 20
-79.7993995957174
 30
0.0
 40
25.4
 41
25.4
  0
VERTEX
  5
589
  8
PROFILEEDGES
 10
-71.44309414615475
 20
-80.19048982010425
 30
0.0
 40
25.4
 41
25.4
  0
SEQEND
  5
C3E
  8
PROFILEEDGES
  0
POLYLINE
  5
115
  8
PROFILEEDGES
 66
     1
 10
0.0
 20
0.0
 30
0.0
  0
VERTEX
  5
58A
  8
PROFILEEDGES
 10
-71.76274938779865
 20
-79.4187738004427
 30
0.0
 40
25.4
 41
25.4
  0
VERTEX
  5
58B
  8
PROFILEEDGES
 10
-71.59029008363498
 20
-79.7993995957174
 30
0.0
 40
25.4
 41
25.4
  0
SEQEND
  5
C3F
  8
PROFILEEDGES
  0
POLYLINE
  5
116
  8
PROFILEEDGES
 66
     1
 10
0.0
 20
0.0
 30
0.0
  0
VERTEX
  5
58C
  8
PROFILEEDGES
 10
-71.95973356143021
 20
-79.05024233237029
 30
0.0
 40
25.4
 41
25.4
  0
VERTEX
  5
58D
  8
PROFILEEDGES
 10
-71.76274938779865
 20
-79.4187738004427
 30
0.0
 40
25.4
 41
25.4
  0
SEQEND
  5
C40
  8
PROFILEEDGES
  0
POLYLINE
  5
117
  8
PROFILEEDGES
 66
     1
 10
0.0
 20
0.0
 30
0.0
  0
VERTEX
  5
58E
  8
PROFILEEDGES
 10
-72.1803990880603
 20
-78.69538329982443
 30
0.0
 40
25.4
 41
25.4
  0
VERTEX
  5
58F
  8
PROFILEEDGES
 10
-71.95973356143021
 20
-79.05024233237029
 30
0.0
 40
25.4
 41
25.4
  0
SEQEND
  5
C41
  8
PROFILEEDGES
  0
POLYLINE
  5
118
  8
PROFILEEDGES
 66
     1
 10
0.0
 20
0.0
 30
0.0
  0
VERTEX
  5
590
  8
PROFILEEDGES
 10
-72.42380104401873
 20
-78.35571626366142
 30
0.0
 40
25.4
 41
25.4
  0
VERTEX
  5
591
  8
PROFILEEDGES
 10
-72.1803990880603
 20
-78.69538329982443
 30
0.0
 40
25.4
 41
25.4
  0
SEQEND
  5
C42
  8
PROFILEEDGES
  0
POLYLINE
  5
119
  8
PROFILEEDGES
 66
     1
 10
0.0
 20
0.0
 30
0.0
  0
VERTEX
  5
592
  8
PROFILEEDGES
 10
-72.68889714477045
 20
-78.03269573027674
 30
0.0
 40
25.4
 41
25.4
  0
VERTEX
  5
593
  8
PROFILEEDGES
 10
-72.42380104401873
 20
-78.35571626366142
 30
0.0
 40
25.4
 41
25.4
  0
SEQEND
  5
C43
  8
PROFILEEDGES
  0
POLYLINE
  5
11A
  8
PROFILEEDGES
 66
     1
 10
0.0
 20
0.0
 30
0.0
  0
VERTEX
  5
594
  8
PROFILEEDGES
 10
-72.97455220811116
 20
-77.72770492318537
 30
0.0
 40
25.4
 41
25.4
  0
VERTEX
  5
595
  8
PROFILEEDGES
 10
-72.68889714477045
 20
-78.03269573027674
 30
0.0
 40
25.4
 41
25.4
  0
SEQEND
  5
C44
  8
PROFILEEDGES
  0
POLYLINE
  5
11B
  8
PROFILEEDGES
 66
     1
 10
0.0
 20
0.0
 30
0.0
  0
VERTEX
  5
596
  8
PROFILEEDGES
 10
-73.27954301520312
 20
-77.44204985984632
 30
0.0
 40
25.4
 41
25.4
  0
VERTEX
  5
597
  8
PROFILEEDGES
 10
-72.97455220811116
 20
-77.72770492318537
 30
0.0
 40
25.4
 41
25.4
  0
SEQEND
  5
C45
  8
PROFILEEDGES
  0
POLYLINE
  5
11C
  8
PROFILEEDGES
 66
     1
 10
0.0
 20
0.0
 30
0.0
  0
VERTEX
  5
598
  8
PROFILEEDGES
 10
-73.60256354858527
 20
-77.17695375909535
 30
0.0
 40
25.4
 41
25.4
  0
VERTEX
  5
599
  8
PROFILEEDGES
 10
-73.27954301520312
 20
-77.44204985984632
 30
0.0
 40
25.4
 41
25.4
  0
SEQEND
  5
C46
  8
PROFILEEDGES
  0
POLYLINE
  5
11D
  8
PROFILEEDGES
 66
     1
 10
0.0
 20
0.0
 30
0.0
  0
VERTEX
  5
59A
  8
PROFILEEDGES
 10
-73.94223058474778
 20
-76.93355180313418
 30
0.0
 40
25.4
 41
25.4
  0
VERTEX
  5
59B
  8
PROFILEEDGES
 10
-73.60256354858527
 20
-77.17695375909535
 30
0.0
 40
25.4
 41
25.4
  0
SEQEND
  5
C47
  8
PROFILEEDGES
  0
POLYLINE
  5
11E
  8
PROFILEEDGES
 66
     1
 10
0.0
 20
0.0
 30
0.0
  0
VERTEX
  5
59C
  8
PROFILEEDGES
 10
-74.29708961729648
 20
-76.71288627650601
 30
0.0
 40
25.4
 41
25.4
  0
VERTEX
  5
59D
  8
PROFILEEDGES
 10
-73.94223058474778
 20
-76.93355180313418
 30
0.0
 40
25.4
 41
25.4
  0
SEQEND
  5
C48
  8
PROFILEEDGES
  0
POLYLINE
  5
11F
  8
PROFILEEDGES
 66
     1
 10
0.0
 20
0.0
 30
0.0
  0
VERTEX
  5
59E
  8
PROFILEEDGES
 10
-74.66562108536917
 20
-76.515902102873
 30
0.0
 40
25.4
 41
25.4
  0
VERTEX
  5
59F
  8
PROFILEEDGES
 10
-74.29708961729648
 20
-76.71288627650601
 30
0.0
 40
25.4
 41
25.4
  0
SEQEND
  5
C49
  8
PROFILEEDGES
  0
POLYLINE
  5
120
  8
PROFILEEDGES
 66
     1
 10
0.0
 20
0.0
 30
0.0
  0
VERTEX
  5
5A0
  8
PROFILEEDGES
 10
-75.04624688064405
 20
-76.34344279870827
 30
0.0
 40
25.4
 41
25.4
  0
VERTEX
  5
5A1
  8
PROFILEEDGES
 10
-74.66562108536917
 20
-76.515902102873
 30
0.0
 40
25.4
 41
25.4
  0
SEQEND
  5
C4A
  8
PROFILEEDGES
  0
POLYLINE
  5
121
  8
PROFILEEDGES
 66
     1
 10
0.0
 20
0.0
 30
0.0
  0
VERTEX
  5
5A2
  8
PROFILEEDGES
 10
-75.4373371050283
 20
-76.19624686122862
 30
0.0
 40
25.4
 41
25.4
  0
VERTEX
  5
5A3
  8
PROFILEEDGES
 10
-75.04624688064405
 20
-76.34344279870827
 30
0.0
 40
25.4
 41
25.4
  0
SEQEND
  5
C4B
  8
PROFILEEDGES
  0
POLYLINE
  5
122
  8
PROFILEEDGES
 66
     1
 10
0.0
 20
0.0
 30
0.0
  0
VERTEX
  5
5A4
  8
PROFILEEDGES
 10
-75.83721705014669
 20
-76.0749446060363
 30
0.0
 40
25.4
 41
25.4
  0
VERTEX
  5
5A5
  8
PROFILEEDGES
 10
-75.4373371050283
 20
-76.19624686122862
 30
0.0
 40
25.4
 41
25.4
  0
SEQEND
  5
C4C
  8
PROFILEEDGES
  0
POLYLINE
  5
123
  8
PROFILEEDGES
 66
     1
 10
0.0
 20
0.0
 30
0.0
  0
VERTEX
  5
5A6
  8
PROFILEEDGES
 10
-76.24417436867722
 20
-75.9800554680107
 30
0.0
 40
25.4
 41
25.4
  0
VERTEX
  5
5A7
  8
PROFILEEDGES
 10
-75.83721705014669
 20
-76.0749446060363
 30
0.0
 40
25.4
 41
25.4
  0
SEQEND
  5
C4D
  8
PROFILEEDGES
  0
POLYLINE
  5
124
  8
PROFILEEDGES
 66
     1
 10
0.0
 20
0.0
 30
0.0
  0
VERTEX
  5
5A8
  8
PROFILEEDGES
 10
-76.65646640690775
 20
-75.91198577700851
 30
0.0
 40
25.4
 41
25.4
  0
VERTEX
  5
5A9
  8
PROFILEEDGES
 10
-76.24417436867722
 20
-75.9800554680107
 30
0.0
 40
25.4
 41
25.4
  0
SEQEND
  5
C4E
  8
PROFILEEDGES
  0
POLYLINE
  5
125
  8
PROFILEEDGES
 66
     1
 10
0.0
 20
0.0
 30
0.0
  0
VERTEX
  5
5AA
  8
PROFILEEDGES
 10
-77.07232766703554
 20
-75.87102701789681
 30
0.0
 40
25.4
 41
25.4
  0
VERTEX
  5
5AB
  8
PROFILEEDGES
 10
-76.65646640690775
 20
-75.91198577700851
 30
0.0
 40
25.4
 41
25.4
  0
SEQEND
  5
C4F
  8
PROFILEEDGES
  0
POLYLINE
  5
126
  8
PROFILEEDGES
 66
     1
 10
0.0
 20
0.0
 30
0.0
  0
VERTEX
  5
5AC
  8
PROFILEEDGES
 10
-92.57977826751583
 20
-57.20281056627726
 30
0.0
 40
25.4
 41
25.4
  0
VERTEX
  5
5AD
  8
PROFILEEDGES
 10
-92.22638236729664
 20
-57.19124158237022
 30
0.0
 40
25.4
 41
25.4
  0
SEQEND
  5
C50
  8
PROFILEEDGES
  0
POLYLINE
  5
127
  8
PROFILEEDGES
 66
     1
 10
0.0
 20
0.0
 30
0.0
  0
VERTEX
  5
5AE
  8
PROFILEEDGES
 10
-92.93166087223977
 20
-57.23746797783333
 30
0.0
 40
25.4
 41
25.4
  0
VERTEX
  5
5AF
  8
PROFILEEDGES
 10
-92.57977826751583
 20
-57.20281056627726
 30
0.0
 40
25.4
 41
25.4
  0
SEQEND
  5
C51
  8
PROFILEEDGES
  0
POLYLINE
  5
128
  8
PROFILEEDGES
 66
     1
 10
0.0
 20
0.0
 30
0.0
  0
VERTEX
  5
5B0
  8
PROFILEEDGES
 10
-93.28052336612618
 20
-57.29506540868128
 30
0.0
 40
25.4
 41
25.4
  0
VERTEX
  5
5B1
  8
PROFILEEDGES
 10
-92.93166087223977
 20
-57.23746797783333
 30
0.0
 40
25.4
 41
25.4
  0
SEQEND
  5
C52
  8
PROFILEEDGES
  0
POLYLINE
  5
129
  8
PROFILEEDGES
 66
     1
 10
0.0
 20
0.0
 30
0.0
  0
VERTEX
  5
5B2
  8
PROFILEEDGES
 10
-93.6248718664208
 20
-57.37535621777989
 30
0.0
 40
25.4
 41
25.4
  0
VERTEX
  5
5B3
  8
PROFILEEDGES
 10
-93.28052336612618
 20
-57.29506540868128
 30
0.0
 40
25.4
 41
25.4
  0
SEQEND
  5
C53
  8
PROFILEEDGES
  0
POLYLINE
  5
12A
  8
PROFILEEDGES
 66
     1
 10
0.0
 20
0.0
 30
0.0
  0
VERTEX
  5
5B4
  8
PROFILEEDGES
 10
-93.96323181998078
 20
-57.477996587558
 30
0.0
 40
25.4
 41
25.4
  0
VERTEX
  5
5B5
  8
PROFILEEDGES
 10
-93.6248718664208
 20
-57.37535621777989
 30
0.0
 40
25.4
 41
25.4
  0
SEQEND
  5
C54
  8
PROFILEEDGES
  0
POLYLINE
  5
12B
  8
PROFILEEDGES
 66
     1
 10
0.0
 20
0.0
 30
0.0
  0
VERTEX
  5
5B6
  8
PROFILEEDGES
 10
-94.29415431753831
 20
-57.60254699619457
 30
0.0
 40
25.4
 41
25.4
  0
VERTEX
  5
5B7
  8
PROFILEEDGES
 10
-93.96323181998078
 20
-57.477996587558
 30
0.0
 40
25.4
 41
25.4
  0
SEQEND
  5
C55
  8
PROFILEEDGES
  0
POLYLINE
  5
12C
  8
PROFILEEDGES
 66
     1
 10
0.0
 20
0.0
 30
0.0
  0
VERTEX
  5
5B8
  8
PROFILEEDGES
 10
-94.61622229815804
 20
-57.74847409971863
 30
0.0
 40
25.4
 41
25.4
  0
VERTEX
  5
5B9
  8
PROFILEEDGES
 10
-94.29415431753831
 20
-57.60254699619457
 30
0.0
 40
25.4
 41
25.4
  0
SEQEND
  5
C56
  8
PROFILEEDGES
  0
POLYLINE
  5
12D
  8
PROFILEEDGES
 66
     1
 10
0.0
 20
0.0
 30
0.0
  0
VERTEX
  5
5BA
  8
PROFILEEDGES
 10
-94.9280566172946
 20
-57.91515301586961
 30
0.0
 40
25.4
 41
25.4
  0
VERTEX
  5
5BB
  8
PROFILEEDGES
 10
-94.61622229815804
 20
-57.74847409971863
 30
0.0
 40
25.4
 41
25.4
  0
SEQEND
  5
C57
  8
PROFILEEDGES
  0
POLYLINE
  5
12E
  8
PROFILEEDGES
 66
     1
 10
0.0
 20
0.0
 30
0.0
  0
VERTEX
  5
5BC
  8
PROFILEEDGES
 10
-95.22832195252714
 20
-58.10186999993964
 30
0.0
 40
25.4
 41
25.4
  0
VERTEX
  5
5BD
  8
PROFILEEDGES
 10
-94.9280566172946
 20
-57.91515301586961
 30
0.0
 40
25.4
 41
25.4
  0
SEQEND
  5
C58
  8
PROFILEEDGES
  0
POLYLINE
  5
12F
  8
PROFILEEDGES
 66
     1
 10
0.0
 20
0.0
 30
0.0
  0
VERTEX
  5
5BE
  8
PROFILEEDGES
 10
-95.5157325215887
 20
-58.30782550113754
 30
0.0
 40
25.4
 41
25.4
  0
VERTEX
  5
5BF
  8
PROFILEEDGES
 10
-95.22832195252714
 20
-58.10186999993964
 30
0.0
 40
25.4
 41
25.4
  0
SEQEND
  5
C59
  8
PROFILEEDGES
  0
POLYLINE
  5
130
  8
PROFILEEDGES
 66
     1
 10
0.0
 20
0.0
 30
0.0
  0
VERTEX
  5
5C0
  8
PROFILEEDGES
 10
-95.78905758829623
 20
-58.53213758638837
 30
0.0
 40
25.4
 41
25.4
  0
VERTEX
  5
5C1
  8
PROFILEEDGES
 10
-95.5157325215887
 20
-58.30782550113754
 30
0.0
 40
25.4
 41
25.4
  0
SEQEND
  5
C5A
  8
PROFILEEDGES
  0
POLYLINE
  5
131
  8
PROFILEEDGES
 66
     1
 10
0.0
 20
0.0
 30
0.0
  0
VERTEX
  5
5C2
  8
PROFILEEDGES
 10
-96.0471267327567
 20
-58.77384571690603
 30
0.0
 40
25.4
 41
25.4
  0
VERTEX
  5
5C3
  8
PROFILEEDGES
 10
-95.78905758829623
 20
-58.53213758638837
 30
0.0
 40
25.4
 41
25.4
  0
SEQEND
  5
C5B
  8
PROFILEEDGES
  0
POLYLINE
  5
132
  8
PROFILEEDGES
 66
     1
 10
0.0
 20
0.0
 30
0.0
  0
VERTEX
  5
5C4
  8
PROFILEEDGES
 10
-96.28883486327916
 20
-59.03191486136797
 30
0.0
 40
25.4
 41
25.4
  0
VERTEX
  5
5C5
  8
PROFILEEDGES
 10
-96.0471267327567
 20
-58.77384571690603
 30
0.0
 40
25.4
 41
25.4
  0
SEQEND
  5
C5C
  8
PROFILEEDGES
  0
POLYLINE
  5
133
  8
PROFILEEDGES
 66
     1
 10
0.0
 20
0.0
 30
0.0
  0
VERTEX
  5
5C6
  8
PROFILEEDGES
 10
-96.51314694852853
 20
-59.30523992807806
 30
0.0
 40
25.4
 41
25.4
  0
VERTEX
  5
5C7
  8
PROFILEEDGES
 10
-96.28883486327916
 20
-59.03191486136797
 30
0.0
 40
25.4
 41
25.4
  0
SEQEND
  5
C5D
  8
PROFILEEDGES
  0
POLYLINE
  5
134
  8
PROFILEEDGES
 66
     1
 10
0.0
 20
0.0
 30
0.0
  0
VERTEX
  5
5C8
  8
PROFILEEDGES
 10
-96.71910244972688
 20
-59.59265049713906
 30
0.0
 40
25.4
 41
25.4
  0
VERTEX
  5
5C9
  8
PROFILEEDGES
 10
-96.51314694852853
 20
-59.30523992807806
 30
0.0
 40
25.4
 41
25.4
  0
SEQEND
  5
C5E
  8
PROFILEEDGES
  0
POLYLINE
  5
135
  8
PROFILEEDGES
 66
     1
 10
0.0
 20
0.0
 30
0.0
  0
VERTEX
  5
5CA
  8
PROFILEEDGES
 10
-96.90581943379532
 20
-59.89291583237019
 30
0.0
 40
25.4
 41
25.4
  0
VERTEX
  5
5CB
  8
PROFILEEDGES
 10
-96.71910244972688
 20
-59.59265049713906
 30
0.0
 40
25.4
 41
25.4
  0
SEQEND
  5
C5F
  8
PROFILEEDGES
  0
POLYLINE
  5
136
  8
PROFILEEDGES
 66
     1
 10
0.0
 20
0.0
 30
0.0
  0
VERTEX
  5
5CC
  8
PROFILEEDGES
 10
-97.07249834994607
 20
-60.20475015150841
 30
0.0
 40
25.4
 41
25.4
  0
VERTEX
  5
5CD
  8
PROFILEEDGES
 10
-96.90581943379532
 20
-59.89291583237019
 30
0.0
 40
25.4
 41
25.4
  0
SEQEND
  5
C60
  8
PROFILEEDGES
  0
POLYLINE
  5
137
  8
PROFILEEDGES
 66
     1
 10
0.0
 20
0.0
 30
0.0
  0
VERTEX
  5
5CE
  8
PROFILEEDGES
 10
-97.2184254534717
 20
-60.52681813212547
 30
0.0
 40
25.4
 41
25.4
  0
VERTEX
  5
5CF
  8
PROFILEEDGES
 10
-97.07249834994607
 20
-60.20475015150841
 30
0.0
 40
25.4
 41
25.4
  0
SEQEND
  5
C61
  8
PROFILEEDGES
  0
POLYLINE
  5
138
  8
PROFILEEDGES
 66
     1
 10
0.0
 20
0.0
 30
0.0
  0
VERTEX
  5
5D0
  8
PROFILEEDGES
 10
-97.34297586210587
 20
-60.85774062968353
 30
0.0
 40
25.4
 41
25.4
  0
VERTEX
  5
5D1
  8
PROFILEEDGES
 10
-97.2184254534717
 20
-60.52681813212547
 30
0.0
 40
25.4
 41
25.4
  0
SEQEND
  5
C62
  8
PROFILEEDGES
  0
POLYLINE
  5
139
  8
PROFILEEDGES
 66
     1
 10
0.0
 20
0.0
 30
0.0
  0
VERTEX
  5
5D2
  8
PROFILEEDGES
 10
-97.44561623188514
 20
-61.19610058324408
 30
0.0
 40
25.4
 41
25.4
  0
VERTEX
  5
5D3
  8
PROFILEEDGES
 10
-97.34297586210587
 20
-60.85774062968353
 30
0.0
 40
25.4
 41
25.4
  0
SEQEND
  5
C63
  8
PROFILEEDGES
  0
POLYLINE
  5
13A
  8
PROFILEEDGES
 66
     1
 10
0.0
 20
0.0
 30
0.0
  0
VERTEX
  5
5D4
  8
PROFILEEDGES
 10
-97.52590704098606
 20
-61.54044908353982
 30
0.0
 40
25.4
 41
25.4
  0
VERTEX
  5
5D5
  8
PROFILEEDGES
 10
-97.44561623188514
 20
-61.19610058324408
 30
0.0
 40
25.4
 41
25.4
  0
SEQEND
  5
C64
  8
PROFILEEDGES
  0
POLYLINE
  5
13B
  8
PROFILEEDGES
 66
     1
 10
0.0
 20
0.0
 30
0.0
  0
VERTEX
  5
5D6
  8
PROFILEEDGES
 10
-97.58350447183041
 20
-61.88931157742731
 30
0.0
 40
25.4
 41
25.4
  0
VERTEX
  5
5D7
  8
PROFILEEDGES
 10
-97.52590704098606
 20
-61.54044908353982
 30
0.0
 40
25.4
 41
25.4
  0
SEQEND
  5
C65
  8
PROFILEEDGES
  0
POLYLINE
  5
13C
  8
PROFILEEDGES
 66
     1
 10
0.0
 20
0.0
 30
0.0
  0
VERTEX
  5
5D8
  8
PROFILEEDGES
 10
-97.61816188338997
 20
-62.24119418214923
 30
0.0
 40
25.4
 41
25.4
  0
VERTEX
  5
5D9
  8
PROFILEEDGES
 10
-97.58350447183041
 20
-61.88931157742731
 30
0.0
 40
25.4
 41
25.4
  0
SEQEND
  5
C66
  8
PROFILEEDGES
  0
POLYLINE
  5
13D
  8
PROFILEEDGES
 66
     1
 10
0.0
 20
0.0
 30
0.0
  0
VERTEX
  5
5DA
  8
PROFILEEDGES
 10
-97.62973086729684
 20
-62.59459008237022
 30
0.0
 40
25.4
 41
25.4
  0
VERTEX
  5
5DB
  8
PROFILEEDGES
 10
-97.61816188338997
 20
-62.24119418214923
 30
0.0
 40
25.4
 41
25.4
  0
SEQEND
  5
C67
  8
PROFILEEDGES
  0
POLYLINE
  5
13E
  8
PROFILEEDGES
 66
     1
 10
0.0
 20
0.0
 30
0.0
  0
VERTEX
  5
5DC
  8
PROFILEEDGES
 10
-97.61816188338997
 20
-62.94798598259118
 30
0.0
 40
25.4
 41
25.4
  0
VERTEX
  5
5DD
  8
PROFILEEDGES
 10
-97.62973086729684
 20
-62.59459008237022
 30
0.0
 40
25.4
 41
25.4
  0
SEQEND
  5
C68
  8
PROFILEEDGES
  0
POLYLINE
  5
13F
  8
PROFILEEDGES
 66
     1
 10
0.0
 20
0.0
 30
0.0
  0
VERTEX
  5
5DE
  8
PROFILEEDGES
 10
-97.58350447183041
 20
-63.29986858731314
 30
0.0
 40
25.4
 41
25.4
  0
VERTEX
  5
5DF
  8
PROFILEEDGES
 10
-97.61816188338997
 20
-62.94798598259118
 30
0.0
 40
25.4
 41
25.4
  0
SEQEND
  5
C69
  8
PROFILEEDGES
  0
POLYLINE
  5
140
  8
PROFILEEDGES
 66
     1
 10
0.0
 20
0.0
 30
0.0
  0
VERTEX
  5
5E0
  8
PROFILEEDGES
 10
-97.52590704098606
 20
-63.64873108120061
 30
0.0
 40
25.4
 41
25.4
  0
VERTEX
  5
5E1
  8
PROFILEEDGES
 10
-97.58350447183041
 20
-63.29986858731314
 30
0.0
 40
25.4
 41
25.4
  0
SEQEND
  5
C6A
  8
PROFILEEDGES
  0
POLYLINE
  5
141
  8
PROFILEEDGES
 66
     1
 10
0.0
 20
0.0
 30
0.0
  0
VERTEX
  5
5E2
  8
PROFILEEDGES
 10
-97.44561623188514
 20
-63.99307958149635
 30
0.0
 40
25.4
 41
25.4
  0
VERTEX
  5
5E3
  8
PROFILEEDGES
 10
-97.52590704098606
 20
-63.64873108120061
 30
0.0
 40
25.4
 41
25.4
  0
SEQEND
  5
C6B
  8
PROFILEEDGES
  0
POLYLINE
  5
142
  8
PROFILEEDGES
 66
     1
 10
0.0
 20
0.0
 30
0.0
  0
VERTEX
  5
5E4
  8
PROFILEEDGES
 10
-97.34297586210587
 20
-64.33143953505686
 30
0.0
 40
25.4
 41
25.4
  0
VERTEX
  5
5E5
  8
PROFILEEDGES
 10
-97.44561623188514
 20
-63.99307958149635
 30
0.0
 40
25.4
 41
25.4
  0
SEQEND
  5
C6C
  8
PROFILEEDGES
  0
POLYLINE
  5
143
  8
PROFILEEDGES
 66
     1
 10
0.0
 20
0.0
 30
0.0
  0
VERTEX
  5
5E6
  8
PROFILEEDGES
 10
-97.2184254534717
 20
-64.66236203261495
 30
0.0
 40
25.4
 41
25.4
  0
VERTEX
  5
5E7
  8
PROFILEEDGES
 10
-97.34297586210587
 20
-64.33143953505686
 30
0.0
 40
25.4
 41
25.4
  0
SEQEND
  5
C6D
  8
PROFILEEDGES
  0
POLYLINE
  5
144
  8
PROFILEEDGES
 66
     1
 10
0.0
 20
0.0
 30
0.0
  0
VERTEX
  5
5E8
  8
PROFILEEDGES
 10
-97.07249834994609
 20
-64.98443001323201
 30
0.0
 40
25.4
 41
25.4
  0
VERTEX
  5
5E9
  8
PROFILEEDGES
 10
-97.2184254534717
 20
-64.66236203261495
 30
0.0
 40
25.4
 41
25.4
  0
SEQEND
  5
C6E
  8
PROFILEEDGES
  0
POLYLINE
  5
145
  8
PROFILEEDGES
 66
     1
 10
0.0
 20
0.0
 30
0.0
  0
VERTEX
  5
5EA
  8
PROFILEEDGES
 10
-96.90581943379533
 20
-65.29626433237021
 30
0.0
 40
25.4
 41
25.4
  0
VERTEX
  5
5EB
  8
PROFILEEDGES
 10
-97.07249834994609
 20
-64.98443001323201
 30
0.0
 40
25.4
 41
25.4
  0
SEQEND
  5
C6F
  8
PROFILEEDGES
  0
POLYLINE
  5
146
  8
PROFILEEDGES
 66
     1
 10
0.0
 20
0.0
 30
0.0
  0
VERTEX
  5
5EC
  8
PROFILEEDGES
 10
-96.71910244972689
 20
-65.59652966760136
 30
0.0
 40
25.4
 41
25.4
  0
VERTEX
  5
5ED
  8
PROFILEEDGES
 10
-96.90581943379533
 20
-65.29626433237021
 30
0.0
 40
25.4
 41
25.4
  0
SEQEND
  5
C70
  8
PROFILEEDGES
  0
POLYLINE
  5
147
  8
PROFILEEDGES
 66
     1
 10
0.0
 20
0.0
 30
0.0
  0
VERTEX
  5
5EE
  8
PROFILEEDGES
 10
-96.51314694852856
 20
-65.88394023666234
 30
0.0
 40
25.4
 41
25.4
  0
VERTEX
  5
5EF
  8
PROFILEEDGES
 10
-96.71910244972689
 20
-65.59652966760136
 30
0.0
 40
25.4
 41
25.4
  0
SEQEND
  5
C71
  8
PROFILEEDGES
  0
POLYLINE
  5
148
  8
PROFILEEDGES
 66
     1
 10
0.0
 20
0.0
 30
0.0
  0
VERTEX
  5
5F0
  8
PROFILEEDGES
 10
-96.28883486327918
 20
-66.15726530337245
 30
0.0
 40
25.4
 41
25.4
  0
VERTEX
  5
5F1
  8
PROFILEEDGES
 10
-96.51314694852856
 20
-65.88394023666234
 30
0.0
 40
25.4
 41
25.4
  0
SEQEND
  5
C72
  8
PROFILEEDGES
  0
POLYLINE
  5
149
  8
PROFILEEDGES
 66
     1
 10
0.0
 20
0.0
 30
0.0
  0
VERTEX
  5
5F2
  8
PROFILEEDGES
 10
-96.04712673275672
 20
-66.41533444783435
 30
0.0
 40
25.4
 41
25.4
  0
VERTEX
  5
5F3
  8
PROFILEEDGES
 10
-96.28883486327918
 20
-66.15726530337245
 30
0.0
 40
25.4
 41
25.4
  0
SEQEND
  5
C73
  8
PROFILEEDGES
  0
POLYLINE
  5
14A
  8
PROFILEEDGES
 66
     1
 10
0.0
 20
0.0
 30
0.0
  0
VERTEX
  5
5F4
  8
PROFILEEDGES
 10
-95.78905758829626
 20
-66.65704257835203
 30
0.0
 40
25.4
 41
25.4
  0
VERTEX
  5
5F5
  8
PROFILEEDGES
 10
-96.04712673275672
 20
-66.41533444783435
 30
0.0
 40
25.4
 41
25.4
  0
SEQEND
  5
C74
  8
PROFILEEDGES
  0
POLYLINE
  5
14B
  8
PROFILEEDGES
 66
     1
 10
0.0
 20
0.0
 30
0.0
  0
VERTEX
  5
5F6
  8
PROFILEEDGES
 10
-95.51573252158873
 20
-66.88135466360289
 30
0.0
 40
25.4
 41
25.4
  0
VERTEX
  5
5F7
  8
PROFILEEDGES
 10
-95.78905758829626
 20
-66.65704257835203
 30
0.0
 40
25.4
 41
25.4
  0
SEQEND
  5
C75
  8
PROFILEEDGES
  0
POLYLINE
  5
14C
  8
PROFILEEDGES
 66
     1
 10
0.0
 20
0.0
 30
0.0
  0
VERTEX
  5
5F8
  8
PROFILEEDGES
 10
-95.22832195252717
 20
-67.08731016480077
 30
0.0
 40
25.4
 41
25.4
  0
VERTEX
  5
5F9
  8
PROFILEEDGES
 10
-95.51573252158873
 20
-66.88135466360289
 30
0.0
 40
25.4
 41
25.4
  0
SEQEND
  5
C76
  8
PROFILEEDGES
  0
POLYLINE
  5
14D
  8
PROFILEEDGES
 66
     1
 10
0.0
 20
0.0
 30
0.0
  0
VERTEX
  5
5FA
  8
PROFILEEDGES
 10
-94.92805661729463
 20
-67.27402714887077
 30
0.0
 40
25.4
 41
25.4
  0
VERTEX
  5
5FB
  8
PROFILEEDGES
 10
-95.22832195252717
 20
-67.08731016480077
 30
0.0
 40
25.4
 41
25.4
  0
SEQEND
  5
C77
  8
PROFILEEDGES
  0
POLYLINE
  5
14E
  8
PROFILEEDGES
 66
     1
 10
0.0
 20
0.0
 30
0.0
  0
VERTEX
  5
5FC
  8
PROFILEEDGES
 10
-94.61622229815806
 20
-67.4407060650218
 30
0.0
 40
25.4
 41
25.4
  0
VERTEX
  5
5FD
  8
PROFILEEDGES
 10
-94.92805661729463
 20
-67.27402714887077
 30
0.0
 40
25.4
 41
25.4
  0
SEQEND
  5
C78
  8
PROFILEEDGES
  0
POLYLINE
  5
14F
  8
PROFILEEDGES
 66
     1
 10
0.0
 20
0.0
 30
0.0
  0
VERTEX
  5
5FE
  8
PROFILEEDGES
 10
-94.29415431753833
 20
-67.5866331685458
 30
0.0
 40
25.4
 41
25.4
  0
VERTEX
  5
5FF
  8
PROFILEEDGES
 10
-94.61622229815806
 20
-67.4407060650218
 30
0.0
 40
25.4
 41
25.4
  0
SEQEND
  5
C79
  8
PROFILEEDGES
  0
POLYLINE
  5
150
  8
PROFILEEDGES
 66
     1
 10
0.0
 20
0.0
 30
0.0
  0
VERTEX
  5
600
  8
PROFILEEDGES
 10
-93.96323181998079
 20
-67.71118357718241
 30
0.0
 40
25.4
 41
25.4
  0
VERTEX
  5
601
  8
PROFILEEDGES
 10
-94.29415431753833
 20
-67.5866331685458
 30
0.0
 40
25.4
 41
25.4
  0
SEQEND
  5
C7A
  8
PROFILEEDGES
  0
POLYLINE
  5
151
  8
PROFILEEDGES
 66
     1
 10
0.0
 20
0.0
 30
0.0
  0
VERTEX
  5
602
  8
PROFILEEDGES
 10
-93.62487186642082
 20
-67.81382394696053
 30
0.0
 40
25.4
 41
25.4
  0
VERTEX
  5
603
  8
PROFILEEDGES
 10
-93.96323181998079
 20
-67.71118357718241
 30
0.0
 40
25.4
 41
25.4
  0
SEQEND
  5
C7B
  8
PROFILEEDGES
  0
POLYLINE
  5
152
  8
PROFILEEDGES
 66
     1
 10
0.0
 20
0.0
 30
0.0
  0
VERTEX
  5
604
  8
PROFILEEDGES
 10
-93.28052336612619
 20
-67.89411475605908
 30
0.0
 40
25.4
 41
25.4
  0
VERTEX
  5
605
  8
PROFILEEDGES
 10
-93.62487186642082
 20
-67.81382394696053
 30
0.0
 40
25.4
 41
25.4
  0
SEQEND
  5
C7C
  8
PROFILEEDGES
  0
POLYLINE
  5
153
  8
PROFILEEDGES
 66
     1
 10
0.0
 20
0.0
 30
0.0
  0
VERTEX
  5
606
  8
PROFILEEDGES
 10
-92.93166087223979
 20
-67.95171218690712
 30
0.0
 40
25.4
 41
25.4
  0
VERTEX
  5
607
  8
PROFILEEDGES
 10
-93.28052336612619
 20
-67.89411475605908
 30
0.0
 40
25.4
 41
25.4
  0
SEQEND
  5
C7D
  8
PROFILEEDGES
  0
POLYLINE
  5
154
  8
PROFILEEDGES
 66
     1
 10
0.0
 20
0.0
 30
0.0
  0
VERTEX
  5
608
  8
PROFILEEDGES
 10
-92.57977826751586
 20
-67.98636959846314
 30
0.0
 40
25.4
 41
25.4
  0
VERTEX
  5
609
  8
PROFILEEDGES
 10
-92.93166087223979
 20
-67.95171218690712
 30
0.0
 40
25.4
 41
25.4
  0
SEQEND
  5
C7E
  8
PROFILEEDGES
  0
POLYLINE
  5
155
  8
PROFILEEDGES
 66
     1
 10
0.0
 20
0.0
 30
0.0
  0
VERTEX
  5
60A
  8
PROFILEEDGES
 10
-92.22638236729665
 20
-67.99793858237021
 30
0.0
 40
25.4
 41
25.4
  0
VERTEX
  5
60B
  8
PROFILEEDGES
 10
-92.57977826751586
 20
-67.98636959846314
 30
0.0
 40
25.4
 41
25.4
  0
SEQEND
  5
C7F
  8
PROFILEEDGES
  0
POLYLINE
  5
156
  8
PROFILEEDGES
 66
     1
 10
0.0
 20
0.0
 30
0.0
  0
VERTEX
  5
60C
  8
PROFILEEDGES
 10
-91.8729864670732
 20
-67.98636959846314
 30
0.0
 40
25.4
 41
25.4
  0
VERTEX
  5
60D
  8
PROFILEEDGES
 10
-92.22638236729665
 20
-67.99793858237021
 30
0.0
 40
25.4
 41
25.4
  0
SEQEND
  5
C80
  8
PROFILEEDGES
  0
POLYLINE
  5
157
  8
PROFILEEDGES
 66
     1
 10
0.0
 20
0.0
 30
0.0
  0
VERTEX
  5
60E
  8
PROFILEEDGES
 10
-91.52110386235351
 20
-67.95171218690712
 30
0.0
 40
25.4
 41
25.4
  0
VERTEX
  5
60F
  8
PROFILEEDGES
 10
-91.8729864670732
 20
-67.98636959846314
 30
0.0
 40
25.4
 41
25.4
  0
SEQEND
  5
C81
  8
PROFILEEDGES
  0
POLYLINE
  5
158
  8
PROFILEEDGES
 66
     1
 10
0.0
 20
0.0
 30
0.0
  0
VERTEX
  5
610
  8
PROFILEEDGES
 10
-91.17224136846427
 20
-67.8941147560591
 30
0.0
 40
25.4
 41
25.4
  0
VERTEX
  5
611
  8
PROFILEEDGES
 10
-91.52110386235351
 20
-67.95171218690712
 30
0.0
 40
25.4
 41
25.4
  0
SEQEND
  5
C82
  8
PROFILEEDGES
  0
POLYLINE
  5
159
  8
PROFILEEDGES
 66
     1
 10
0.0
 20
0.0
 30
0.0
  0
VERTEX
  5
612
  8
PROFILEEDGES
 10
-90.82789286816822
 20
-67.81382394696054
 30
0.0
 40
25.4
 41
25.4
  0
VERTEX
  5
613
  8
PROFILEEDGES
 10
-91.17224136846427
 20
-67.8941147560591
 30
0.0
 40
25.4
 41
25.4
  0
SEQEND
  5
C83
  8
PROFILEEDGES
  0
POLYLINE
  5
15A
  8
PROFILEEDGES
 66
     1
 10
0.0
 20
0.0
 30
0.0
  0
VERTEX
  5
614
  8
PROFILEEDGES
 10
-90.48953291460825
 20
-67.71118357718241
 30
0.0
 40
25.4
 41
25.4
  0
VERTEX
  5
615
  8
PROFILEEDGES
 10
-90.82789286816822
 20
-67.81382394696054
 30
0.0
 40
25.4
 41
25.4
  0
SEQEND
  5
C84
  8
PROFILEEDGES
  0
POLYLINE
  5
15B
  8
PROFILEEDGES
 66
     1
 10
0.0
 20
0.0
 30
0.0
  0
VERTEX
  5
616
  8
PROFILEEDGES
 10
-90.15861041704929
 20
-67.58663316854582
 30
0.0
 40
25.4
 41
25.4
  0
VERTEX
  5
617
  8
PROFILEEDGES
 10
-90.48953291460825
 20
-67.71118357718241
 30
0.0
 40
25.4
 41
25.4
  0
SEQEND
  5
C85
  8
PROFILEEDGES
  0
POLYLINE
  5
15C
  8
PROFILEEDGES
 66
     1
 10
0.0
 20
0.0
 30
0.0
  0
VERTEX
  5
618
  8
PROFILEEDGES
 10
-89.83654243643525
 20
-67.44070606502183
 30
0.0
 40
25.4
 41
25.4
  0
VERTEX
  5
619
  8
PROFILEEDGES
 10
-90.15861041704929
 20
-67.58663316854582
 30
0.0
 40
25.4
 41
25.4
  0
SEQEND
  5
C86
  8
PROFILEEDGES
  0
POLYLINE
  5
15D
  8
PROFILEEDGES
 66
     1
 10
0.0
 20
0.0
 30
0.0
  0
VERTEX
  5
61A
  8
PROFILEEDGES
 10
-89.52470811729442
 20
-67.27402714887079
 30
0.0
 40
25.4
 41
25.4
  0
VERTEX
  5
61B
  8
PROFILEEDGES
 10
-89.83654243643525
 20
-67.44070606502183
 30
0.0
 40
25.4
 41
25.4
  0
SEQEND
  5
C87
  8
PROFILEEDGES
  0
POLYLINE
  5
15E
  8
PROFILEEDGES
 66
     1
 10
0.0
 20
0.0
 30
0.0
  0
VERTEX
  5
61C
  8
PROFILEEDGES
 10
-89.2244427820633
 20
-67.08731016480078
 30
0.0
 40
25.4
 41
25.4
  0
VERTEX
  5
61D
  8
PROFILEEDGES
 10
-89.52470811729442
 20
-67.27402714887079
 30
0.0
 40
25.4
 41
25.4
  0
SEQEND
  5
C88
  8
PROFILEEDGES
  0
POLYLINE
  5
15F
  8
PROFILEEDGES
 66
     1
 10
0.0
 20
0.0
 30
0.0
  0
VERTEX
  5
61E
  8
PROFILEEDGES
 10
-88.93703221300458
 20
-66.8813546636029
 30
0.0
 40
25.4
 41
25.4
  0
VERTEX
  5
61F
  8
PROFILEEDGES
 10
-89.2244427820633
 20
-67.08731016480078
 30
0.0
 40
25.4
 41
25.4
  0
SEQEND
  5
C89
  8
PROFILEEDGES
  0
POLYLINE
  5
160
  8
PROFILEEDGES
 66
     1
 10
0.0
 20
0.0
 30
0.0
  0
VERTEX
  5
620
  8
PROFILEEDGES
 10
-88.66370714629139
 20
-66.65704257835203
 30
0.0
 40
25.4
 41
25.4
  0
VERTEX
  5
621
  8
PROFILEEDGES
 10
-88.93703221300458
 20
-66.8813546636029
 30
0.0
 40
25.4
 41
25.4
  0
SEQEND
  5
C8A
  8
PROFILEEDGES
  0
POLYLINE
  5
161
  8
PROFILEEDGES
 66
     1
 10
0.0
 20
0.0
 30
0.0
  0
VERTEX
  5
622
  8
PROFILEEDGES
 10
-88.40563800183233
 20
-66.41533444783437
 30
0.0
 40
25.4
 41
25.4
  0
VERTEX
  5
623
  8
PROFILEEDGES
 10
-88.66370714629139
 20
-66.65704257835203
 30
0.0
 40
25.4
 41
25.4
  0
SEQEND
  5
C8B
  8
PROFILEEDGES
  0
POLYLINE
  5
162
  8
PROFILEEDGES
 66
     1
 10
0.0
 20
0.0
 30
0.0
  0
VERTEX
  5
624
  8
PROFILEEDGES
 10
-88.16392987131128
 20
-66.15726530337247
 30
0.0
 40
25.4
 41
25.4
  0
VERTEX
  5
625
  8
PROFILEEDGES
 10
-88.40563800183233
 20
-66.41533444783437
 30
0.0
 40
25.4
 41
25.4
  0
SEQEND
  5
C8C
  8
PROFILEEDGES
  0
POLYLINE
  5
163
  8
PROFILEEDGES
 66
     1
 10
0.0
 20
0.0
 30
0.0
  0
VERTEX
  5
626
  8
PROFILEEDGES
 10
-87.93961778606332
 20
-65.88394023666237
 30
0.0
 40
25.4
 41
25.4
  0
VERTEX
  5
627
  8
PROFILEEDGES
 10
-88.16392987131128
 20
-66.15726530337247
 30
0.0
 40
25.4
 41
25.4
  0
SEQEND
  5
C8D
  8
PROFILEEDGES
  0
POLYLINE
  5
164
  8
PROFILEEDGES
 66
     1
 10
0.0
 20
0.0
 30
0.0
  0
VERTEX
  5
628
  8
PROFILEEDGES
 10
-87.73366228486641
 20
-65.59652966760135
 30
0.0
 40
25.4
 41
25.4
  0
VERTEX
  5
629
  8
PROFILEEDGES
 10
-87.93961778606332
 20
-65.88394023666237
 30
0.0
 40
25.4
 41
25.4
  0
SEQEND
  5
C8E
  8
PROFILEEDGES
  0
POLYLINE
  5
165
  8
PROFILEEDGES
 66
     1
 10
0.0
 20
0.0
 30
0.0
  0
VERTEX
  5
62A
  8
PROFILEEDGES
 10
-87.54694530079372
 20
-65.29626433237019
 30
0.0
 40
25.4
 41
25.4
  0
VERTEX
  5
62B
  8
PROFILEEDGES
 10
-87.73366228486641
 20
-65.59652966760135
 30
0.0
 40
25.4
 41
25.4
  0
SEQEND
  5
C8F
  8
PROFILEEDGES
  0
POLYLINE
  5
166
  8
PROFILEEDGES
 66
     1
 10
0.0
 20
0.0
 30
0.0
  0
VERTEX
  5
62C
  8
PROFILEEDGES
 10
-87.38026638464295
 20
-64.98443001323203
 30
0.0
 40
25.4
 41
25.4
  0
VERTEX
  5
62D
  8
PROFILEEDGES
 10
-87.54694530079372
 20
-65.29626433237019
 30
0.0
 40
25.4
 41
25.4
  0
SEQEND
  5
C90
  8
PROFILEEDGES
  0
POLYLINE
  5
167
  8
PROFILEEDGES
 66
     1
 10
0.0
 20
0.0
 30
0.0
  0
VERTEX
  5
62E
  8
PROFILEEDGES
 10
-87.23433928112019
 20
-64.66236203261496
 30
0.0
 40
25.4
 41
25.4
  0
VERTEX
  5
62F
  8
PROFILEEDGES
 10
-87.38026638464295
 20
-64.98443001323203
 30
0.0
 40
25.4
 41
25.4
  0
SEQEND
  5
C91
  8
PROFILEEDGES
  0
POLYLINE
  5
168
  8
PROFILEEDGES
 66
     1
 10
0.0
 20
0.0
 30
0.0
  0
VERTEX
  5
630
  8
PROFILEEDGES
 10
-87.10978887248174
 20
-64.33143953505687
 30
0.0
 40
25.4
 41
25.4
  0
VERTEX
  5
631
  8
PROFILEEDGES
 10
-87.23433928112019
 20
-64.66236203261496
 30
0.0
 40
25.4
 41
25.4
  0
SEQEND
  5
C92
  8
PROFILEEDGES
  0
POLYLINE
  5
169
  8
PROFILEEDGES
 66
     1
 10
0.0
 20
0.0
 30
0.0
  0
VERTEX
  5
632
  8
PROFILEEDGES
 10
-87.00714850270388
 20
-63.99307958149637
 30
0.0
 40
25.4
 41
25.4
  0
VERTEX
  5
633
  8
PROFILEEDGES
 10
-87.10978887248174
 20
-64.33143953505687
 30
0.0
 40
25.4
 41
25.4
  0
SEQEND
  5
C93
  8
PROFILEEDGES
  0
POLYLINE
  5
16A
  8
PROFILEEDGES
 66
     1
 10
0.0
 20
0.0
 30
0.0
  0
VERTEX
  5
634
  8
PROFILEEDGES
 10
-86.92685769360722
 20
-63.64873108120059
 30
0.0
 40
25.4
 41
25.4
  0
VERTEX
  5
635
  8
PROFILEEDGES
 10
-87.00714850270388
 20
-63.99307958149637
 30
0.0
 40
25.4
 41
25.4
  0
SEQEND
  5
C94
  8
PROFILEEDGES
  0
POLYLINE
  5
16B
  8
PROFILEEDGES
 66
     1
 10
0.0
 20
0.0
 30
0.0
  0
VERTEX
  5
636
  8
PROFILEEDGES
 10
-86.86926026275721
 20
-63.29986858731311
 30
0.0
 40
25.4
 41
25.4
  0
VERTEX
  5
637
  8
PROFILEEDGES
 10
-86.92685769360722
 20
-63.64873108120059
 30
0.0
 40
25.4
 41
25.4
  0
SEQEND
  5
C95
  8
PROFILEEDGES
  0
POLYLINE
  5
16C
  8
PROFILEEDGES
 66
     1
 10
0.0
 20
0.0
 30
0.0
  0
VERTEX
  5
638
  8
PROFILEEDGES
 10
-86.83460285120331
 20
-62.9479859825912
 30
0.0
 40
25.4
 41
25.4
  0
VERTEX
  5
639
  8
PROFILEEDGES
 10
-86.86926026275721
 20
-63.29986858731311
 30
0.0
 40
25.4
 41
25.4
  0
SEQEND
  5
C96
  8
PROFILEEDGES
  0
POLYLINE
  5
16D
  8
PROFILEEDGES
 66
     1
 10
0.0
 20
0.0
 30
0.0
  0
VERTEX
  5
63A
  8
PROFILEEDGES
 10
-86.82303386729645
 20
-62.59459008237025
 30
0.0
 40
25.4
 41
25.4
  0
VERTEX
  5
63B
  8
PROFILEEDGES
 10
-86.83460285120331
 20
-62.9479859825912
 30
0.0
 40
25.4
 41
25.4
  0
SEQEND
  5
C97
  8
PROFILEEDGES
  0
POLYLINE
  5
16E
  8
PROFILEEDGES
 66
     1
 10
0.0
 20
0.0
 30
0.0
  0
VERTEX
  5
63C
  8
PROFILEEDGES
 10
-86.83460285120331
 20
-62.24119418214925
 30
0.0
 40
25.4
 41
25.4
  0
VERTEX
  5
63D
  8
PROFILEEDGES
 10
-86.82303386729645
 20
-62.59459008237025
 30
0.0
 40
25.4
 41
25.4
  0
SEQEND
  5
C98
  8
PROFILEEDGES
  0
POLYLINE
  5
16F
  8
PROFILEEDGES
 66
     1
 10
0.0
 20
0.0
 30
0.0
  0
VERTEX
  5
63E
  8
PROFILEEDGES
 10
-86.86926026275721
 20
-61.88931157742734
 30
0.0
 40
25.4
 41
25.4
  0
VERTEX
  5
63F
  8
PROFILEEDGES
 10
-86.83460285120331
 20
-62.24119418214925
 30
0.0
 40
25.4
 41
25.4
  0
SEQEND
  5
C99
  8
PROFILEEDGES
  0
POLYLINE
  5
170
  8
PROFILEEDGES
 66
     1
 10
0.0
 20
0.0
 30
0.0
  0
VERTEX
  5
640
  8
PROFILEEDGES
 10
-86.92685769360722
 20
-61.54044908353988
 30
0.0
 40
25.4
 41
25.4
  0
VERTEX
  5
641
  8
PROFILEEDGES
 10
-86.86926026275721
 20
-61.88931157742734
 30
0.0
 40
25.4
 41
25.4
  0
SEQEND
  5
C9A
  8
PROFILEEDGES
  0
POLYLINE
  5
171
  8
PROFILEEDGES
 66
     1
 10
0.0
 20
0.0
 30
0.0
  0
VERTEX
  5
642
  8
PROFILEEDGES
 10
-87.00714850270388
 20
-61.1961005832441
 30
0.0
 40
25.4
 41
25.4
  0
VERTEX
  5
643
  8
PROFILEEDGES
 10
-86.92685769360722
 20
-61.54044908353988
 30
0.0
 40
25.4
 41
25.4
  0
SEQEND
  5
C9B
  8
PROFILEEDGES
  0
POLYLINE
  5
172
  8
PROFILEEDGES
 66
     1
 10
0.0
 20
0.0
 30
0.0
  0
VERTEX
  5
644
  8
PROFILEEDGES
 10
-87.10978887248174
 20
-60.85774062968355
 30
0.0
 40
25.4
 41
25.4
  0
VERTEX
  5
645
  8
PROFILEEDGES
 10
-87.00714850270388
 20
-61.1961005832441
 30
0.0
 40
25.4
 41
25.4
  0
SEQEND
  5
C9C
  8
PROFILEEDGES
  0
POLYLINE
  5
173
  8
PROFILEEDGES
 66
     1
 10
0.0
 20
0.0
 30
0.0
  0
VERTEX
  5
646
  8
PROFILEEDGES
 10
-87.23433928112017
 20
-60.52681813212549
 30
0.0
 40
25.4
 41
25.4
  0
VERTEX
  5
647
  8
PROFILEEDGES
 10
-87.10978887248174
 20
-60.85774062968355
 30
0.0
 40
25.4
 41
25.4
  0
SEQEND
  5
C9D
  8
PROFILEEDGES
  0
POLYLINE
  5
174
  8
PROFILEEDGES
 66
     1
 10
0.0
 20
0.0
 30
0.0
  0
VERTEX
  5
648
  8
PROFILEEDGES
 10
-87.38026638464294
 20
-60.20475015150844
 30
0.0
 40
25.4
 41
25.4
  0
VERTEX
  5
649
  8
PROFILEEDGES
 10
-87.23433928112017
 20
-60.52681813212549
 30
0.0
 40
25.4
 41
25.4
  0
SEQEND
  5
C9E
  8
PROFILEEDGES
  0
POLYLINE
  5
175
  8
PROFILEEDGES
 66
     1
 10
0.0
 20
0.0
 30
0.0
  0
VERTEX
  5
64A
  8
PROFILEEDGES
 10
-87.5469453007937
 20
-59.89291583237021
 30
0.0
 40
25.4
 41
25.4
  0
VERTEX
  5
64B
  8
PROFILEEDGES
 10
-87.38026638464294
 20
-60.20475015150844
 30
0.0
 40
25.4
 41
25.4
  0
SEQEND
  5
C9F
  8
PROFILEEDGES
  0
POLYLINE
  5
176
  8
PROFILEEDGES
 66
     1
 10
0.0
 20
0.0
 30
0.0
  0
VERTEX
  5
64C
  8
PROFILEEDGES
 10
-87.7336622848664
 20
-59.59265049713908
 30
0.0
 40
25.4
 41
25.4
  0
VERTEX
  5
64D
  8
PROFILEEDGES
 10
-87.5469453007937
 20
-59.89291583237021
 30
0.0
 40
25.4
 41
25.4
  0
SEQEND
  5
CA0
  8
PROFILEEDGES
  0
POLYLINE
  5
177
  8
PROFILEEDGES
 66
     1
 10
0.0
 20
0.0
 30
0.0
  0
VERTEX
  5
64E
  8
PROFILEEDGES
 10
-87.93961778606332
 20
-59.30523992807808
 30
0.0
 40
25.4
 41
25.4
  0
VERTEX
  5
64F
  8
PROFILEEDGES
 10
-87.7336622848664
 20
-59.59265049713908
 30
0.0
 40
25.4
 41
25.4
  0
SEQEND
  5
CA1
  8
PROFILEEDGES
  0
POLYLINE
  5
178
  8
PROFILEEDGES
 66
     1
 10
0.0
 20
0.0
 30
0.0
  0
VERTEX
  5
650
  8
PROFILEEDGES
 10
-88.16392987131127
 20
-59.03191486136799
 30
0.0
 40
25.4
 41
25.4
  0
VERTEX
  5
651
  8
PROFILEEDGES
 10
-87.93961778606332
 20
-59.30523992807808
 30
0.0
 40
25.4
 41
25.4
  0
SEQEND
  5
CA2
  8
PROFILEEDGES
  0
POLYLINE
  5
179
  8
PROFILEEDGES
 66
     1
 10
0.0
 20
0.0
 30
0.0
  0
VERTEX
  5
652
  8
PROFILEEDGES
 10
-88.4056380018323
 20
-58.77384571690605
 30
0.0
 40
25.4
 41
25.4
  0
VERTEX
  5
653
  8
PROFILEEDGES
 10
-88.16392987131127
 20
-59.03191486136799
 30
0.0
 40
25.4
 41
25.4
  0
SEQEND
  5
CA3
  8
PROFILEEDGES
  0
POLYLINE
  5
17A
  8
PROFILEEDGES
 66
     1
 10
0.0
 20
0.0
 30
0.0
  0
VERTEX
  5
654
  8
PROFILEEDGES
 10
-88.66370714629136
 20
-58.53213758638839
 30
0.0
 40
25.4
 41
25.4
  0
VERTEX
  5
655
  8
PROFILEEDGES
 10
-88.4056380018323
 20
-58.77384571690605
 30
0.0
 40
25.4
 41
25.4
  0
SEQEND
  5
CA4
  8
PROFILEEDGES
  0
POLYLINE
  5
17B
  8
PROFILEEDGES
 66
     1
 10
0.0
 20
0.0
 30
0.0
  0
VERTEX
  5
656
  8
PROFILEEDGES
 10
-88.93703221300456
 20
-58.30782550113756
 30
0.0
 40
25.4
 41
25.4
  0
VERTEX
  5
657
  8
PROFILEEDGES
 10
-88.66370714629136
 20
-58.53213758638839
 30
0.0
 40
25.4
 41
25.4
  0
SEQEND
  5
CA5
  8
PROFILEEDGES
  0
POLYLINE
  5
17C
  8
PROFILEEDGES
 66
     1
 10
0.0
 20
0.0
 30
0.0
  0
VERTEX
  5
658
  8
PROFILEEDGES
 10
-89.22444278206328
 20
-58.10186999993965
 30
0.0
 40
25.4
 41
25.4
  0
VERTEX
  5
659
  8
PROFILEEDGES
 10
-88.93703221300456
 20
-58.30782550113756
 30
0.0
 40
25.4
 41
25.4
  0
SEQEND
  5
CA6
  8
PROFILEEDGES
  0
POLYLINE
  5
17D
  8
PROFILEEDGES
 66
     1
 10
0.0
 20
0.0
 30
0.0
  0
VERTEX
  5
65A
  8
PROFILEEDGES
 10
-89.52470811729441
 20
-57.91515301586962
 30
0.0
 40
25.4
 41
25.4
  0
VERTEX
  5
65B
  8
PROFILEEDGES
 10
-89.22444278206328
 20
-58.10186999993965
 30
0.0
 40
25.4
 41
25.4
  0
SEQEND
  5
CA7
  8
PROFILEEDGES
  0
POLYLINE
  5
17E
  8
PROFILEEDGES
 66
     1
 10
0.0
 20
0.0
 30
0.0
  0
VERTEX
  5
65C
  8
PROFILEEDGES
 10
-89.83654243643522
 20
-57.74847409971863
 30
0.0
 40
25.4
 41
25.4
  0
VERTEX
  5
65D
  8
PROFILEEDGES
 10
-89.52470811729441
 20
-57.91515301586962
 30
0.0
 40
25.4
 41
25.4
  0
SEQEND
  5
CA8
  8
PROFILEEDGES
  0
POLYLINE
  5
17F
  8
PROFILEEDGES
 66
     1
 10
0.0
 20
0.0
 30
0.0
  0
VERTEX
  5
65E
  8
PROFILEEDGES
 10
-90.15861041704927
 20
-57.60254699619465
 30
0.0
 40
25.4
 41
25.4
  0
VERTEX
  5
65F
  8
PROFILEEDGES
 10
-89.83654243643522
 20
-57.74847409971863
 30
0.0
 40
25.4
 41
25.4
  0
SEQEND
  5
CA9
  8
PROFILEEDGES
  0
POLYLINE
  5
180
  8
PROFILEEDGES
 66
     1
 10
0.0
 20
0.0
 30
0.0
  0
VERTEX
  5
660
  8
PROFILEEDGES
 10
-90.48953291460823
 20
-57.477996587558
 30
0.0
 40
25.4
 41
25.4
  0
VERTEX
  5
661
  8
PROFILEEDGES
 10
-90.15861041704927
 20
-57.60254699619465
 30
0.0
 40
25.4
 41
25.4
  0
SEQEND
  5
CAA
  8
PROFILEEDGES
  0
POLYLINE
  5
181
  8
PROFILEEDGES
 66
     1
 10
0.0
 20
0.0
 30
0.0
  0
VERTEX
  5
662
  8
PROFILEEDGES
 10
-90.8278928681682
 20
-57.37535621777989
 30
0.0
 40
25.4
 41
25.4
  0
VERTEX
  5
663
  8
PROFILEEDGES
 10
-90.48953291460823
 20
-57.477996587558
 30
0.0
 40
25.4
 41
25.4
  0
SEQEND
  5
CAB
  8
PROFILEEDGES
  0
POLYLINE
  5
182
  8
PROFILEEDGES
 66
     1
 10
0.0
 20
0.0
 30
0.0
  0
VERTEX
  5
664
  8
PROFILEEDGES
 10
-91.17224136846426
 20
-57.29506540868128
 30
0.0
 40
25.4
 41
25.4
  0
VERTEX
  5
665
  8
PROFILEEDGES
 10
-90.8278928681682
 20
-57.37535621777989
 30
0.0
 40
25.4
 41
25.4
  0
SEQEND
  5
CAC
  8
PROFILEEDGES
  0
POLYLINE
  5
183
  8
PROFILEEDGES
 66
     1
 10
0.0
 20
0.0
 30
0.0
  0
VERTEX
  5
666
  8
PROFILEEDGES
 10
-91.52110386235348
 20
-57.23746797783333
 30
0.0
 40
25.4
 41
25.4
  0
VERTEX
  5
667
  8
PROFILEEDGES
 10
-91.17224136846426
 20
-57.29506540868128
 30
0.0
 40
25.4
 41
25.4
  0
SEQEND
  5
CAD
  8
PROFILEEDGES
  0
POLYLINE
  5
184
  8
PROFILEEDGES
 66
     1
 10
0.0
 20
0.0
 30
0.0
  0
VERTEX
  5
668
  8
PROFILEEDGES
 10
-91.87298646707316
 20
-57.20281056627726
 30
0.0
 40
25.4
 41
25.4
  0
VERTEX
  5
669
  8
PROFILEEDGES
 10
-91.52110386235348
 20
-57.23746797783333
 30
0.0
 40
25.4
 41
25.4
  0
SEQEND
  5
CAE
  8
PROFILEEDGES
  0
POLYLINE
  5
185
  8
PROFILEEDGES
 66
     1
 10
0.0
 20
0.0
 30
0.0
  0
VERTEX
  5
66A
  8
PROFILEEDGES
 10
-92.22638236729664
 20
-57.19124158237022
 30
0.0
 40
25.4
 41
25.4
  0
VERTEX
  5
66B
  8
PROFILEEDGES
 10
-91.87298646707316
 20
-57.20281056627726
 30
0.0
 40
25.4
 41
25.4
  0
SEQEND
  5
CAF
  8
PROFILEEDGES
  0
POLYLINE
  5
186
  8
PROFILEEDGES
 66
     1
 10
0.0
 20
0.0
 30
0.0
  0
VERTEX
  5
66C
  8
PROFILEEDGES
 10
-111.0675398795481
 20
-111.7159400823703
 30
0.0
 40
25.4
 41
25.4
  0
VERTEX
  5
66D
  8
PROFILEEDGES
 10
-111.9666376407235
 20
-111.7159400823699
 30
0.0
 40
25.4
 41
25.4
  0
SEQEND
  5
CB0
  8
PROFILEEDGES
  0
LINE
  5
187
  8
0
 10
-111.067539879548
 20
-52.77032008237021
 30
0.0
 11
-111.0675398795481
 21
-111.7159400823703
 31
0.0
  0
POLYLINE
  5
188
  8
PROFILEEDGES
 66
     1
 10
0.0
 20
0.0
 30
0.0
  0
VERTEX
  5
66E
  8
PROFILEEDGES
 10
-43.02464787626798
 20
-111.71594008237
 30
0.0
 40
25.4
 41
25.4
  0
VERTEX
  5
66F
  8
PROFILEEDGES
 10
-111.0675398795481
 20
-111.7159400823703
 30
0.0
 40
25.4
 41
25.4
  0
SEQEND
  5
CB1
  8
PROFILEEDGES
  0
POLYLINE
  5
189
  8
PROFILEEDGES
 66
     1
 10
0.0
 20
0.0
 30
0.0
  0
VERTEX
  5
670
  8
PROFILEEDGES
 10
-42.7549813683749
 20
25.82025168495755
 30
0.0
 40
25.4
 41
25.4
  0
VERTEX
  5
671
  8
PROFILEEDGES
 10
-42.86242109197313
 20
25.4018015891363
 30
0.0
 40
25.4
 41
25.4
  0
SEQEND
  5
CB2
  8
PROFILEEDGES
  0
POLYLINE
  5
18A
  8
PROFILEEDGES
 66
     1
 10
0.0
 20
0.0
 30
0.0
  0
VERTEX
  5
672
  8
PROFILEEDGES
 10
-41.30955782983256
 20
28.44946734102822
 30
0.0
 40
25.4
 41
25.4
  0
VERTEX
  5
673
  8
PROFILEEDGES
 10
-41.58493958360744
 20
28.11658798362186
 30
0.0
 40
25.4
 41
25.4
  0
SEQEND
  5
CB3
  8
PROFILEEDGES
  0
POLYLINE
  5
18B
  8
PROFILEEDGES
 66
     1
 10
0.0
 20
0.0
 30
0.0
  0
VERTEX
  5
674
  8
PROFILEEDGES
 10
-28.85400440125894
 20
37.47411235674952
 30
0.0
 40
25.4
 41
25.4
  0
VERTEX
  5
675
  8
PROFILEEDGES
 10
-28.75975405987162
 20
38.04497825583806
 30
0.0
 40
25.4
 41
25.4
  0
SEQEND
  5
CB4
  8
PROFILEEDGES
  0
POLYLINE
  5
18C
  8
PROFILEEDGES
 66
     1
 10
0.0
 20
0.0
 30
0.0
  0
VERTEX
  5
676
  8
PROFILEEDGES
 10
-30.87830432841698
 20
33.36923817501374
 30
0.0
 40
25.4
 41
25.4
  0
VERTEX
  5
677
  8
PROFILEEDGES
 10
-30.51124818891439
 20
33.81649737508484
 30
0.0
 40
25.4
 41
25.4
  0
SEQEND
  5
CB5
  8
PROFILEEDGES
  0
POLYLINE
  5
18D
  8
PROFILEEDGES
 66
     1
 10
0.0
 20
0.0
 30
0.0
  0
VERTEX
  5
678
  8
PROFILEEDGES
 10
-42.27849432097607
 20
27.02372059044134
 30
0.0
 40
25.4
 41
25.4
  0
VERTEX
  5
679
  8
PROFILEEDGES
 10
-42.46244072073378
 20
26.63281459289653
 30
0.0
 40
25.4
 41
25.4
  0
SEQEND
  5
CB6
  8
PROFILEEDGES
  0
POLYLINE
  5
18E
  8
PROFILEEDGES
 66
     1
 10
0.0
 20
0.0
 30
0.0
  0
VERTEX
  5
67A
  8
PROFILEEDGES
 10
-42.621478953615
 20
26.23112986903768
 30
0.0
 40
25.4
 41
25.4
  0
VERTEX
  5
67B
  8
PROFILEEDGES
 10
-42.7549813683749
 20
25.82025168495755
 30
0.0
 40
25.4
 41
25.4
  0
SEQEND
  5
CB7
  8
PROFILEEDGES
  0
POLYLINE
  5
18F
  8
PROFILEEDGES
 66
     1
 10
0.0
 20
0.0
 30
0.0
  0
VERTEX
  5
67C
  8
PROFILEEDGES
 10
-31.27382672380834
 20
32.94694321134879
 30
0.0
 40
25.4
 41
25.4
  0
VERTEX
  5
67D
  8
PROFILEEDGES
 10
-30.87830432841698
 20
33.36923817501374
 30
0.0
 40
25.4
 41
25.4
  0
SEQEND
  5
CB8
  8
PROFILEEDGES
  0
POLYLINE
  5
190
  8
PROFILEEDGES
 66
     1
 10
0.0
 20
0.0
 30
0.0
  0
VERTEX
  5
67E
  8
PROFILEEDGES
 10
-42.99752093459936
 20
24.54881475312791
 30
0.0
 40
25.4
 41
25.4
  0
VERTEX
  5
67F
  8
PROFILEEDGES
 10
-43.02464787626801
 20
24.11764436228988
 30
0.0
 40
25.4
 41
25.4
  0
SEQEND
  5
CB9
  8
PROFILEEDGES
  0
POLYLINE
  5
191
  8
PROFILEEDGES
 66
     1
 10
0.0
 20
0.0
 30
0.0
  0
VERTEX
  5
680
  8
PROFILEEDGES
 10
-29.59594589568298
 20
35.28842319524355
 30
0.0
 40
25.4
 41
25.4
  0
VERTEX
  5
681
  8
PROFILEEDGES
 10
-29.35715608991639
 20
35.81544352716238
 30
0.0
 40
25.4
 41
25.4
  0
SEQEND
  5
CBA
  8
PROFILEEDGES
  0
POLYLINE
  5
192
  8
PROFILEEDGES
 66
     1
 10
0.0
 20
0.0
 30
0.0
  0
VERTEX
  5
682
  8
PROFILEEDGES
 10
-41.01381781124986
 20
19.03886736158269
 30
0.0
 40
25.4
 41
25.4
  0
VERTEX
  5
683
  8
PROFILEEDGES
 10
-34.05254989869459
 20
12.07759944902645
 30
0.0
 40
25.4
 41
25.4
  0
SEQEND
  5
CBB
  8
PROFILEEDGES
  0
POLYLINE
  5
193
  8
PROFILEEDGES
 66
     1
 10
0.0
 20
0.0
 30
0.0
  0
VERTEX
  5
684
  8
PROFILEEDGES
 10
-43.02464787626801
 20
24.11764436228988
 30
0.0
 40
25.4
 41
25.4
  0
VERTEX
  5
685
  8
PROFILEEDGES
 10
-43.02464787626801
 20
23.685621472966
 30
0.0
 40
25.4
 41
25.4
  0
SEQEND
  5
CBC
  8
PROFILEEDGES
  0
POLYLINE
  5
194
  8
PROFILEEDGES
 66
     1
 10
0.0
 20
0.0
 30
0.0
  0
VERTEX
  5
686
  8
PROFILEEDGES
 10
-42.86242109197313
 20
25.4018015891363
 30
0.0
 40
25.4
 41
25.4
  0
VERTEX
  5
687
  8
PROFILEEDGES
 10
-42.94337410890599
 20
24.97743101293052
 30
0.0
 40
25.4
 41
25.4
  0
SEQEND
  5
CBD
  8
PROFILEEDGES
  0
POLYLINE
  5
195
  8
PROFILEEDGES
 66
     1
 10
0.0
 20
0.0
 30
0.0
  0
VERTEX
  5
688
  8
PROFILEEDGES
 10
-41.01381781124983
 20
28.76439847367324
 30
0.0
 40
25.4
 41
25.4
  0
VERTEX
  5
689
  8
PROFILEEDGES
 10
-41.30955782983256
 20
28.44946734102822
 30
0.0
 40
25.4
 41
25.4
  0
SEQEND
  5
CBE
  8
PROFILEEDGES
  0
POLYLINE
  5
196
  8
PROFILEEDGES
 66
     1
 10
0.0
 20
0.0
 30
0.0
  0
VERTEX
  5
68A
  8
PROFILEEDGES
 10
-42.94337410890599
 20
24.97743101293052
 30
0.0
 40
25.4
 41
25.4
  0
VERTEX
  5
68B
  8
PROFILEEDGES
 10
-42.99752093459936
 20
24.54881475312791
 30
0.0
 40
25.4
 41
25.4
  0
SEQEND
  5
CBF
  8
PROFILEEDGES
  0
POLYLINE
  5
197
  8
PROFILEEDGES
 66
     1
 10
0.0
 20
0.0
 30
0.0
  0
VERTEX
  5
68C
  8
PROFILEEDGES
 10
-42.75498136837491
 20
21.9830141502983
 30
0.0
 40
25.4
 41
25.4
  0
VERTEX
  5
68D
  8
PROFILEEDGES
 10
-42.62147895361501
 20
21.57213596621817
 30
0.0
 40
25.4
 41
25.4
  0
SEQEND
  5
CC0
  8
PROFILEEDGES
  0
POLYLINE
  5
198
  8
PROFILEEDGES
 66
     1
 10
0.0
 20
0.0
 30
0.0
  0
VERTEX
  5
68E
  8
PROFILEEDGES
 10
-34.05254989869226
 20
35.72566638623171
 30
0.0
 40
25.4
 41
25.4
  0
VERTEX
  5
68F
  8
PROFILEEDGES
 10
-41.01381781124983
 20
28.76439847367324
 30
0.0
 40
25.4
 41
25.4
  0
SEQEND
  5
CC1
  8
PROFILEEDGES
  0
POLYLINE
  5
199
  8
PROFILEEDGES
 66
     1
 10
0.0
 20
0.0
 30
0.0
  0
VERTEX
  5
690
  8
PROFILEEDGES
 10
-28.70304193187085
 20
38.62078615447393
 30
0.0
 40
25.4
 41
25.4
  0
VERTEX
  5
691
  8
PROFILEEDGES
 10
-28.68411086729418
 20
39.19907035483553
 30
0.0
 40
25.4
 41
25.4
  0
SEQEND
  5
CC2
  8
PROFILEEDGES
  0
POLYLINE
  5
19A
  8
PROFILEEDGES
 66
     1
 10
0.0
 20
0.0
 30
0.0
  0
VERTEX
  5
692
  8
PROFILEEDGES
 10
-42.94337410890599
 20
22.82583482232538
 30
0.0
 40
25.4
 41
25.4
  0
VERTEX
  5
693
  8
PROFILEEDGES
 10
-42.86242109197313
 20
22.40146424611956
 30
0.0
 40
25.4
 41
25.4
  0
SEQEND
  5
CC3
  8
PROFILEEDGES
  0
POLYLINE
  5
19B
  8
PROFILEEDGES
 66
     1
 10
0.0
 20
0.0
 30
0.0
  0
VERTEX
  5
694
  8
PROFILEEDGES
 10
-42.62147895361501
 20
21.57213596621817
 30
0.0
 40
25.4
 41
25.4
  0
VERTEX
  5
695
  8
PROFILEEDGES
 10
-42.4624407207338
 20
21.17045124235932
 30
0.0
 40
25.4
 41
25.4
  0
SEQEND
  5
CC4
  8
PROFILEEDGES
  0
POLYLINE
  5
19C
  8
PROFILEEDGES
 66
     1
 10
0.0
 20
0.0
 30
0.0
  0
VERTEX
  5
696
  8
PROFILEEDGES
 10
-41.83887626660459
 20
27.76707412419993
 30
0.0
 40
25.4
 41
25.4
  0
VERTEX
  5
697
  8
PROFILEEDGES
 10
-42.07036570674821
 20
27.40230513428766
 30
0.0
 40
25.4
 41
25.4
  0
SEQEND
  5
CC5
  8
PROFILEEDGES
  0
POLYLINE
  5
19D
  8
PROFILEEDGES
 66
     1
 10
0.0
 20
0.0
 30
0.0
  0
VERTEX
  5
698
  8
PROFILEEDGES
 10
-41.30955782983259
 20
19.35379849422769
 30
0.0
 40
25.4
 41
25.4
  0
VERTEX
  5
699
  8
PROFILEEDGES
 10
-41.01381781124986
 20
19.03886736158269
 30
0.0
 40
25.4
 41
25.4
  0
SEQEND
  5
CC6
  8
PROFILEEDGES
  0
POLYLINE
  5
19E
  8
PROFILEEDGES
 66
     1
 10
0.0
 20
0.0
 30
0.0
  0
VERTEX
  5
69A
  8
PROFILEEDGES
 10
-43.02464787626801
 20
23.685621472966
 30
0.0
 40
25.4
 41
25.4
  0
VERTEX
  5
69B
  8
PROFILEEDGES
 10
-42.99752093459936
 20
23.25445108212796
 30
0.0
 40
25.4
 41
25.4
  0
SEQEND
  5
CC7
  8
PROFILEEDGES
  0
POLYLINE
  5
19F
  8
PROFILEEDGES
 66
     1
 10
0.0
 20
0.0
 30
0.0
  0
VERTEX
  5
69C
  8
PROFILEEDGES
 10
-42.86242109197313
 20
22.40146424611956
 30
0.0
 40
25.4
 41
25.4
  0
VERTEX
  5
69D
  8
PROFILEEDGES
 10
-42.75498136837491
 20
21.9830141502983
 30
0.0
 40
25.4
 41
25.4
  0
SEQEND
  5
CC8
  8
PROFILEEDGES
  0
POLYLINE
  5
1A0
  8
PROFILEEDGES
 66
     1
 10
0.0
 20
0.0
 30
0.0
  0
VERTEX
  5
69E
  8
PROFILEEDGES
 10
-28.98538936160127
 20
36.91063299262914
 30
0.0
 40
25.4
 41
25.4
  0
VERTEX
  5
69F
  8
PROFILEEDGES
 10
-28.85400440125894
 20
37.47411235674952
 30
0.0
 40
25.4
 41
25.4
  0
SEQEND
  5
CC9
  8
PROFILEEDGES
  0
POLYLINE
  5
1A1
  8
PROFILEEDGES
 66
     1
 10
0.0
 20
0.0
 30
0.0
  0
VERTEX
  5
6A0
  8
PROFILEEDGES
 10
-42.27849432097609
 20
20.77954524481457
 30
0.0
 40
25.4
 41
25.4
  0
VERTEX
  5
6A1
  8
PROFILEEDGES
 10
-42.07036570674823
 20
20.40096070096818
 30
0.0
 40
25.4
 41
25.4
  0
SEQEND
  5
CCA
  8
PROFILEEDGES
  0
POLYLINE
  5
1A2
  8
PROFILEEDGES
 66
     1
 10
0.0
 20
0.0
 30
0.0
  0
VERTEX
  5
6A2
  8
PROFILEEDGES
 10
-41.58493958360746
 20
19.68667785163398
 30
0.0
 40
25.4
 41
25.4
  0
VERTEX
  5
6A3
  8
PROFILEEDGES
 10
-41.30955782983259
 20
19.35379849422769
 30
0.0
 40
25.4
 41
25.4
  0
SEQEND
  5
CCB
  8
PROFILEEDGES
  0
POLYLINE
  5
1A3
  8
PROFILEEDGES
 66
     1
 10
0.0
 20
0.0
 30
0.0
  0
VERTEX
  5
6A4
  8
PROFILEEDGES
 10
-41.58493958360744
 20
28.11658798362186
 30
0.0
 40
25.4
 41
25.4
  0
VERTEX
  5
6A5
  8
PROFILEEDGES
 10
-41.83887626660459
 20
27.76707412419993
 30
0.0
 40
25.4
 41
25.4
  0
SEQEND
  5
CCC
  8
PROFILEEDGES
  0
POLYLINE
  5
1A4
  8
PROFILEEDGES
 66
     1
 10
0.0
 20
0.0
 30
0.0
  0
VERTEX
  5
6A6
  8
PROFILEEDGES
 10
-29.15334633033021
 20
36.35695306862107
 30
0.0
 40
25.4
 41
25.4
  0
VERTEX
  5
6A7
  8
PROFILEEDGES
 10
-28.98538936160127
 20
36.91063299262914
 30
0.0
 40
25.4
 41
25.4
  0
SEQEND
  5
CCD
  8
PROFILEEDGES
  0
POLYLINE
  5
1A5
  8
PROFILEEDGES
 66
     1
 10
0.0
 20
0.0
 30
0.0
  0
VERTEX
  5
6A8
  8
PROFILEEDGES
 10
-29.35715608991639
 20
35.81544352716238
 30
0.0
 40
25.4
 41
25.4
  0
VERTEX
  5
6A9
  8
PROFILEEDGES
 10
-29.15334633033021
 20
36.35695306862107
 30
0.0
 40
25.4
 41
25.4
  0
SEQEND
  5
CCE
  8
PROFILEEDGES
  0
POLYLINE
  5
1A6
  8
PROFILEEDGES
 66
     1
 10
0.0
 20
0.0
 30
0.0
  0
VERTEX
  5
6AA
  8
PROFILEEDGES
 10
-42.07036570674821
 20
27.40230513428766
 30
0.0
 40
25.4
 41
25.4
  0
VERTEX
  5
6AB
  8
PROFILEEDGES
 10
-42.27849432097607
 20
27.02372059044134
 30
0.0
 40
25.4
 41
25.4
  0
SEQEND
  5
CCF
  8
PROFILEEDGES
  0
POLYLINE
  5
1A7
  8
PROFILEEDGES
 66
     1
 10
0.0
 20
0.0
 30
0.0
  0
VERTEX
  5
6AC
  8
PROFILEEDGES
 10
-29.86869321302292
 20
34.7781488548356
 30
0.0
 40
25.4
 41
25.4
  0
VERTEX
  5
6AD
  8
PROFILEEDGES
 10
-29.59594589568298
 20
35.28842319524355
 30
0.0
 40
25.4
 41
25.4
  0
SEQEND
  5
CD0
  8
PROFILEEDGES
  0
POLYLINE
  5
1A8
  8
PROFILEEDGES
 66
     1
 10
0.0
 20
0.0
 30
0.0
  0
VERTEX
  5
6AE
  8
PROFILEEDGES
 10
-30.17423009604646
 20
34.28680557900289
 30
0.0
 40
25.4
 41
25.4
  0
VERTEX
  5
6AF
  8
PROFILEEDGES
 10
-29.86869321302292
 20
34.7781488548356
 30
0.0
 40
25.4
 41
25.4
  0
SEQEND
  5
CD1
  8
PROFILEEDGES
  0
POLYLINE
  5
1A9
  8
PROFILEEDGES
 66
     1
 10
0.0
 20
0.0
 30
0.0
  0
VERTEX
  5
6B0
  8
PROFILEEDGES
 10
-30.51124818891439
 20
33.81649737508484
 30
0.0
 40
25.4
 41
25.4
  0
VERTEX
  5
6B1
  8
PROFILEEDGES
 10
-30.17423009604646
 20
34.28680557900289
 30
0.0
 40
25.4
 41
25.4
  0
SEQEND
  5
CD2
  8
PROFILEEDGES
  0
POLYLINE
  5
1AA
  8
PROFILEEDGES
 66
     1
 10
0.0
 20
0.0
 30
0.0
  0
VERTEX
  5
6B2
  8
PROFILEEDGES
 10
-42.46244072073378
 20
26.63281459289653
 30
0.0
 40
25.4
 41
25.4
  0
VERTEX
  5
6B3
  8
PROFILEEDGES
 10
-42.621478953615
 20
26.23112986903768
 30
0.0
 40
25.4
 41
25.4
  0
SEQEND
  5
CD3
  8
PROFILEEDGES
  0
POLYLINE
  5
1AB
  8
PROFILEEDGES
 66
     1
 10
0.0
 20
0.0
 30
0.0
  0
VERTEX
  5
6B4
  8
PROFILEEDGES
 10
-42.07036570674823
 20
20.40096070096818
 30
0.0
 40
25.4
 41
25.4
  0
VERTEX
  5
6B5
  8
PROFILEEDGES
 10
-41.83887626660461
 20
20.03619171105598
 30
0.0
 40
25.4
 41
25.4
  0
SEQEND
  5
CD4
  8
PROFILEEDGES
  0
POLYLINE
  5
1AC
  8
PROFILEEDGES
 66
     1
 10
0.0
 20
0.0
 30
0.0
  0
VERTEX
  5
6B6
  8
PROFILEEDGES
 10
-28.75975405987162
 20
38.04497825583806
 30
0.0
 40
25.4
 41
25.4
  0
VERTEX
  5
6B7
  8
PROFILEEDGES
 10
-28.70304193187085
 20
38.62078615447393
 30
0.0
 40
25.4
 41
25.4
  0
SEQEND
  5
CD5
  8
PROFILEEDGES
  0
POLYLINE
  5
1AD
  8
PROFILEEDGES
 66
     1
 10
0.0
 20
0.0
 30
0.0
  0
VERTEX
  5
6B8
  8
PROFILEEDGES
 10
-41.83887626660461
 20
20.03619171105598
 30
0.0
 40
25.4
 41
25.4
  0
VERTEX
  5
6B9
  8
PROFILEEDGES
 10
-41.58493958360746
 20
19.68667785163398
 30
0.0
 40
25.4
 41
25.4
  0
SEQEND
  5
CD6
  8
PROFILEEDGES
  0
POLYLINE
  5
1AE
  8
PROFILEEDGES
 66
     1
 10
0.0
 20
0.0
 30
0.0
  0
VERTEX
  5
6BA
  8
PROFILEEDGES
 10
-42.4624407207338
 20
21.17045124235932
 30
0.0
 40
25.4
 41
25.4
  0
VERTEX
  5
6BB
  8
PROFILEEDGES
 10
-42.27849432097609
 20
20.77954524481457
 30
0.0
 40
25.4
 41
25.4
  0
SEQEND
  5
CD7
  8
PROFILEEDGES
  0
POLYLINE
  5
1AF
  8
PROFILEEDGES
 66
     1
 10
0.0
 20
0.0
 30
0.0
  0
VERTEX
  5
6BC
  8
PROFILEEDGES
 10
-42.99752093459936
 20
23.25445108212796
 30
0.0
 40
25.4
 41
25.4
  0
VERTEX
  5
6BD
  8
PROFILEEDGES
 10
-42.94337410890599
 20
22.82583482232538
 30
0.0
 40
25.4
 41
25.4
  0
SEQEND
  5
CD8
  8
PROFILEEDGES
  0
POLYLINE
  5
1B0
  8
PROFILEEDGES
 66
     1
 10
0.0
 20
0.0
 30
0.0
  0
VERTEX
  5
6BE
  8
PROFILEEDGES
 10
-28.8289410783943
 20
10.19798222472992
 30
0.0
 40
25.4
 41
25.4
  0
VERTEX
  5
6BF
  8
PROFILEEDGES
 10
-28.94103875547999
 20
10.72018701149161
 30
0.0
 40
25.4
 41
25.4
  0
SEQEND
  5
CD9
  8
PROFILEEDGES
  0
POLYLINE
  5
1B1
  8
PROFILEEDGES
 66
     1
 10
0.0
 20
0.0
 30
0.0
  0
VERTEX
  5
6C0
  8
PROFILEEDGES
 10
-30.17423009604657
 20
-15.39557685820484
 30
0.0
 40
25.4
 41
25.4
  0
VERTEX
  5
6C1
  8
PROFILEEDGES
 10
-29.86869321302303
 20
-14.9042335823721
 30
0.0
 40
25.4
 41
25.4
  0
SEQEND
  5
CDA
  8
PROFILEEDGES
  0
POLYLINE
  5
1B2
  8
PROFILEEDGES
 66
     1
 10
0.0
 20
0.0
 30
0.0
  0
VERTEX
  5
6C2
  8
PROFILEEDGES
 10
-29.3571560899165
 20
-13.86693891004534
 30
0.0
 40
25.4
 41
25.4
  0
VERTEX
  5
6C3
  8
PROFILEEDGES
 10
-29.15334633033033
 20
-13.32542936858661
 30
0.0
 40
25.4
 41
25.4
  0
SEQEND
  5
CDB
  8
PROFILEEDGES
  0
POLYLINE
  5
1B3
  8
PROFILEEDGES
 66
     1
 10
0.0
 20
0.0
 30
0.0
  0
VERTEX
  5
6C4
  8
PROFILEEDGES
 10
-33.61530670770415
 20
-18.4133200539837
 30
0.0
 40
25.4
 41
25.4
  0
VERTEX
  5
6C5
  8
PROFILEEDGES
 10
-33.10503236729474
 20
-18.14057273664572
 30
0.0
 40
25.4
 41
25.4
  0
SEQEND
  5
CDC
  8
PROFILEEDGES
  0
POLYLINE
  5
1B4
  8
PROFILEEDGES
 66
     1
 10
0.0
 20
0.0
 30
0.0
  0
VERTEX
  5
6C6
  8
PROFILEEDGES
 10
-28.68411086729425
 20
8.604195480420303
 30
0.0
 40
25.4
 41
25.4
  0
VERTEX
  5
6C7
  8
PROFILEEDGES
 10
-28.70024233041393
 20
9.138052675204053
 30
0.0
 40
25.4
 41
25.4
  0
SEQEND
  5
CDD
  8
PROFILEEDGES
  0
POLYLINE
  5
1B5
  8
PROFILEEDGES
 66
     1
 10
0.0
 20
0.0
 30
0.0
  0
VERTEX
  5
6C8
  8
PROFILEEDGES
 10
-30.90773934815361
 20
14.46742191432813
 30
0.0
 40
25.4
 41
25.4
  0
VERTEX
  5
6C9
  8
PROFILEEDGES
 10
-31.27382672380838
 20
14.85632262390715
 30
0.0
 40
25.4
 41
25.4
  0
SEQEND
  5
CDE
  8
PROFILEEDGES
  0
POLYLINE
  5
1B6
  8
PROFILEEDGES
 66
     1
 10
0.0
 20
0.0
 30
0.0
  0
VERTEX
  5
6CA
  8
PROFILEEDGES
 10
-29.08446185680428
 20
11.23467077462859
 30
0.0
 40
25.4
 41
25.4
  0
VERTEX
  5
6CB
  8
PROFILEEDGES
 10
-29.25868704702048
 20
11.73955621868317
 30
0.0
 40
25.4
 41
25.4
  0
SEQEND
  5
CDF
  8
PROFILEEDGES
  0
POLYLINE
  5
1B7
  8
PROFILEEDGES
 66
     1
 10
0.0
 20
0.0
 30
0.0
  0
VERTEX
  5
6CC
  8
PROFILEEDGES
 10
-36.94766966693309
 20
-19.3062240177969
 30
0.0
 40
25.4
 41
25.4
  0
VERTEX
  5
6CD
  8
PROFILEEDGES
 10
-36.37186176829715
 20
-19.24951188979611
 30
0.0
 40
25.4
 41
25.4
  0
SEQEND
  5
CE0
  8
PROFILEEDGES
  0
POLYLINE
  5
1B8
  8
PROFILEEDGES
 66
     1
 10
0.0
 20
0.0
 30
0.0
  0
VERTEX
  5
6CE
  8
PROFILEEDGES
 10
-31.27382672380845
 20
-16.73543922585891
 30
0.0
 40
25.4
 41
25.4
  0
VERTEX
  5
6CF
  8
PROFILEEDGES
 10
-30.87830432841709
 20
-16.31314426219394
 30
0.0
 40
25.4
 41
25.4
  0
SEQEND
  5
CE1
  8
PROFILEEDGES
  0
POLYLINE
  5
1B9
  8
PROFILEEDGES
 66
     1
 10
0.0
 20
0.0
 30
0.0
  0
VERTEX
  5
6D0
  8
PROFILEEDGES
 10
-30.5658011195564
 20
14.0571269273389
 30
0.0
 40
25.4
 41
25.4
  0
VERTEX
  5
6D1
  8
PROFILEEDGES
 10
-30.90773934815361
 20
14.46742191432813
 30
0.0
 40
25.4
 41
25.4
  0
SEQEND
  5
CE2
  8
PROFILEEDGES
  0
POLYLINE
  5
1BA
  8
PROFILEEDGES
 66
     1
 10
0.0
 20
0.0
 30
0.0
  0
VERTEX
  5
6D2
  8
PROFILEEDGES
 10
-118.0091847828632
 20
-19.30770772493838
 30
0.0
 40
25.4
 41
25.4
  0
VERTEX
  5
6D3
  8
PROFILEEDGES
 10
-117.4540008672982
 20
-19.32515508237196
 30
0.0
 40
25.4
 41
25.4
  0
SEQEND
  5
CE3
  8
PROFILEEDGES
  0
POLYLINE
  5
1BB
  8
PROFILEEDGES
 66
     1
 10
0.0
 20
0.0
 30
0.0
  0
VERTEX
  5
6D4
  8
PROFILEEDGES
 10
-28.74857785781315
 20
9.669961882979091
 30
0.0
 40
25.4
 41
25.4
  0
VERTEX
  5
6D5
  8
PROFILEEDGES
 10
-28.8289410783943
 20
10.19798222472992
 30
0.0
 40
25.4
 41
25.4
  0
SEQEND
  5
CE4
  8
PROFILEEDGES
  0
POLYLINE
  5
1BC
  8
PROFILEEDGES
 66
     1
 10
0.0
 20
0.0
 30
0.0
  0
VERTEX
  5
6D6
  8
PROFILEEDGES
 10
-29.46307859730863
 20
12.23300107142315
 30
0.0
 40
25.4
 41
25.4
  0
VERTEX
  5
6D7
  8
PROFILEEDGES
 10
-29.69689070506698
 20
12.71320480609331
 30
0.0
 40
25.4
 41
25.4
  0
SEQEND
  5
CE5
  8
PROFILEEDGES
  0
POLYLINE
  5
1BD
  8
PROFILEEDGES
 66
     1
 10
0.0
 20
0.0
 30
0.0
  0
VERTEX
  5
6D8
  8
PROFILEEDGES
 10
-32.61368909146341
 20
-17.83503585362207
 30
0.0
 40
25.4
 41
25.4
  0
VERTEX
  5
6D9
  8
PROFILEEDGES
 10
-32.143380887545
 20
-17.49801776075276
 30
0.0
 40
25.4
 41
25.4
  0
SEQEND
  5
CE6
  8
PROFILEEDGES
  0
POLYLINE
  5
1BE
  8
PROFILEEDGES
 66
     1
 10
0.0
 20
0.0
 30
0.0
  0
VERTEX
  5
6DA
  8
PROFILEEDGES
 10
-30.87830432841709
 20
-16.31314426219394
 30
0.0
 40
25.4
 41
25.4
  0
VERTEX
  5
6DB
  8
PROFILEEDGES
 10
-30.5112481889145
 20
-15.86588506212286
 30
0.0
 40
25.4
 41
25.4
  0
SEQEND
  5
CE7
  8
PROFILEEDGES
  0
POLYLINE
  5
1BF
  8
PROFILEEDGES
 66
     1
 10
0.0
 20
0.0
 30
0.0
  0
VERTEX
  5
6DC
  8
PROFILEEDGES
 10
-34.14232703962191
 20
-18.65210985975029
 30
0.0
 40
25.4
 41
25.4
  0
VERTEX
  5
6DD
  8
PROFILEEDGES
 10
-33.61530670770415
 20
-18.4133200539837
 30
0.0
 40
25.4
 41
25.4
  0
SEQEND
  5
CE8
  8
PROFILEEDGES
  0
POLYLINE
  5
1C0
  8
PROFILEEDGES
 66
     1
 10
0.0
 20
0.0
 30
0.0
  0
VERTEX
  5
6DE
  8
PROFILEEDGES
 10
-29.69689070506698
 20
12.71320480609331
 30
0.0
 40
25.4
 41
25.4
  0
VERTEX
  5
6DF
  8
PROFILEEDGES
 10
-29.95927021526606
 20
13.17841521134237
 30
0.0
 40
25.4
 41
25.4
  0
SEQEND
  5
CE9
  8
PROFILEEDGES
  0
POLYLINE
  5
1C1
  8
PROFILEEDGES
 66
     1
 10
0.0
 20
0.0
 30
0.0
  0
VERTEX
  5
6E0
  8
PROFILEEDGES
 10
-28.70024233041393
 20
9.138052675204053
 30
0.0
 40
25.4
 41
25.4
  0
VERTEX
  5
6E1
  8
PROFILEEDGES
 10
-28.74857785781315
 20
9.669961882979091
 30
0.0
 40
25.4
 41
25.4
  0
SEQEND
  5
CEA
  8
PROFILEEDGES
  0
POLYLINE
  5
1C2
  8
PROFILEEDGES
 66
     1
 10
0.0
 20
0.0
 30
0.0
  0
VERTEX
  5
6E2
  8
PROFILEEDGES
 10
-28.70304193187096
 20
-11.06159628273376
 30
0.0
 40
25.4
 41
25.4
  0
VERTEX
  5
6E3
  8
PROFILEEDGES
 10
-28.68411086729571
 20
-10.48331208237213
 30
0.0
 40
25.4
 41
25.4
  0
SEQEND
  5
CEB
  8
PROFILEEDGES
  0
POLYLINE
  5
1C3
  8
PROFILEEDGES
 66
     1
 10
0.0
 20
0.0
 30
0.0
  0
VERTEX
  5
6E4
  8
PROFILEEDGES
 10
-28.75975405987173
 20
-11.63740418136964
 30
0.0
 40
25.4
 41
25.4
  0
VERTEX
  5
6E5
  8
PROFILEEDGES
 10
-28.70304193187096
 20
-11.06159628273376
 30
0.0
 40
25.4
 41
25.4
  0
SEQEND
  5
CEC
  8
PROFILEEDGES
  0
POLYLINE
  5
1C4
  8
PROFILEEDGES
 66
     1
 10
0.0
 20
0.0
 30
0.0
  0
VERTEX
  5
6E6
  8
PROFILEEDGES
 10
-29.15334633033033
 20
-13.32542936858661
 30
0.0
 40
25.4
 41
25.4
  0
VERTEX
  5
6E7
  8
PROFILEEDGES
 10
-28.98538936160138
 20
-12.77174944457852
 30
0.0
 40
25.4
 41
25.4
  0
SEQEND
  5
CED
  8
PROFILEEDGES
  0
POLYLINE
  5
1C5
  8
PROFILEEDGES
 66
     1
 10
0.0
 20
0.0
 30
0.0
  0
VERTEX
  5
6E8
  8
PROFILEEDGES
 10
-29.95927021526606
 20
13.17841521134237
 30
0.0
 40
25.4
 41
25.4
  0
VERTEX
  5
6E9
  8
PROFILEEDGES
 10
-30.24925973353063
 20
13.626934784852
 30
0.0
 40
25.4
 41
25.4
  0
SEQEND
  5
CEE
  8
PROFILEEDGES
  0
POLYLINE
  5
1C6
  8
PROFILEEDGES
 66
     1
 10
0.0
 20
0.0
 30
0.0
  0
VERTEX
  5
6EA
  8
PROFILEEDGES
 10
-35.23751650508951
 20
-19.02387658806532
 30
0.0
 40
25.4
 41
25.4
  0
VERTEX
  5
6EB
  8
PROFILEEDGES
 10
-34.68383658108073
 20
-18.85591961933749
 30
0.0
 40
25.4
 41
25.4
  0
SEQEND
  5
CEF
  8
PROFILEEDGES
  0
POLYLINE
  5
1C7
  8
PROFILEEDGES
 66
     1
 10
0.0
 20
0.0
 30
0.0
  0
VERTEX
  5
6EC
  8
PROFILEEDGES
 10
-30.24925973353063
 20
13.626934784852
 30
0.0
 40
25.4
 41
25.4
  0
VERTEX
  5
6ED
  8
PROFILEEDGES
 10
-30.5658011195564
 20
14.0571269273389
 30
0.0
 40
25.4
 41
25.4
  0
SEQEND
  5
CF0
  8
PROFILEEDGES
  0
POLYLINE
  5
1C8
  8
PROFILEEDGES
 66
     1
 10
0.0
 20
0.0
 30
0.0
  0
VERTEX
  5
6EE
  8
PROFILEEDGES
 10
-28.94103875547999
 20
10.72018701149161
 30
0.0
 40
25.4
 41
25.4
  0
VERTEX
  5
6EF
  8
PROFILEEDGES
 10
-29.08446185680428
 20
11.23467077462859
 30
0.0
 40
25.4
 41
25.4
  0
SEQEND
  5
CF1
  8
PROFILEEDGES
  0
POLYLINE
  5
1C9
  8
PROFILEEDGES
 66
     1
 10
0.0
 20
0.0
 30
0.0
  0
VERTEX
  5
6F0
  8
PROFILEEDGES
 10
-28.98538936160138
 20
-12.77174944457852
 30
0.0
 40
25.4
 41
25.4
  0
VERTEX
  5
6F1
  8
PROFILEEDGES
 10
-28.85400440125906
 20
-12.20827008045817
 30
0.0
 40
25.4
 41
25.4
  0
SEQEND
  5
CF2
  8
PROFILEEDGES
  0
POLYLINE
  5
1CA
  8
PROFILEEDGES
 66
     1
 10
0.0
 20
0.0
 30
0.0
  0
VERTEX
  5
6F2
  8
PROFILEEDGES
 10
-30.5112481889145
 20
-15.86588506212286
 30
0.0
 40
25.4
 41
25.4
  0
VERTEX
  5
6F3
  8
PROFILEEDGES
 10
-30.17423009604657
 20
-15.39557685820484
 30
0.0
 40
25.4
 41
25.4
  0
SEQEND
  5
CF3
  8
PROFILEEDGES
  0
POLYLINE
  5
1CB
  8
PROFILEEDGES
 66
     1
 10
0.0
 20
0.0
 30
0.0
  0
VERTEX
  5
6F4
  8
PROFILEEDGES
 10
-29.25868704702048
 20
11.73955621868317
 30
0.0
 40
25.4
 41
25.4
  0
VERTEX
  5
6F5
  8
PROFILEEDGES
 10
-29.46307859730863
 20
12.23300107142315
 30
0.0
 40
25.4
 41
25.4
  0
SEQEND
  5
CF4
  8
PROFILEEDGES
  0
POLYLINE
  5
1CC
  8
PROFILEEDGES
 66
     1
 10
0.0
 20
0.0
 30
0.0
  0
VERTEX
  5
6F6
  8
PROFILEEDGES
 10
-32.143380887545
 20
-17.49801776075276
 30
0.0
 40
25.4
 41
25.4
  0
VERTEX
  5
6F7
  8
PROFILEEDGES
 10
-31.69612168747349
 20
-17.13096162125143
 30
0.0
 40
25.4
 41
25.4
  0
SEQEND
  5
CF5
  8
PROFILEEDGES
  0
POLYLINE
  5
1CD
  8
PROFILEEDGES
 66
     1
 10
0.0
 20
0.0
 30
0.0
  0
VERTEX
  5
6F8
  8
PROFILEEDGES
 10
-33.10503236729474
 20
-18.14057273664572
 30
0.0
 40
25.4
 41
25.4
  0
VERTEX
  5
6F9
  8
PROFILEEDGES
 10
-32.61368909146341
 20
-17.83503585362207
 30
0.0
 40
25.4
 41
25.4
  0
SEQEND
  5
CF6
  8
PROFILEEDGES
  0
POLYLINE
  5
1CE
  8
PROFILEEDGES
 66
     1
 10
0.0
 20
0.0
 30
0.0
  0
VERTEX
  5
6FA
  8
PROFILEEDGES
 10
-28.85400440125906
 20
-12.20827008045817
 30
0.0
 40
25.4
 41
25.4
  0
VERTEX
  5
6FB
  8
PROFILEEDGES
 10
-28.75975405987173
 20
-11.63740418136964
 30
0.0
 40
25.4
 41
25.4
  0
SEQEND
  5
CF7
  8
PROFILEEDGES
  0
POLYLINE
  5
1CF
  8
PROFILEEDGES
 66
     1
 10
0.0
 20
0.0
 30
0.0
  0
VERTEX
  5
6FC
  8
PROFILEEDGES
 10
-31.69612168747349
 20
-17.13096162125143
 30
0.0
 40
25.4
 41
25.4
  0
VERTEX
  5
6FD
  8
PROFILEEDGES
 10
-31.27382672380845
 20
-16.73543922585891
 30
0.0
 40
25.4
 41
25.4
  0
SEQEND
  5
CF8
  8
PROFILEEDGES
  0
POLYLINE
  5
1D0
  8
PROFILEEDGES
 66
     1
 10
0.0
 20
0.0
 30
0.0
  0
VERTEX
  5
6FE
  8
PROFILEEDGES
 10
-35.8009958692098
 20
-19.15526154840845
 30
0.0
 40
25.4
 41
25.4
  0
VERTEX
  5
6FF
  8
PROFILEEDGES
 10
-35.23751650508951
 20
-19.02387658806532
 30
0.0
 40
25.4
 41
25.4
  0
SEQEND
  5
CF9
  8
PROFILEEDGES
  0
POLYLINE
  5
1D1
  8
PROFILEEDGES
 66
     1
 10
0.0
 20
0.0
 30
0.0
  0
VERTEX
  5
700
  8
PROFILEEDGES
 10
-29.86869321302303
 20
-14.9042335823721
 30
0.0
 40
25.4
 41
25.4
  0
VERTEX
  5
701
  8
PROFILEEDGES
 10
-29.59594589568309
 20
-14.39395924196415
 30
0.0
 40
25.4
 41
25.4
  0
SEQEND
  5
CFA
  8
PROFILEEDGES
  0
POLYLINE
  5
1D2
  8
PROFILEEDGES
 66
     1
 10
0.0
 20
0.0
 30
0.0
  0
VERTEX
  5
702
  8
PROFILEEDGES
 10
-34.68383658108073
 20
-18.85591961933749
 30
0.0
 40
25.4
 41
25.4
  0
VERTEX
  5
703
  8
PROFILEEDGES
 10
-34.14232703962191
 20
-18.65210985975029
 30
0.0
 40
25.4
 41
25.4
  0
SEQEND
  5
CFB
  8
PROFILEEDGES
  0
POLYLINE
  5
1D3
  8
PROFILEEDGES
 66
     1
 10
0.0
 20
0.0
 30
0.0
  0
VERTEX
  5
704
  8
PROFILEEDGES
 10
-29.59594589568309
 20
-14.39395924196415
 30
0.0
 40
25.4
 41
25.4
  0
VERTEX
  5
705
  8
PROFILEEDGES
 10
-29.3571560899165
 20
-13.86693891004534
 30
0.0
 40
25.4
 41
25.4
  0
SEQEND
  5
CFC
  8
PROFILEEDGES
  0
POLYLINE
  5
1D4
  8
PROFILEEDGES
 66
     1
 10
0.0
 20
0.0
 30
0.0
  0
VERTEX
  5
706
  8
PROFILEEDGES
 10
-36.37186176829715
 20
-19.24951188979611
 30
0.0
 40
25.4
 41
25.4
  0
VERTEX
  5
707
  8
PROFILEEDGES
 10
-35.8009958692098
 20
-19.15526154840845
 30
0.0
 40
25.4
 41
25.4
  0
SEQEND
  5
CFD
  8
PROFILEEDGES
  0
POLYLINE
  5
1D5
  8
PROFILEEDGES
 66
     1
 10
0.0
 20
0.0
 30
0.0
  0
VERTEX
  5
708
  8
PROFILEEDGES
 10
-37.52595386729516
 20
-19.32515508237213
 30
0.0
 40
25.4
 41
25.4
  0
VERTEX
  5
709
  8
PROFILEEDGES
 10
-36.94766966693309
 20
-19.3062240177969
 30
0.0
 40
25.4
 41
25.4
  0
SEQEND
  5
CFE
  8
PROFILEEDGES
  0
POLYLINE
  5
1D6
  8
PROFILEEDGES
 66
     1
 10
0.0
 20
0.0
 30
0.0
  0
VERTEX
  5
70A
  8
PROFILEEDGES
 10
-37.52595386729514
 20
-15.39544708237215
 30
0.0
 40
25.4
 41
25.4
  0
VERTEX
  5
70B
  8
PROFILEEDGES
 10
-42.82379950190396
 20
-15.39544708237214
 30
0.0
 40
25.4
 41
25.4
  0
SEQEND
  5
CFF
  8
PROFILEEDGES
  0
POLYLINE
  5
1D7
  8
PROFILEEDGES
 66
     1
 10
0.0
 20
0.0
 30
0.0
  0
VERTEX
  5
70C
  8
PROFILEEDGES
 10
-32.6138188672962
 20
8.604195480420314
 30
0.0
 40
25.4
 41
25.4
  0
VERTEX
  5
70D
  8
PROFILEEDGES
 10
-32.61381886729624
 20
-10.48331208236756
 30
0.0
 40
25.4
 41
25.4
  0
SEQEND
  5
D00
  8
PROFILEEDGES
  0
POLYLINE
  5
1D8
  8
PROFILEEDGES
 66
     1
 10
0.0
 20
0.0
 30
0.0
  0
VERTEX
  5
70E
  8
PROFILEEDGES
 10
-126.2313768767787
 20
9.669961882979317
 30
0.0
 40
25.4
 41
25.4
  0
VERTEX
  5
70F
  8
PROFILEEDGES
 10
-126.2797124041779
 20
9.138052675204278
 30
0.0
 40
25.4
 41
25.4
  0
SEQEND
  5
D01
  8
PROFILEEDGES
  0
POLYLINE
  5
1D9
  8
PROFILEEDGES
 66
     1
 10
0.0
 20
0.0
 30
0.0
  0
VERTEX
  5
710
  8
PROFILEEDGES
 10
-126.2797124041779
 20
9.138052675204278
 30
0.0
 40
25.4
 41
25.4
  0
VERTEX
  5
711
  8
PROFILEEDGES
 10
-126.2958438672962
 20
8.604195480420529
 30
0.0
 40
25.4
 41
25.4
  0
SEQEND
  5
D02
  8
PROFILEEDGES
  0
POLYLINE
  5
1DA
  8
PROFILEEDGES
 66
     1
 10
0.0
 20
0.0
 30
0.0
  0
VERTEX
  5
712
  8
PROFILEEDGES
 10
-123.7061280107834
 20
14.85632262390736
 30
0.0
 40
25.4
 41
25.4
  0
VERTEX
  5
713
  8
PROFILEEDGES
 10
-124.0722153864382
 20
14.46742191432834
 30
0.0
 40
25.4
 41
25.4
  0
SEQEND
  5
D03
  8
PROFILEEDGES
  0
POLYLINE
  5
1DB
  8
PROFILEEDGES
 66
     1
 10
0.0
 20
0.0
 30
0.0
  0
VERTEX
  5
714
  8
PROFILEEDGES
 10
-123.5066589040224
 20
-16.9287382379576
 30
0.0
 40
25.4
 41
25.4
  0
VERTEX
  5
715
  8
PROFILEEDGES
 10
-123.0900037090887
 20
-17.2960692044164
 30
0.0
 40
25.4
 41
25.4
  0
SEQEND
  5
D04
  8
PROFILEEDGES
  0
POLYLINE
  5
1DC
  8
PROFILEEDGES
 66
     1
 10
0.0
 20
0.0
 30
0.0
  0
VERTEX
  5
716
  8
PROFILEEDGES
 10
-125.2830640295262
 20
12.71320480609353
 30
0.0
 40
25.4
 41
25.4
  0
VERTEX
  5
717
  8
PROFILEEDGES
 10
-125.5168761372832
 20
12.23300107142337
 30
0.0
 40
25.4
 41
25.4
  0
SEQEND
  5
D05
  8
PROFILEEDGES
  0
POLYLINE
  5
1DD
  8
PROFILEEDGES
 66
     1
 10
0.0
 20
0.0
 30
0.0
  0
VERTEX
  5
718
  8
PROFILEEDGES
 10
-123.0900037090887
 20
-17.2960692044164
 30
0.0
 40
25.4
 41
25.4
  0
VERTEX
  5
719
  8
PROFILEEDGES
 10
-122.6511057857812
 20
-17.63651333096715
 30
0.0
 40
25.4
 41
25.4
  0
SEQEND
  5
D06
  8
PROFILEEDGES
  0
POLYLINE
  5
1DE
  8
PROFILEEDGES
 66
     1
 10
0.0
 20
0.0
 30
0.0
  0
VERTEX
  5
71A
  8
PROFILEEDGES
 10
-121.2186745159669
 20
-18.4836508224293
 30
0.0
 40
25.4
 41
25.4
  0
VERTEX
  5
71B
  8
PROFILEEDGES
 10
-120.7089003665801
 20
-18.70424979568763
 30
0.0
 40
25.4
 41
25.4
  0
SEQEND
  5
D07
  8
PROFILEEDGES
  0
POLYLINE
  5
1DF
  8
PROFILEEDGES
 66
     1
 10
0.0
 20
0.0
 30
0.0
  0
VERTEX
  5
71C
  8
PROFILEEDGES
 10
-125.8630932685052
 20
-13.21559183096711
 30
0.0
 40
25.4
 41
25.4
  0
VERTEX
  5
71D
  8
PROFILEEDGES
 10
-125.674938580612
 20
-13.7382115816551
 30
0.0
 40
25.4
 41
25.4
  0
SEQEND
  5
D08
  8
PROFILEEDGES
  0
POLYLINE
  5
1E0
  8
PROFILEEDGES
 66
     1
 10
0.0
 20
0.0
 30
0.0
  0
VERTEX
  5
71E
  8
PROFILEEDGES
 10
-126.1510136561975
 20
10.19798222473015
 30
0.0
 40
25.4
 41
25.4
  0
VERTEX
  5
71F
  8
PROFILEEDGES
 10
-126.2313768767787
 20
9.669961882979317
 30
0.0
 40
25.4
 41
25.4
  0
SEQEND
  5
D09
  8
PROFILEEDGES
  0
POLYLINE
  5
1E1
  8
PROFILEEDGES
 66
     1
 10
0.0
 20
0.0
 30
0.0
  0
VERTEX
  5
720
  8
PROFILEEDGES
 10
-118.5621776411539
 20
-19.25543450938649
 30
0.0
 40
25.4
 41
25.4
  0
VERTEX
  5
721
  8
PROFILEEDGES
 10
-118.0091847828632
 20
-19.30770772493838
 30
0.0
 40
25.4
 41
25.4
  0
SEQEND
  5
D0A
  8
PROFILEEDGES
  0
POLYLINE
  5
1E2
  8
PROFILEEDGES
 66
     1
 10
0.0
 20
0.0
 30
0.0
  0
VERTEX
  5
722
  8
PROFILEEDGES
 10
-126.0180611104393
 20
-12.6821890203713
 30
0.0
 40
25.4
 41
25.4
  0
VERTEX
  5
723
  8
PROFILEEDGES
 10
-125.8630932685052
 20
-13.21559183096711
 30
0.0
 40
25.4
 41
25.4
  0
SEQEND
  5
D0B
  8
PROFILEEDGES
  0
POLYLINE
  5
1E3
  8
PROFILEEDGES
 66
     1
 10
0.0
 20
0.0
 30
0.0
  0
VERTEX
  5
724
  8
PROFILEEDGES
 10
-122.6511057857812
 20
-17.63651333096715
 30
0.0
 40
25.4
 41
25.4
  0
VERTEX
  5
725
  8
PROFILEEDGES
 10
-122.1916972636935
 20
-17.9487270401765
 30
0.0
 40
25.4
 41
25.4
  0
SEQEND
  5
D0C
  8
PROFILEEDGES
  0
POLYLINE
  5
1E4
  8
PROFILEEDGES
 66
     1
 10
0.0
 20
0.0
 30
0.0
  0
VERTEX
  5
726
  8
PROFILEEDGES
 10
-124.2667579893406
 20
-16.1193149241635
 30
0.0
 40
25.4
 41
25.4
  0
VERTEX
  5
727
  8
PROFILEEDGES
 10
-123.8994270228827
 20
-16.53597011909782
 30
0.0
 40
25.4
 41
25.4
  0
SEQEND
  5
D0D
  8
PROFILEEDGES
  0
POLYLINE
  5
1E5
  8
PROFILEEDGES
 66
     1
 10
0.0
 20
0.0
 30
0.0
  0
VERTEX
  5
728
  8
PROFILEEDGES
 10
-126.2261232943106
 20
-11.59148885622982
 30
0.0
 40
25.4
 41
25.4
  0
VERTEX
  5
729
  8
PROFILEEDGES
 10
-126.1392305191416
 20
-12.14010824707252
 30
0.0
 40
25.4
 41
25.4
  0
SEQEND
  5
D0E
  8
PROFILEEDGES
  0
POLYLINE
  5
1E6
  8
PROFILEEDGES
 66
     1
 10
0.0
 20
0.0
 30
0.0
  0
VERTEX
  5
72A
  8
PROFILEEDGES
 10
-120.7089003665801
 20
-18.70424979568763
 30
0.0
 40
25.4
 41
25.4
  0
VERTEX
  5
72B
  8
PROFILEEDGES
 10
-120.1862806158922
 20
-18.89240448358069
 30
0.0
 40
25.4
 41
25.4
  0
SEQEND
  5
D0F
  8
PROFILEEDGES
  0
POLYLINE
  5
1E7
  8
PROFILEEDGES
 66
     1
 10
0.0
 20
0.0
 30
0.0
  0
VERTEX
  5
72C
  8
PROFILEEDGES
 10
-124.7306950010626
 20
13.62693478485221
 30
0.0
 40
25.4
 41
25.4
  0
VERTEX
  5
72D
  8
PROFILEEDGES
 10
-125.0206845193271
 20
13.17841521134259
 30
0.0
 40
25.4
 41
25.4
  0
SEQEND
  5
D10
  8
PROFILEEDGES
  0
POLYLINE
  5
1E8
  8
PROFILEEDGES
 66
     1
 10
0.0
 20
0.0
 30
0.0
  0
VERTEX
  5
72E
  8
PROFILEEDGES
 10
-126.1392305191416
 20
-12.14010824707252
 30
0.0
 40
25.4
 41
25.4
  0
VERTEX
  5
72F
  8
PROFILEEDGES
 10
-126.0180611104393
 20
-12.6821890203713
 30
0.0
 40
25.4
 41
25.4
  0
SEQEND
  5
D11
  8
PROFILEEDGES
  0
POLYLINE
  5
1E9
  8
PROFILEEDGES
 66
     1
 10
0.0
 20
0.0
 30
0.0
  0
VERTEX
  5
730
  8
PROFILEEDGES
 10
-119.6528778052961
 20
-19.04737232551503
 30
0.0
 40
25.4
 41
25.4
  0
VERTEX
  5
731
  8
PROFILEEDGES
 10
-119.1107970319975
 20
-19.16854173421669
 30
0.0
 40
25.4
 41
25.4
  0
SEQEND
  5
D12
  8
PROFILEEDGES
  0
POLYLINE
  5
1EA
  8
PROFILEEDGES
 66
     1
 10
0.0
 20
0.0
 30
0.0
  0
VERTEX
  5
732
  8
PROFILEEDGES
 10
-124.6072021158926
 20
-15.68041700085741
 30
0.0
 40
25.4
 41
25.4
  0
VERTEX
  5
733
  8
PROFILEEDGES
 10
-124.2667579893406
 20
-16.1193149241635
 30
0.0
 40
25.4
 41
25.4
  0
SEQEND
  5
D13
  8
PROFILEEDGES
  0
POLYLINE
  5
1EB
  8
PROFILEEDGES
 66
     1
 10
0.0
 20
0.0
 30
0.0
  0
VERTEX
  5
734
  8
PROFILEEDGES
 10
-124.9194158251016
 20
-15.22100847876944
 30
0.0
 40
25.4
 41
25.4
  0
VERTEX
  5
735
  8
PROFILEEDGES
 10
-124.6072021158926
 20
-15.68041700085741
 30
0.0
 40
25.4
 41
25.4
  0
SEQEND
  5
D14
  8
PROFILEEDGES
  0
POLYLINE
  5
1EC
  8
PROFILEEDGES
 66
     1
 10
0.0
 20
0.0
 30
0.0
  0
VERTEX
  5
736
  8
PROFILEEDGES
 10
-124.4141536150368
 20
14.05712692733911
 30
0.0
 40
25.4
 41
25.4
  0
VERTEX
  5
737
  8
PROFILEEDGES
 10
-124.7306950010626
 20
13.62693478485221
 30
0.0
 40
25.4
 41
25.4
  0
SEQEND
  5
D15
  8
PROFILEEDGES
  0
POLYLINE
  5
1ED
  8
PROFILEEDGES
 66
     1
 10
0.0
 20
0.0
 30
0.0
  0
VERTEX
  5
738
  8
PROFILEEDGES
 10
-126.0389159791132
 20
10.72018701149183
 30
0.0
 40
25.4
 41
25.4
  0
VERTEX
  5
739
  8
PROFILEEDGES
 10
-126.1510136561975
 20
10.19798222473015
 30
0.0
 40
25.4
 41
25.4
  0
SEQEND
  5
D16
  8
PROFILEEDGES
  0
POLYLINE
  5
1EE
  8
PROFILEEDGES
 66
     1
 10
0.0
 20
0.0
 30
0.0
  0
VERTEX
  5
73A
  8
PROFILEEDGES
 10
-125.7212676875713
 20
11.73955621868339
 30
0.0
 40
25.4
 41
25.4
  0
VERTEX
  5
73B
  8
PROFILEEDGES
 10
-125.895492877789
 20
11.23467077462881
 30
0.0
 40
25.4
 41
25.4
  0
SEQEND
  5
D17
  8
PROFILEEDGES
  0
POLYLINE
  5
1EF
  8
PROFILEEDGES
 66
     1
 10
0.0
 20
0.0
 30
0.0
  0
VERTEX
  5
73C
  8
PROFILEEDGES
 10
-125.5168761372832
 20
12.23300107142337
 30
0.0
 40
25.4
 41
25.4
  0
VERTEX
  5
73D
  8
PROFILEEDGES
 10
-125.7212676875713
 20
11.73955621868339
 30
0.0
 40
25.4
 41
25.4
  0
SEQEND
  5
D18
  8
PROFILEEDGES
  0
POLYLINE
  5
1F0
  8
PROFILEEDGES
 66
     1
 10
0.0
 20
0.0
 30
0.0
  0
VERTEX
  5
73E
  8
PROFILEEDGES
 10
-120.1862806158922
 20
-18.89240448358069
 30
0.0
 40
25.4
 41
25.4
  0
VERTEX
  5
73F
  8
PROFILEEDGES
 10
-119.6528778052961
 20
-19.04737232551503
 30
0.0
 40
25.4
 41
25.4
  0
SEQEND
  5
D19
  8
PROFILEEDGES
  0
POLYLINE
  5
1F1
  8
PROFILEEDGES
 66
     1
 10
0.0
 20
0.0
 30
0.0
  0
VERTEX
  5
740
  8
PROFILEEDGES
 10
-122.1916972636935
 20
-17.9487270401765
 30
0.0
 40
25.4
 41
25.4
  0
VERTEX
  5
741
  8
PROFILEEDGES
 10
-121.7135912183772
 20
-18.23147816717107
 30
0.0
 40
25.4
 41
25.4
  0
SEQEND
  5
D1A
  8
PROFILEEDGES
  0
POLYLINE
  5
1F2
  8
PROFILEEDGES
 66
     1
 10
0.0
 20
0.0
 30
0.0
  0
VERTEX
  5
742
  8
PROFILEEDGES
 10
-126.2958438672962
 20
-10.48331208237191
 30
0.0
 40
25.4
 41
25.4
  0
VERTEX
  5
743
  8
PROFILEEDGES
 10
-126.2783965098628
 20
-11.03849599793853
 30
0.0
 40
25.4
 41
25.4
  0
SEQEND
  5
D1B
  8
PROFILEEDGES
  0
POLYLINE
  5
1F3
  8
PROFILEEDGES
 66
     1
 10
0.0
 20
0.0
 30
0.0
  0
VERTEX
  5
744
  8
PROFILEEDGES
 10
-125.2021669520955
 20
-14.74290243345249
 30
0.0
 40
25.4
 41
25.4
  0
VERTEX
  5
745
  8
PROFILEEDGES
 10
-124.9194158251016
 20
-15.22100847876944
 30
0.0
 40
25.4
 41
25.4
  0
SEQEND
  5
D1C
  8
PROFILEEDGES
  0
POLYLINE
  5
1F4
  8
PROFILEEDGES
 66
     1
 10
0.0
 20
0.0
 30
0.0
  0
VERTEX
  5
746
  8
PROFILEEDGES
 10
-125.4543396073536
 20
-14.24798573104156
 30
0.0
 40
25.4
 41
25.4
  0
VERTEX
  5
747
  8
PROFILEEDGES
 10
-125.2021669520955
 20
-14.74290243345249
 30
0.0
 40
25.4
 41
25.4
  0
SEQEND
  5
D1D
  8
PROFILEEDGES
  0
POLYLINE
  5
1F5
  8
PROFILEEDGES
 66
     1
 10
0.0
 20
0.0
 30
0.0
  0
VERTEX
  5
748
  8
PROFILEEDGES
 10
-121.7135912183772
 20
-18.23147816717107
 30
0.0
 40
25.4
 41
25.4
  0
VERTEX
  5
749
  8
PROFILEEDGES
 10
-121.2186745159669
 20
-18.4836508224293
 30
0.0
 40
25.4
 41
25.4
  0
SEQEND
  5
D1E
  8
PROFILEEDGES
  0
POLYLINE
  5
1F6
  8
PROFILEEDGES
 66
     1
 10
0.0
 20
0.0
 30
0.0
  0
VERTEX
  5
74A
  8
PROFILEEDGES
 10
-125.895492877789
 20
11.23467077462881
 30
0.0
 40
25.4
 41
25.4
  0
VERTEX
  5
74B
  8
PROFILEEDGES
 10
-126.0389159791132
 20
10.72018701149183
 30
0.0
 40
25.4
 41
25.4
  0
SEQEND
  5
D1F
  8
PROFILEEDGES
  0
POLYLINE
  5
1F7
  8
PROFILEEDGES
 66
     1
 10
0.0
 20
0.0
 30
0.0
  0
VERTEX
  5
74C
  8
PROFILEEDGES
 10
-124.0722153864382
 20
14.46742191432834
 30
0.0
 40
25.4
 41
25.4
  0
VERTEX
  5
74D
  8
PROFILEEDGES
 10
-124.4141536150368
 20
14.05712692733911
 30
0.0
 40
25.4
 41
25.4
  0
SEQEND
  5
D20
  8
PROFILEEDGES
  0
POLYLINE
  5
1F8
  8
PROFILEEDGES
 66
     1
 10
0.0
 20
0.0
 30
0.0
  0
VERTEX
  5
74E
  8
PROFILEEDGES
 10
-126.2783965098628
 20
-11.03849599793853
 30
0.0
 40
25.4
 41
25.4
  0
VERTEX
  5
74F
  8
PROFILEEDGES
 10
-126.2261232943106
 20
-11.59148885622982
 30
0.0
 40
25.4
 41
25.4
  0
SEQEND
  5
D21
  8
PROFILEEDGES
  0
POLYLINE
  5
1F9
  8
PROFILEEDGES
 66
     1
 10
0.0
 20
0.0
 30
0.0
  0
VERTEX
  5
750
  8
PROFILEEDGES
 10
-119.1107970319975
 20
-19.16854173421669
 30
0.0
 40
25.4
 41
25.4
  0
VERTEX
  5
751
  8
PROFILEEDGES
 10
-118.5621776411539
 20
-19.25543450938649
 30
0.0
 40
25.4
 41
25.4
  0
SEQEND
  5
D22
  8
PROFILEEDGES
  0
POLYLINE
  5
1FA
  8
PROFILEEDGES
 66
     1
 10
0.0
 20
0.0
 30
0.0
  0
VERTEX
  5
752
  8
PROFILEEDGES
 10
-125.0206845193271
 20
13.17841521134259
 30
0.0
 40
25.4
 41
25.4
  0
VERTEX
  5
753
  8
PROFILEEDGES
 10
-125.2830640295262
 20
12.71320480609353
 30
0.0
 40
25.4
 41
25.4
  0
SEQEND
  5
D23
  8
PROFILEEDGES
  0
POLYLINE
  5
1FB
  8
PROFILEEDGES
 66
     1
 10
0.0
 20
0.0
 30
0.0
  0
VERTEX
  5
754
  8
PROFILEEDGES
 10
-123.8994270228827
 20
-16.53597011909782
 30
0.0
 40
25.4
 41
25.4
  0
VERTEX
  5
755
  8
PROFILEEDGES
 10
-123.5066589040224
 20
-16.9287382379576
 30
0.0
 40
25.4
 41
25.4
  0
SEQEND
  5
D24
  8
PROFILEEDGES
  0
POLYLINE
  5
1FC
  8
PROFILEEDGES
 66
     1
 10
0.0
 20
0.0
 30
0.0
  0
VERTEX
  5
756
  8
PROFILEEDGES
 10
-125.674938580612
 20
-13.7382115816551
 30
0.0
 40
25.4
 41
25.4
  0
VERTEX
  5
757
  8
PROFILEEDGES
 10
-125.4543396073536
 20
-14.24798573104156
 30
0.0
 40
25.4
 41
25.4
  0
SEQEND
  5
D25
  8
PROFILEEDGES
  0
POLYLINE
  5
1FD
  8
PROFILEEDGES
 66
     1
 10
0.0
 20
0.0
 30
0.0
  0
VERTEX
  5
758
  8
PROFILEEDGES
 10
-38.77709885482083
 20
25.23967049169543
 30
0.0
 40
25.4
 41
25.4
  0
VERTEX
  5
759
  8
PROFILEEDGES
 10
-38.85593302614536
 20
25.07213934989052
 30
0.0
 40
25.4
 41
25.4
  0
SEQEND
  5
D26
  8
PROFILEEDGES
  0
POLYLINE
  5
1FE
  8
PROFILEEDGES
 66
     1
 10
0.0
 20
0.0
 30
0.0
  0
VERTEX
  5
75A
  8
PROFILEEDGES
 10
-32.98773287986225
 20
-12.36310476440826
 30
0.0
 40
25.4
 41
25.4
  0
VERTEX
  5
75B
  8
PROFILEEDGES
 10
-32.87450523564897
 20
-12.0622661302645
 30
0.0
 40
25.4
 41
25.4
  0
SEQEND
  5
D27
  8
PROFILEEDGES
  0
POLYLINE
  5
1FF
  8
PROFILEEDGES
 66
     1
 10
0.0
 20
0.0
 30
0.0
  0
VERTEX
  5
75C
  8
PROFILEEDGES
 10
-38.68790087729522
 20
22.40134482477833
 30
0.0
 40
25.4
 41
25.4
  0
VERTEX
  5
75D
  8
PROFILEEDGES
 10
-38.58869111723064
 20
22.24501525767309
 30
0.0
 40
25.4
 41
25.4
  0
SEQEND
  5
D28
  8
PROFILEEDGES
  0
POLYLINE
  5
200
  8
PROFILEEDGES
 66
     1
 10
0.0
 20
0.0
 30
0.0
  0
VERTEX
  5
75E
  8
PROFILEEDGES
 10
-38.98130758941891
 20
24.72389810363095
 30
0.0
 40
25.4
 41
25.4
  0
VERTEX
  5
75F
  8
PROFILEEDGES
 10
-39.02735318524895
 20
24.54456234827895
 30
0.0
 40
25.4
 41
25.4
  0
SEQEND
  5
D29
  8
PROFILEEDGES
  0
POLYLINE
  5
201
  8
PROFILEEDGES
 66
     1
 10
0.0
 20
0.0
 30
0.0
  0
VERTEX
  5
760
  8
PROFILEEDGES
 10
-124.0722153864381
 20
33.33584392092789
 30
0.0
 40
25.4
 41
25.4
  0
VERTEX
  5
761
  8
PROFILEEDGES
 10
-123.7061280107834
 20
32.94694321134892
 30
0.0
 40
25.4
 41
25.4
  0
SEQEND
  5
D2A
  8
PROFILEEDGES
  0
POLYLINE
  5
202
  8
PROFILEEDGES
 66
     1
 10
0.0
 20
0.0
 30
0.0
  0
VERTEX
  5
762
  8
PROFILEEDGES
 10
-38.58869111723064
 20
22.24501525767309
 30
0.0
 40
25.4
 41
25.4
  0
VERTEX
  5
763
  8
PROFILEEDGES
 10
-38.47986111023186
 20
22.09522360363508
 30
0.0
 40
25.4
 41
25.4
  0
SEQEND
  5
D2B
  8
PROFILEEDGES
  0
POLYLINE
  5
203
  8
PROFILEEDGES
 66
     1
 10
0.0
 20
0.0
 30
0.0
  0
VERTEX
  5
764
  8
PROFILEEDGES
 10
-124.4141536150368
 20
33.74613890791711
 30
0.0
 40
25.4
 41
25.4
  0
VERTEX
  5
765
  8
PROFILEEDGES
 10
-124.0722153864381
 20
33.33584392092789
 30
0.0
 40
25.4
 41
25.4
  0
SEQEND
  5
D2C
  8
PROFILEEDGES
  0
POLYLINE
  5
204
  8
PROFILEEDGES
 66
     1
 10
0.0
 20
0.0
 30
0.0
  0
VERTEX
  5
766
  8
PROFILEEDGES
 10
-125.8954928777889
 20
36.56859506062743
 30
0.0
 40
25.4
 41
25.4
  0
VERTEX
  5
767
  8
PROFILEEDGES
 10
-125.7212676875713
 20
36.06370961657284
 30
0.0
 40
25.4
 41
25.4
  0
SEQEND
  5
D2D
  8
PROFILEEDGES
  0
POLYLINE
  5
205
  8
PROFILEEDGES
 66
     1
 10
0.0
 20
0.0
 30
0.0
  0
VERTEX
  5
768
  8
PROFILEEDGES
 10
-126.2797124041778
 20
38.66521316005201
 30
0.0
 40
25.4
 41
25.4
  0
VERTEX
  5
769
  8
PROFILEEDGES
 10
-126.2313768767786
 20
38.13330395227702
 30
0.0
 40
25.4
 41
25.4
  0
SEQEND
  5
D2E
  8
PROFILEEDGES
  0
POLYLINE
  5
206
  8
PROFILEEDGES
 66
     1
 10
0.0
 20
0.0
 30
0.0
  0
VERTEX
  5
76A
  8
PROFILEEDGES
 10
-38.36184035861609
 20
21.95256102188952
 30
0.0
 40
25.4
 41
25.4
  0
VERTEX
  5
76B
  8
PROFILEEDGES
 10
-38.23509463636594
 20
21.81759053647022
 30
0.0
 40
25.4
 41
25.4
  0
SEQEND
  5
D2F
  8
PROFILEEDGES
  0
POLYLINE
  5
207
  8
PROFILEEDGES
 66
     1
 10
0.0
 20
0.0
 30
0.0
  0
VERTEX
  5
76C
  8
PROFILEEDGES
 10
-126.0389159791132
 20
37.0830788237644
 30
0.0
 40
25.4
 41
25.4
  0
VERTEX
  5
76D
  8
PROFILEEDGES
 10
-125.8954928777889
 20
36.56859506062743
 30
0.0
 40
25.4
 41
25.4
  0
SEQEND
  5
D30
  8
PROFILEEDGES
  0
POLYLINE
  5
208
  8
PROFILEEDGES
 66
     1
 10
0.0
 20
0.0
 30
0.0
  0
VERTEX
  5
76E
  8
PROFILEEDGES
 10
-124.7306950010611
 20
34.17633105040407
 30
0.0
 40
25.4
 41
25.4
  0
VERTEX
  5
76F
  8
PROFILEEDGES
 10
-124.4141536150368
 20
33.74613890791711
 30
0.0
 40
25.4
 41
25.4
  0
SEQEND
  5
D31
  8
PROFILEEDGES
  0
POLYLINE
  5
209
  8
PROFILEEDGES
 66
     1
 10
0.0
 20
0.0
 30
0.0
  0
VERTEX
  5
770
  8
PROFILEEDGES
 10
-125.7212676875713
 20
36.06370961657284
 30
0.0
 40
25.4
 41
25.4
  0
VERTEX
  5
771
  8
PROFILEEDGES
 10
-125.5168761372831
 20
35.57026476383287
 30
0.0
 40
25.4
 41
25.4
  0
SEQEND
  5
D32
  8
PROFILEEDGES
  0
POLYLINE
  5
20A
  8
PROFILEEDGES
 66
     1
 10
0.0
 20
0.0
 30
0.0
  0
VERTEX
  5
772
  8
PROFILEEDGES
 10
-38.23509463636734
 20
25.98567529879478
 30
0.0
 40
25.4
 41
25.4
  0
VERTEX
  5
773
  8
PROFILEEDGES
 10
-38.36184035861607
 20
25.8507048133755
 30
0.0
 40
25.4
 41
25.4
  0
SEQEND
  5
D33
  8
PROFILEEDGES
  0
POLYLINE
  5
20B
  8
PROFILEEDGES
 66
     1
 10
0.0
 20
0.0
 30
0.0
  0
VERTEX
  5
774
  8
PROFILEEDGES
 10
-125.2830640295262
 20
35.09006102916267
 30
0.0
 40
25.4
 41
25.4
  0
VERTEX
  5
775
  8
PROFILEEDGES
 10
-125.0206845193271
 20
34.62485062391365
 30
0.0
 40
25.4
 41
25.4
  0
SEQEND
  5
D34
  8
PROFILEEDGES
  0
POLYLINE
  5
20C
  8
PROFILEEDGES
 66
     1
 10
0.0
 20
0.0
 30
0.0
  0
VERTEX
  5
776
  8
PROFILEEDGES
 10
-39.08525311780305
 20
23.62426927384679
 30
0.0
 40
25.4
 41
25.4
  0
VERTEX
  5
777
  8
PROFILEEDGES
 10
-39.06204733536263
 20
23.44057659107428
 30
0.0
 40
25.4
 41
25.4
  0
SEQEND
  5
D35
  8
PROFILEEDGES
  0
POLYLINE
  5
20D
  8
PROFILEEDGES
 66
     1
 10
0.0
 20
0.0
 30
0.0
  0
VERTEX
  5
778
  8
PROFILEEDGES
 10
-39.06204733536263
 20
23.44057659107428
 30
0.0
 40
25.4
 41
25.4
  0
VERTEX
  5
779
  8
PROFILEEDGES
 10
-39.02735318524895
 20
23.25870348698605
 30
0.0
 40
25.4
 41
25.4
  0
SEQEND
  5
D36
  8
PROFILEEDGES
  0
POLYLINE
  5
20E
  8
PROFILEEDGES
 66
     1
 10
0.0
 20
0.0
 30
0.0
  0
VERTEX
  5
77A
  8
PROFILEEDGES
 10
-38.68790087729521
 20
25.40192101048673
 30
0.0
 40
25.4
 41
25.4
  0
VERTEX
  5
77B
  8
PROFILEEDGES
 10
-38.77709885482083
 20
25.23967049169543
 30
0.0
 40
25.4
 41
25.4
  0
SEQEND
  5
D37
  8
PROFILEEDGES
  0
POLYLINE
  5
20F
  8
PROFILEEDGES
 66
     1
 10
0.0
 20
0.0
 30
0.0
  0
VERTEX
  5
77C
  8
PROFILEEDGES
 10
-38.77709885482084
 20
22.56359534356962
 30
0.0
 40
25.4
 41
25.4
  0
VERTEX
  5
77D
  8
PROFILEEDGES
 10
-38.68790087729522
 20
22.40134482477833
 30
0.0
 40
25.4
 41
25.4
  0
SEQEND
  5
D38
  8
PROFILEEDGES
  0
POLYLINE
  5
210
  8
PROFILEEDGES
 66
     1
 10
0.0
 20
0.0
 30
0.0
  0
VERTEX
  5
77E
  8
PROFILEEDGES
 10
-126.2313768767786
 20
38.13330395227702
 30
0.0
 40
25.4
 41
25.4
  0
VERTEX
  5
77F
  8
PROFILEEDGES
 10
-126.1510136561975
 20
37.60528361052614
 30
0.0
 40
25.4
 41
25.4
  0
SEQEND
  5
D39
  8
PROFILEEDGES
  0
POLYLINE
  5
211
  8
PROFILEEDGES
 66
     1
 10
0.0
 20
0.0
 30
0.0
  0
VERTEX
  5
780
  8
PROFILEEDGES
 10
-126.1510136561975
 20
37.60528361052614
 30
0.0
 40
25.4
 41
25.4
  0
VERTEX
  5
781
  8
PROFILEEDGES
 10
-126.0389159791132
 20
37.0830788237644
 30
0.0
 40
25.4
 41
25.4
  0
SEQEND
  5
D3A
  8
PROFILEEDGES
  0
POLYLINE
  5
212
  8
PROFILEEDGES
 66
     1
 10
0.0
 20
0.0
 30
0.0
  0
VERTEX
  5
782
  8
PROFILEEDGES
 10
-32.78119580857779
 20
-11.75466617248222
 30
0.0
 40
25.4
 41
25.4
  0
VERTEX
  5
783
  8
PROFILEEDGES
 10
-32.70820416394317
 20
-11.44162208130426
 30
0.0
 40
25.4
 41
25.4
  0
SEQEND
  5
D3B
  8
PROFILEEDGES
  0
POLYLINE
  5
213
  8
PROFILEEDGES
 66
     1
 10
0.0
 20
0.0
 30
0.0
  0
VERTEX
  5
784
  8
PROFILEEDGES
 10
-38.47986111023186
 20
22.09522360363508
 30
0.0
 40
25.4
 41
25.4
  0
VERTEX
  5
785
  8
PROFILEEDGES
 10
-38.36184035861609
 20
21.95256102188952
 30
0.0
 40
25.4
 41
25.4
  0
SEQEND
  5
D3C
  8
PROFILEEDGES
  0
POLYLINE
  5
214
  8
PROFILEEDGES
 66
     1
 10
0.0
 20
0.0
 30
0.0
  0
VERTEX
  5
786
  8
PROFILEEDGES
 10
-33.04657871730387
 20
10.62019858653759
 30
0.0
 40
25.4
 41
25.4
  0
VERTEX
  5
787
  8
PROFILEEDGES
 10
-33.17647433272376
 20
10.88697843913215
 30
0.0
 40
25.4
 41
25.4
  0
SEQEND
  5
D3D
  8
PROFILEEDGES
  0
POLYLINE
  5
215
  8
PROFILEEDGES
 66
     1
 10
0.0
 20
0.0
 30
0.0
  0
VERTEX
  5
788
  8
PROFILEEDGES
 10
-38.47986111023184
 20
25.70804223162995
 30
0.0
 40
25.4
 41
25.4
  0
VERTEX
  5
789
  8
PROFILEEDGES
 10
-38.58869111723488
 20
25.55825057759196
 30
0.0
 40
25.4
 41
25.4
  0
SEQEND
  5
D3E
  8
PROFILEEDGES
  0
POLYLINE
  5
216
  8
PROFILEEDGES
 66
     1
 10
0.0
 20
0.0
 30
0.0
  0
VERTEX
  5
78A
  8
PROFILEEDGES
 10
-39.09687894994655
 20
23.99420925105905
 30
0.0
 40
25.4
 41
25.4
  0
VERTEX
  5
78B
  8
PROFILEEDGES
 10
-39.09687894994655
 20
23.80905658420597
 30
0.0
 40
25.4
 41
25.4
  0
SEQEND
  5
D3F
  8
PROFILEEDGES
  0
POLYLINE
  5
217
  8
PROFILEEDGES
 66
     1
 10
0.0
 20
0.0
 30
0.0
  0
VERTEX
  5
78C
  8
PROFILEEDGES
 10
-38.58869111723488
 20
25.55825057759196
 30
0.0
 40
25.4
 41
25.4
  0
VERTEX
  5
78D
  8
PROFILEEDGES
 10
-38.68790087729521
 20
25.40192101048673
 30
0.0
 40
25.4
 41
25.4
  0
SEQEND
  5
D40
  8
PROFILEEDGES
  0
POLYLINE
  5
218
  8
PROFILEEDGES
 66
     1
 10
0.0
 20
0.0
 30
0.0
  0
VERTEX
  5
78E
  8
PROFILEEDGES
 10
-39.08525311780305
 20
24.17899656141822
 30
0.0
 40
25.4
 41
25.4
  0
VERTEX
  5
78F
  8
PROFILEEDGES
 10
-39.09687894994655
 20
23.99420925105905
 30
0.0
 40
25.4
 41
25.4
  0
SEQEND
  5
D41
  8
PROFILEEDGES
  0
POLYLINE
  5
219
  8
PROFILEEDGES
 66
     1
 10
0.0
 20
0.0
 30
0.0
  0
VERTEX
  5
790
  8
PROFILEEDGES
 10
-39.06204733536263
 20
24.36268924419074
 30
0.0
 40
25.4
 41
25.4
  0
VERTEX
  5
791
  8
PROFILEEDGES
 10
-39.08525311780305
 20
24.17899656141822
 30
0.0
 40
25.4
 41
25.4
  0
SEQEND
  5
D42
  8
PROFILEEDGES
  0
POLYLINE
  5
21A
  8
PROFILEEDGES
 66
     1
 10
0.0
 20
0.0
 30
0.0
  0
VERTEX
  5
792
  8
PROFILEEDGES
 10
-38.98130758941891
 20
23.07936773163406
 30
0.0
 40
25.4
 41
25.4
  0
VERTEX
  5
793
  8
PROFILEEDGES
 10
-38.92409226880955
 20
22.90327708131402
 30
0.0
 40
25.4
 41
25.4
  0
SEQEND
  5
D43
  8
PROFILEEDGES
  0
POLYLINE
  5
21B
  8
PROFILEEDGES
 66
     1
 10
0.0
 20
0.0
 30
0.0
  0
VERTEX
  5
794
  8
PROFILEEDGES
 10
-125.5168761372831
 20
35.57026476383287
 30
0.0
 40
25.4
 41
25.4
  0
VERTEX
  5
795
  8
PROFILEEDGES
 10
-125.2830640295262
 20
35.09006102916267
 30
0.0
 40
25.4
 41
25.4
  0
SEQEND
  5
D44
  8
PROFILEEDGES
  0
POLYLINE
  5
21C
  8
PROFILEEDGES
 66
     1
 10
0.0
 20
0.0
 30
0.0
  0
VERTEX
  5
796
  8
PROFILEEDGES
 10
-31.27382672380834
 20
32.94694321134879
 30
0.0
 40
25.4
 41
25.4
  0
VERTEX
  5
797
  8
PROFILEEDGES
 10
-38.23509463636734
 20
25.98567529879478
 30
0.0
 40
25.4
 41
25.4
  0
SEQEND
  5
D45
  8
PROFILEEDGES
  0
POLYLINE
  5
21D
  8
PROFILEEDGES
 66
     1
 10
0.0
 20
0.0
 30
0.0
  0
VERTEX
  5
798
  8
PROFILEEDGES
 10
-125.0206845193271
 20
34.62485062391365
 30
0.0
 40
25.4
 41
25.4
  0
VERTEX
  5
799
  8
PROFILEEDGES
 10
-124.7306950010611
 20
34.17633105040407
 30
0.0
 40
25.4
 41
25.4
  0
SEQEND
  5
D46
  8
PROFILEEDGES
  0
POLYLINE
  5
21E
  8
PROFILEEDGES
 66
     1
 10
0.0
 20
0.0
 30
0.0
  0
VERTEX
  5
79A
  8
PROFILEEDGES
 10
-126.2958438672961
 20
39.19907035483575
 30
0.0
 40
25.4
 41
25.4
  0
VERTEX
  5
79B
  8
PROFILEEDGES
 10
-126.2797124041778
 20
38.66521316005201
 30
0.0
 40
25.4
 41
25.4
  0
SEQEND
  5
D47
  8
PROFILEEDGES
  0
POLYLINE
  5
21F
  8
PROFILEEDGES
 66
     1
 10
0.0
 20
0.0
 30
0.0
  0
VERTEX
  5
79C
  8
PROFILEEDGES
 10
-38.23509463636594
 20
21.81759053647022
 30
0.0
 40
25.4
 41
25.4
  0
VERTEX
  5
79D
  8
PROFILEEDGES
 10
-31.27382672380838
 20
14.85632262390715
 30
0.0
 40
25.4
 41
25.4
  0
SEQEND
  5
D48
  8
PROFILEEDGES
  0
POLYLINE
  5
220
  8
PROFILEEDGES
 66
     1
 10
0.0
 20
0.0
 30
0.0
  0
VERTEX
  5
79E
  8
PROFILEEDGES
 10
-35.35337211196775
 20
-14.88887206659624
 30
0.0
 40
25.4
 41
25.4
  0
VERTEX
  5
79F
  8
PROFILEEDGES
 10
-35.06988636729569
 20
-14.73734577918625
 30
0.0
 40
25.4
 41
25.4
  0
SEQEND
  5
D49
  8
PROFILEEDGES
  0
POLYLINE
  5
221
  8
PROFILEEDGES
 66
     1
 10
0.0
 20
0.0
 30
0.0
  0
VERTEX
  5
7A0
  8
PROFILEEDGES
 10
-35.06988636729569
 20
-14.73734577918625
 30
0.0
 40
25.4
 41
25.4
  0
VERTEX
  5
7A1
  8
PROFILEEDGES
 10
-34.79691788072194
 20
-14.56760306639532
 30
0.0
 40
25.4
 41
25.4
  0
SEQEND
  5
D4A
  8
PROFILEEDGES
  0
POLYLINE
  5
222
  8
PROFILEEDGES
 66
     1
 10
0.0
 20
0.0
 30
0.0
  0
VERTEX
  5
7A2
  8
PROFILEEDGES
 10
-32.93302785603268
 20
10.34606255723759
 30
0.0
 40
25.4
 41
25.4
  0
VERTEX
  5
7A3
  8
PROFILEEDGES
 10
-33.04657871730387
 20
10.62019858653759
 30
0.0
 40
25.4
 41
25.4
  0
SEQEND
  5
D4B
  8
PROFILEEDGES
  0
POLYLINE
  5
223
  8
PROFILEEDGES
 66
     1
 10
0.0
 20
0.0
 30
0.0
  0
VERTEX
  5
7A4
  8
PROFILEEDGES
 10
-32.65584286317134
 20
-11.1244743595884
 30
0.0
 40
25.4
 41
25.4
  0
VERTEX
  5
7A5
  8
PROFILEEDGES
 10
-32.62433612539313
 20
-10.80458108256847
 30
0.0
 40
25.4
 41
25.4
  0
SEQEND
  5
D4C
  8
PROFILEEDGES
  0
POLYLINE
  5
224
  8
PROFILEEDGES
 66
     1
 10
0.0
 20
0.0
 30
0.0
  0
VERTEX
  5
7A6
  8
PROFILEEDGES
 10
-37.52595386729514
 20
-15.39544708237215
 30
0.0
 40
25.4
 41
25.4
  0
VERTEX
  5
7A7
  8
PROFILEEDGES
 10
-37.20468486709574
 20
-15.38492982427023
 30
0.0
 40
25.4
 41
25.4
  0
SEQEND
  5
D4D
  8
PROFILEEDGES
  0
POLYLINE
  5
225
  8
PROFILEEDGES
 66
     1
 10
0.0
 20
0.0
 30
0.0
  0
VERTEX
  5
7A8
  8
PROFILEEDGES
 10
-35.9469998193984
 20
-15.13476071401501
 30
0.0
 40
25.4
 41
25.4
  0
VERTEX
  5
7A9
  8
PROFILEEDGES
 10
-35.64616118525493
 20
-15.02153306979991
 30
0.0
 40
25.4
 41
25.4
  0
SEQEND
  5
D4E
  8
PROFILEEDGES
  0
POLYLINE
  5
226
  8
PROFILEEDGES
 66
     1
 10
0.0
 20
0.0
 30
0.0
  0
VERTEX
  5
7AA
  8
PROFILEEDGES
 10
-36.88479159007513
 20
-15.35342308649203
 30
0.0
 40
25.4
 41
25.4
  0
VERTEX
  5
7AB
  8
PROFILEEDGES
 10
-36.56764386836009
 20
-15.3010617857211
 30
0.0
 40
25.4
 41
25.4
  0
SEQEND
  5
D4F
  8
PROFILEEDGES
  0
POLYLINE
  5
227
  8
PROFILEEDGES
 66
     1
 10
0.0
 20
0.0
 30
0.0
  0
VERTEX
  5
7AC
  8
PROFILEEDGES
 10
-37.52595386729516
 20
-19.32515508237213
 30
0.0
 40
25.4
 41
25.4
  0
VERTEX
  5
7AD
  8
PROFILEEDGES
 10
-42.82379950190397
 20
-19.32515508236755
 30
0.0
 40
25.4
 41
25.4
  0
SEQEND
  5
D50
  8
PROFILEEDGES
  0
POLYLINE
  5
228
  8
PROFILEEDGES
 66
     1
 10
0.0
 20
0.0
 30
0.0
  0
VERTEX
  5
7AE
  8
PROFILEEDGES
 10
-36.25459977718058
 20
-15.22807014108604
 30
0.0
 40
25.4
 41
25.4
  0
VERTEX
  5
7AF
  8
PROFILEEDGES
 10
-35.9469998193984
 20
-15.13476071401501
 30
0.0
 40
25.4
 41
25.4
  0
SEQEND
  5
D51
  8
PROFILEEDGES
  0
POLYLINE
  5
229
  8
PROFILEEDGES
 66
     1
 10
0.0
 20
0.0
 30
0.0
  0
VERTEX
  5
7B0
  8
PROFILEEDGES
 10
-38.85593302614536
 20
25.07213934989052
 30
0.0
 40
25.4
 41
25.4
  0
VERTEX
  5
7B1
  8
PROFILEEDGES
 10
-38.92409226880955
 20
24.89998875395101
 30
0.0
 40
25.4
 41
25.4
  0
SEQEND
  5
D52
  8
PROFILEEDGES
  0
POLYLINE
  5
22A
  8
PROFILEEDGES
 66
     1
 10
0.0
 20
0.0
 30
0.0
  0
VERTEX
  5
7B2
  8
PROFILEEDGES
 10
-38.85593302614536
 20
22.73112648537456
 30
0.0
 40
25.4
 41
25.4
  0
VERTEX
  5
7B3
  8
PROFILEEDGES
 10
-38.77709885482084
 20
22.56359534356962
 30
0.0
 40
25.4
 41
25.4
  0
SEQEND
  5
D53
  8
PROFILEEDGES
  0
POLYLINE
  5
22B
  8
PROFILEEDGES
 66
     1
 10
0.0
 20
0.0
 30
0.0
  0
VERTEX
  5
7B4
  8
PROFILEEDGES
 10
-38.36184035861607
 20
25.8507048133755
 30
0.0
 40
25.4
 41
25.4
  0
VERTEX
  5
7B5
  8
PROFILEEDGES
 10
-38.47986111023184
 20
25.70804223162995
 30
0.0
 40
25.4
 41
25.4
  0
SEQEND
  5
D54
  8
PROFILEEDGES
  0
POLYLINE
  5
22C
  8
PROFILEEDGES
 66
     1
 10
0.0
 20
0.0
 30
0.0
  0
VERTEX
  5
7B6
  8
PROFILEEDGES
 10
-33.27192017047777
 20
-12.93937958236755
 30
0.0
 40
25.4
 41
25.4
  0
VERTEX
  5
7B7
  8
PROFILEEDGES
 10
-33.1203938830667
 20
-12.65589383769647
 30
0.0
 40
25.4
 41
25.4
  0
SEQEND
  5
D55
  8
PROFILEEDGES
  0
POLYLINE
  5
22D
  8
PROFILEEDGES
 66
     1
 10
0.0
 20
0.0
 30
0.0
  0
VERTEX
  5
7B8
  8
PROFILEEDGES
 10
-33.48334601520389
 20
11.39460620510917
 30
0.0
 40
25.4
 41
25.4
  0
VERTEX
  5
7B9
  8
PROFILEEDGES
 10
-33.65920234077202
 20
11.63360183982412
 30
0.0
 40
25.4
 41
25.4
  0
SEQEND
  5
D56
  8
PROFILEEDGES
  0
POLYLINE
  5
22E
  8
PROFILEEDGES
 66
     1
 10
0.0
 20
0.0
 30
0.0
  0
VERTEX
  5
7BA
  8
PROFILEEDGES
 10
-38.92409226880955
 20
24.89998875395101
 30
0.0
 40
25.4
 41
25.4
  0
VERTEX
  5
7BB
  8
PROFILEEDGES
 10
-38.98130758941891
 20
24.72389810363095
 30
0.0
 40
25.4
 41
25.4
  0
SEQEND
  5
D57
  8
PROFILEEDGES
  0
POLYLINE
  5
22F
  8
PROFILEEDGES
 66
     1
 10
0.0
 20
0.0
 30
0.0
  0
VERTEX
  5
7BC
  8
PROFILEEDGES
 10
-32.6942800956848
 20
9.489632560596892
 30
0.0
 40
25.4
 41
25.4
  0
VERTEX
  5
7BD
  8
PROFILEEDGES
 10
-32.75655658295352
 20
9.779746331020084
 30
0.0
 40
25.4
 41
25.4
  0
SEQEND
  5
D58
  8
PROFILEEDGES
  0
POLYLINE
  5
230
  8
PROFILEEDGES
 66
     1
 10
0.0
 20
0.0
 30
0.0
  0
VERTEX
  5
7BE
  8
PROFILEEDGES
 10
-35.64616118525493
 20
-15.02153306979991
 30
0.0
 40
25.4
 41
25.4
  0
VERTEX
  5
7BF
  8
PROFILEEDGES
 10
-35.35337211196775
 20
-14.88887206659624
 30
0.0
 40
25.4
 41
25.4
  0
SEQEND
  5
D59
  8
PROFILEEDGES
  0
POLYLINE
  5
231
  8
PROFILEEDGES
 66
     1
 10
0.0
 20
0.0
 30
0.0
  0
VERTEX
  5
7C0
  8
PROFILEEDGES
 10
-34.28715821183992
 20
-14.1764507150783
 30
0.0
 40
25.4
 41
25.4
  0
VERTEX
  5
7C1
  8
PROFILEEDGES
 10
-34.05254989869237
 20
-13.95671605097134
 30
0.0
 40
25.4
 41
25.4
  0
SEQEND
  5
D5A
  8
PROFILEEDGES
  0
POLYLINE
  5
232
  8
PROFILEEDGES
 66
     1
 10
0.0
 20
0.0
 30
0.0
  0
VERTEX
  5
7C2
  8
PROFILEEDGES
 10
-32.64963386202814
 20
9.196287926290877
 30
0.0
 40
25.4
 41
25.4
  0
VERTEX
  5
7C3
  8
PROFILEEDGES
 10
-32.6942800956848
 20
9.489632560596892
 30
0.0
 40
25.4
 41
25.4
  0
SEQEND
  5
D5B
  8
PROFILEEDGES
  0
POLYLINE
  5
233
  8
PROFILEEDGES
 66
     1
 10
0.0
 20
0.0
 30
0.0
  0
VERTEX
  5
7C4
  8
PROFILEEDGES
 10
-33.83281523458401
 20
-13.72210773782414
 30
0.0
 40
25.4
 41
25.4
  0
VERTEX
  5
7C5
  8
PROFILEEDGES
 10
-33.62889515708509
 20
-13.4736304044513
 30
0.0
 40
25.4
 41
25.4
  0
SEQEND
  5
D5C
  8
PROFILEEDGES
  0
POLYLINE
  5
234
  8
PROFILEEDGES
 66
     1
 10
0.0
 20
0.0
 30
0.0
  0
VERTEX
  5
7C6
  8
PROFILEEDGES
 10
-33.44166288326752
 20
-13.2123480689413
 30
0.0
 40
25.4
 41
25.4
  0
VERTEX
  5
7C7
  8
PROFILEEDGES
 10
-33.27192017047777
 20
-12.93937958236755
 30
0.0
 40
25.4
 41
25.4
  0
SEQEND
  5
D5D
  8
PROFILEEDGES
  0
POLYLINE
  5
235
  8
PROFILEEDGES
 66
     1
 10
0.0
 20
0.0
 30
0.0
  0
VERTEX
  5
7C8
  8
PROFILEEDGES
 10
-32.70820416394317
 20
-11.44162208130426
 30
0.0
 40
25.4
 41
25.4
  0
VERTEX
  5
7C9
  8
PROFILEEDGES
 10
-32.65584286317134
 20
-11.1244743595884
 30
0.0
 40
25.4
 41
25.4
  0
SEQEND
  5
D5E
  8
PROFILEEDGES
  0
POLYLINE
  5
236
  8
PROFILEEDGES
 66
     1
 10
0.0
 20
0.0
 30
0.0
  0
VERTEX
  5
7CA
  8
PROFILEEDGES
 10
-39.02735318524895
 20
24.54456234827895
 30
0.0
 40
25.4
 41
25.4
  0
VERTEX
  5
7CB
  8
PROFILEEDGES
 10
-39.06204733536263
 20
24.36268924419074
 30
0.0
 40
25.4
 41
25.4
  0
SEQEND
  5
D5F
  8
PROFILEEDGES
  0
POLYLINE
  5
237
  8
PROFILEEDGES
 66
     1
 10
0.0
 20
0.0
 30
0.0
  0
VERTEX
  5
7CC
  8
PROFILEEDGES
 10
-38.92409226880955
 20
22.90327708131402
 30
0.0
 40
25.4
 41
25.4
  0
VERTEX
  5
7CD
  8
PROFILEEDGES
 10
-38.85593302614536
 20
22.73112648537456
 30
0.0
 40
25.4
 41
25.4
  0
SEQEND
  5
D60
  8
PROFILEEDGES
  0
POLYLINE
  5
238
  8
PROFILEEDGES
 66
     1
 10
0.0
 20
0.0
 30
0.0
  0
VERTEX
  5
7CE
  8
PROFILEEDGES
 10
-34.79691788072194
 20
-14.56760306639532
 30
0.0
 40
25.4
 41
25.4
  0
VERTEX
  5
7CF
  8
PROFILEEDGES
 10
-34.53563554521157
 20
-14.38037079257906
 30
0.0
 40
25.4
 41
25.4
  0
SEQEND
  5
D61
  8
PROFILEEDGES
  0
POLYLINE
  5
239
  8
PROFILEEDGES
 66
     1
 10
0.0
 20
0.0
 30
0.0
  0
VERTEX
  5
7D0
  8
PROFILEEDGES
 10
-32.62278079125078
 20
8.900782810860315
 30
0.0
 40
25.4
 41
25.4
  0
VERTEX
  5
7D1
  8
PROFILEEDGES
 10
-32.64963386202814
 20
9.196287926290877
 30
0.0
 40
25.4
 41
25.4
  0
SEQEND
  5
D62
  8
PROFILEEDGES
  0
POLYLINE
  5
23A
  8
PROFILEEDGES
 66
     1
 10
0.0
 20
0.0
 30
0.0
  0
VERTEX
  5
7D2
  8
PROFILEEDGES
 10
-34.05254989869237
 20
-13.95671605097134
 30
0.0
 40
25.4
 41
25.4
  0
VERTEX
  5
7D3
  8
PROFILEEDGES
 10
-33.83281523458401
 20
-13.72210773782414
 30
0.0
 40
25.4
 41
25.4
  0
SEQEND
  5
D63
  8
PROFILEEDGES
  0
POLYLINE
  5
23B
  8
PROFILEEDGES
 66
     1
 10
0.0
 20
0.0
 30
0.0
  0
VERTEX
  5
7D4
  8
PROFILEEDGES
 10
-33.1203938830667
 20
-12.65589383769647
 30
0.0
 40
25.4
 41
25.4
  0
VERTEX
  5
7D5
  8
PROFILEEDGES
 10
-32.98773287986225
 20
-12.36310476440826
 30
0.0
 40
25.4
 41
25.4
  0
SEQEND
  5
D64
  8
PROFILEEDGES
  0
POLYLINE
  5
23C
  8
PROFILEEDGES
 66
     1
 10
0.0
 20
0.0
 30
0.0
  0
VERTEX
  5
7D6
  8
PROFILEEDGES
 10
-33.62889515708509
 20
-13.4736304044513
 30
0.0
 40
25.4
 41
25.4
  0
VERTEX
  5
7D7
  8
PROFILEEDGES
 10
-33.44166288326752
 20
-13.2123480689413
 30
0.0
 40
25.4
 41
25.4
  0
SEQEND
  5
D65
  8
PROFILEEDGES
  0
POLYLINE
  5
23D
  8
PROFILEEDGES
 66
     1
 10
0.0
 20
0.0
 30
0.0
  0
VERTEX
  5
7D8
  8
PROFILEEDGES
 10
-33.32224072727833
 20
11.1454286642705
 30
0.0
 40
25.4
 41
25.4
  0
VERTEX
  5
7D9
  8
PROFILEEDGES
 10
-33.48334601520389
 20
11.39460620510917
 30
0.0
 40
25.4
 41
25.4
  0
SEQEND
  5
D66
  8
PROFILEEDGES
  0
POLYLINE
  5
23E
  8
PROFILEEDGES
 66
     1
 10
0.0
 20
0.0
 30
0.0
  0
VERTEX
  5
7DA
  8
PROFILEEDGES
 10
-32.6138188672962
 20
8.604195480420314
 30
0.0
 40
25.4
 41
25.4
  0
VERTEX
  5
7DB
  8
PROFILEEDGES
 10
-32.62278079125078
 20
8.900782810860315
 30
0.0
 40
25.4
 41
25.4
  0
SEQEND
  5
D67
  8
PROFILEEDGES
  0
POLYLINE
  5
23F
  8
PROFILEEDGES
 66
     1
 10
0.0
 20
0.0
 30
0.0
  0
VERTEX
  5
7DC
  8
PROFILEEDGES
 10
-33.17647433272376
 20
10.88697843913215
 30
0.0
 40
25.4
 41
25.4
  0
VERTEX
  5
7DD
  8
PROFILEEDGES
 10
-33.32224072727833
 20
11.1454286642705
 30
0.0
 40
25.4
 41
25.4
  0
SEQEND
  5
D68
  8
PROFILEEDGES
  0
POLYLINE
  5
240
  8
PROFILEEDGES
 66
     1
 10
0.0
 20
0.0
 30
0.0
  0
VERTEX
  5
7DE
  8
PROFILEEDGES
 10
-32.62433612539313
 20
-10.80458108256847
 30
0.0
 40
25.4
 41
25.4
  0
VERTEX
  5
7DF
  8
PROFILEEDGES
 10
-32.61381886729624
 20
-10.48331208236756
 30
0.0
 40
25.4
 41
25.4
  0
SEQEND
  5
D69
  8
PROFILEEDGES
  0
POLYLINE
  5
241
  8
PROFILEEDGES
 66
     1
 10
0.0
 20
0.0
 30
0.0
  0
VERTEX
  5
7E0
  8
PROFILEEDGES
 10
-32.62433612539302
 20
38.87780135463919
 30
0.0
 40
25.4
 41
25.4
  0
VERTEX
  5
7E1
  8
PROFILEEDGES
 10
-32.61381886729613
 20
39.1990703548401
 30
0.0
 40
25.4
 41
25.4
  0
SEQEND
  5
D6A
  8
PROFILEEDGES
  0
POLYLINE
  5
242
  8
PROFILEEDGES
 66
     1
 10
0.0
 20
0.0
 30
0.0
  0
VERTEX
  5
7E2
  8
PROFILEEDGES
 10
-33.65920234077202
 20
11.63360183982412
 30
0.0
 40
25.4
 41
25.4
  0
VERTEX
  5
7E3
  8
PROFILEEDGES
 10
-33.8491680233287
 20
11.86154349926257
 30
0.0
 40
25.4
 41
25.4
  0
SEQEND
  5
D6B
  8
PROFILEEDGES
  0
POLYLINE
  5
243
  8
PROFILEEDGES
 66
     1
 10
0.0
 20
0.0
 30
0.0
  0
VERTEX
  5
7E4
  8
PROFILEEDGES
 10
-33.12039388306659
 20
37.02648859951122
 30
0.0
 40
25.4
 41
25.4
  0
VERTEX
  5
7E5
  8
PROFILEEDGES
 10
-32.98773287986214
 20
37.31927767279939
 30
0.0
 40
25.4
 41
25.4
  0
SEQEND
  5
D6C
  8
PROFILEEDGES
  0
POLYLINE
  5
244
  8
PROFILEEDGES
 66
     1
 10
0.0
 20
0.0
 30
0.0
  0
VERTEX
  5
7E6
  8
PROFILEEDGES
 10
-32.75655658295352
 20
9.779746331020084
 30
0.0
 40
25.4
 41
25.4
  0
VERTEX
  5
7E7
  8
PROFILEEDGES
 10
-32.83623608368751
 20
10.06557064387396
 30
0.0
 40
25.4
 41
25.4
  0
SEQEND
  5
D6D
  8
PROFILEEDGES
  0
POLYLINE
  5
245
  8
PROFILEEDGES
 66
     1
 10
0.0
 20
0.0
 30
0.0
  0
VERTEX
  5
7E8
  8
PROFILEEDGES
 10
-32.87450523564897
 20
-12.0622661302645
 30
0.0
 40
25.4
 41
25.4
  0
VERTEX
  5
7E9
  8
PROFILEEDGES
 10
-32.78119580857779
 20
-11.75466617248222
 30
0.0
 40
25.4
 41
25.4
  0
SEQEND
  5
D6E
  8
PROFILEEDGES
  0
POLYLINE
  5
246
  8
PROFILEEDGES
 66
     1
 10
0.0
 20
0.0
 30
0.0
  0
VERTEX
  5
7EA
  8
PROFILEEDGES
 10
-32.83623608368751
 20
10.06557064387396
 30
0.0
 40
25.4
 41
25.4
  0
VERTEX
  5
7EB
  8
PROFILEEDGES
 10
-32.93302785603268
 20
10.34606255723759
 30
0.0
 40
25.4
 41
25.4
  0
SEQEND
  5
D6F
  8
PROFILEEDGES
  0
POLYLINE
  5
247
  8
PROFILEEDGES
 66
     1
 10
0.0
 20
0.0
 30
0.0
  0
VERTEX
  5
7EC
  8
PROFILEEDGES
 10
-39.02735318524895
 20
23.25870348698605
 30
0.0
 40
25.4
 41
25.4
  0
VERTEX
  5
7ED
  8
PROFILEEDGES
 10
-38.98130758941891
 20
23.07936773163406
 30
0.0
 40
25.4
 41
25.4
  0
SEQEND
  5
D70
  8
PROFILEEDGES
  0
POLYLINE
  5
248
  8
PROFILEEDGES
 66
     1
 10
0.0
 20
0.0
 30
0.0
  0
VERTEX
  5
7EE
  8
PROFILEEDGES
 10
-39.09687894994655
 20
23.80905658420597
 30
0.0
 40
25.4
 41
25.4
  0
VERTEX
  5
7EF
  8
PROFILEEDGES
 10
-39.08525311780305
 20
23.62426927384679
 30
0.0
 40
25.4
 41
25.4
  0
SEQEND
  5
D71
  8
PROFILEEDGES
  0
POLYLINE
  5
249
  8
PROFILEEDGES
 66
     1
 10
0.0
 20
0.0
 30
0.0
  0
VERTEX
  5
7F0
  8
PROFILEEDGES
 10
-34.05254989869226
 20
35.72566638623171
 30
0.0
 40
25.4
 41
25.4
  0
VERTEX
  5
7F1
  8
PROFILEEDGES
 10
-33.8328152345839
 20
35.96027469938351
 30
0.0
 40
25.4
 41
25.4
  0
SEQEND
  5
D72
  8
PROFILEEDGES
  0
POLYLINE
  5
24A
  8
PROFILEEDGES
 66
     1
 10
0.0
 20
0.0
 30
0.0
  0
VERTEX
  5
7F2
  8
PROFILEEDGES
 10
-33.8491680233287
 20
11.86154349926257
 30
0.0
 40
25.4
 41
25.4
  0
VERTEX
  5
7F3
  8
PROFILEEDGES
 10
-34.05254989869459
 20
12.07759944902645
 30
0.0
 40
25.4
 41
25.4
  0
SEQEND
  5
D73
  8
PROFILEEDGES
  0
POLYLINE
  5
24B
  8
PROFILEEDGES
 66
     1
 10
0.0
 20
0.0
 30
0.0
  0
VERTEX
  5
7F4
  8
PROFILEEDGES
 10
-32.70820416394306
 20
38.24076035590345
 30
0.0
 40
25.4
 41
25.4
  0
VERTEX
  5
7F5
  8
PROFILEEDGES
 10
-32.65584286317122
 20
38.55790807761927
 30
0.0
 40
25.4
 41
25.4
  0
SEQEND
  5
D74
  8
PROFILEEDGES
  0
POLYLINE
  5
24C
  8
PROFILEEDGES
 66
     1
 10
0.0
 20
0.0
 30
0.0
  0
VERTEX
  5
7F6
  8
PROFILEEDGES
 10
-34.53563554521157
 20
-14.38037079257906
 30
0.0
 40
25.4
 41
25.4
  0
VERTEX
  5
7F7
  8
PROFILEEDGES
 10
-34.28715821183992
 20
-14.1764507150783
 30
0.0
 40
25.4
 41
25.4
  0
SEQEND
  5
D75
  8
PROFILEEDGES
  0
POLYLINE
  5
24D
  8
PROFILEEDGES
 66
     1
 10
0.0
 20
0.0
 30
0.0
  0
VERTEX
  5
7F8
  8
PROFILEEDGES
 10
-116.6130192997611
 20
25.84491031090663
 30
0.0
 40
25.4
 41
25.4
  0
VERTEX
  5
7F9
  8
PROFILEEDGES
 10
-116.7448600982258
 20
25.98567529879496
 30
0.0
 40
25.4
 41
25.4
  0
SEQEND
  5
D76
  8
PROFILEEDGES
  0
POLYLINE
  5
24E
  8
PROFILEEDGES
 66
     1
 10
0.0
 20
0.0
 30
0.0
  0
VERTEX
  5
7FA
  8
PROFILEEDGES
 10
-37.20468486709574
 20
-15.38492982427023
 30
0.0
 40
25.4
 41
25.4
  0
VERTEX
  5
7FB
  8
PROFILEEDGES
 10
-36.88479159007513
 20
-15.35342308649203
 30
0.0
 40
25.4
 41
25.4
  0
SEQEND
  5
D77
  8
PROFILEEDGES
  0
POLYLINE
  5
24F
  8
PROFILEEDGES
 66
     1
 10
0.0
 20
0.0
 30
0.0
  0
VERTEX
  5
7FC
  8
PROFILEEDGES
 10
-33.27192017047766
 20
36.74300285484009
 30
0.0
 40
25.4
 41
25.4
  0
VERTEX
  5
7FD
  8
PROFILEEDGES
 10
-33.12039388306659
 20
37.02648859951122
 30
0.0
 40
25.4
 41
25.4
  0
SEQEND
  5
D78
  8
PROFILEEDGES
  0
POLYLINE
  5
250
  8
PROFILEEDGES
 66
     1
 10
0.0
 20
0.0
 30
0.0
  0
VERTEX
  5
7FE
  8
PROFILEEDGES
 10
-32.98773287986214
 20
37.31927767279939
 30
0.0
 40
25.4
 41
25.4
  0
VERTEX
  5
7FF
  8
PROFILEEDGES
 10
-32.87450523564884
 20
37.62011630694317
 30
0.0
 40
25.4
 41
25.4
  0
SEQEND
  5
D79
  8
PROFILEEDGES
  0
POLYLINE
  5
251
  8
PROFILEEDGES
 66
     1
 10
0.0
 20
0.0
 30
0.0
  0
VERTEX
  5
800
  8
PROFILEEDGES
 10
-32.78119580857768
 20
37.92771626472543
 30
0.0
 40
25.4
 41
25.4
  0
VERTEX
  5
801
  8
PROFILEEDGES
 10
-32.70820416394306
 20
38.24076035590345
 30
0.0
 40
25.4
 41
25.4
  0
SEQEND
  5
D7A
  8
PROFILEEDGES
  0
POLYLINE
  5
252
  8
PROFILEEDGES
 66
     1
 10
0.0
 20
0.0
 30
0.0
  0
VERTEX
  5
802
  8
PROFILEEDGES
 10
-116.7448600982258
 20
25.98567529879496
 30
0.0
 40
25.4
 41
25.4
  0
VERTEX
  5
803
  8
PROFILEEDGES
 10
-123.7061280107834
 20
32.94694321134892
 30
0.0
 40
25.4
 41
25.4
  0
SEQEND
  5
D7B
  8
PROFILEEDGES
  0
POLYLINE
  5
253
  8
PROFILEEDGES
 66
     1
 10
0.0
 20
0.0
 30
0.0
  0
VERTEX
  5
804
  8
PROFILEEDGES
 10
-36.56764386836009
 20
-15.3010617857211
 30
0.0
 40
25.4
 41
25.4
  0
VERTEX
  5
805
  8
PROFILEEDGES
 10
-36.25459977718058
 20
-15.22807014108604
 30
0.0
 40
25.4
 41
25.4
  0
SEQEND
  5
D7C
  8
PROFILEEDGES
  0
POLYLINE
  5
254
  8
PROFILEEDGES
 66
     1
 10
0.0
 20
0.0
 30
0.0
  0
VERTEX
  5
806
  8
PROFILEEDGES
 10
-32.61381886729593
 20
128.0388949176281
 30
0.0
 40
25.4
 41
25.4
  0
VERTEX
  5
807
  8
PROFILEEDGES
 10
-28.68411086729539
 20
128.0388949176327
 30
0.0
 40
25.4
 41
25.4
  0
SEQEND
  5
D7D
  8
PROFILEEDGES
  0
POLYLINE
  5
255
  8
PROFILEEDGES
 66
     1
 10
0.0
 20
0.0
 30
0.0
  0
VERTEX
  5
808
  8
PROFILEEDGES
 10
-116.3783278889709
 20
25.53905450957696
 30
0.0
 40
25.4
 41
25.4
  0
VERTEX
  5
809
  8
PROFILEEDGES
 10
-116.4906672532597
 20
25.69582391088293
 30
0.0
 40
25.4
 41
25.4
  0
SEQEND
  5
D7E
  8
PROFILEEDGES
  0
POLYLINE
  5
256
  8
PROFILEEDGES
 66
     1
 10
0.0
 20
0.0
 30
0.0
  0
VERTEX
  5
80A
  8
PROFILEEDGES
 10
-116.4906672532597
 20
25.69582391088293
 30
0.0
 40
25.4
 41
25.4
  0
VERTEX
  5
80B
  8
PROFILEEDGES
 10
-116.6130192997611
 20
25.84491031090663
 30
0.0
 40
25.4
 41
25.4
  0
SEQEND
  5
D7F
  8
PROFILEEDGES
  0
POLYLINE
  5
257
  8
PROFILEEDGES
 66
     1
 10
0.0
 20
0.0
 30
0.0
  0
VERTEX
  5
80C
  8
PROFILEEDGES
 10
-126.2958438672959
 20
128.0388949176329
 30
0.0
 40
25.4
 41
25.4
  0
VERTEX
  5
80D
  8
PROFILEEDGES
 10
-122.3661358672968
 20
128.0388949176329
 30
0.0
 40
25.4
 41
25.4
  0
SEQEND
  5
D80
  8
PROFILEEDGES
  0
POLYLINE
  5
258
  8
PROFILEEDGES
 66
     1
 10
0.0
 20
0.0
 30
0.0
  0
VERTEX
  5
80E
  8
PROFILEEDGES
 10
-32.87450523564884
 20
37.62011630694317
 30
0.0
 40
25.4
 41
25.4
  0
VERTEX
  5
80F
  8
PROFILEEDGES
 10
-32.78119580857768
 20
37.92771626472543
 30
0.0
 40
25.4
 41
25.4
  0
SEQEND
  5
D81
  8
PROFILEEDGES
  0
POLYLINE
  5
259
  8
PROFILEEDGES
 66
     1
 10
0.0
 20
0.0
 30
0.0
  0
VERTEX
  5
810
  8
PROFILEEDGES
 10
-116.0380333003998
 20
24.84900534637086
 30
0.0
 40
25.4
 41
25.4
  0
VERTEX
  5
811
  8
PROFILEEDGES
 10
-116.105969886928
 20
25.0295085268571
 30
0.0
 40
25.4
 41
25.4
  0
SEQEND
  5
D82
  8
PROFILEEDGES
  0
POLYLINE
  5
25A
  8
PROFILEEDGES
 66
     1
 10
0.0
 20
0.0
 30
0.0
  0
VERTEX
  5
812
  8
PROFILEEDGES
 10
-116.1855664888507
 20
22.59808386443538
 30
0.0
 40
25.4
 41
25.4
  0
VERTEX
  5
813
  8
PROFILEEDGES
 10
-116.105969886928
 20
22.77375730840832
 30
0.0
 40
25.4
 41
25.4
  0
SEQEND
  5
D83
  8
PROFILEEDGES
  0
POLYLINE
  5
25B
  8
PROFILEEDGES
 66
     1
 10
0.0
 20
0.0
 30
0.0
  0
VERTEX
  5
814
  8
PROFILEEDGES
 10
-115.938252657376
 20
23.32664691827071
 30
0.0
 40
25.4
 41
25.4
  0
VERTEX
  5
815
  8
PROFILEEDGES
 10
-115.9068358769127
 20
23.5169355513002
 30
0.0
 40
25.4
 41
25.4
  0
SEQEND
  5
D84
  8
PROFILEEDGES
  0
POLYLINE
  5
25C
  8
PROFILEEDGES
 66
     1
 10
0.0
 20
0.0
 30
0.0
  0
VERTEX
  5
816
  8
PROFILEEDGES
 10
-115.938252657376
 20
24.47661891699471
 30
0.0
 40
25.4
 41
25.4
  0
VERTEX
  5
817
  8
PROFILEEDGES
 10
-115.9820476441568
 20
24.66444537170151
 30
0.0
 40
25.4
 41
25.4
  0
SEQEND
  5
D85
  8
PROFILEEDGES
  0
POLYLINE
  5
25D
  8
PROFILEEDGES
 66
     1
 10
0.0
 20
0.0
 30
0.0
  0
VERTEX
  5
818
  8
PROFILEEDGES
 10
-115.9068358769127
 20
24.28633028396521
 30
0.0
 40
25.4
 41
25.4
  0
VERTEX
  5
819
  8
PROFILEEDGES
 10
-115.938252657376
 20
24.47661891699471
 30
0.0
 40
25.4
 41
25.4
  0
SEQEND
  5
D86
  8
PROFILEEDGES
  0
POLYLINE
  5
25E
  8
PROFILEEDGES
 66
     1
 10
0.0
 20
0.0
 30
0.0
  0
VERTEX
  5
81A
  8
PROFILEEDGES
 10
-116.4906672532598
 20
22.10744192438248
 30
0.0
 40
25.4
 41
25.4
  0
VERTEX
  5
81B
  8
PROFILEEDGES
 10
-116.3783278889709
 20
22.26421132568845
 30
0.0
 40
25.4
 41
25.4
  0
SEQEND
  5
D87
  8
PROFILEEDGES
  0
POLYLINE
  5
25F
  8
PROFILEEDGES
 66
     1
 10
0.0
 20
0.0
 30
0.0
  0
VERTEX
  5
81C
  8
PROFILEEDGES
 10
-33.8328152345839
 20
35.96027469938351
 30
0.0
 40
25.4
 41
25.4
  0
VERTEX
  5
81D
  8
PROFILEEDGES
 10
-33.62889515708498
 20
36.20875203275639
 30
0.0
 40
25.4
 41
25.4
  0
SEQEND
  5
D88
  8
PROFILEEDGES
  0
POLYLINE
  5
260
  8
PROFILEEDGES
 66
     1
 10
0.0
 20
0.0
 30
0.0
  0
VERTEX
  5
81E
  8
PROFILEEDGES
 10
-116.105969886928
 20
22.77375730840832
 30
0.0
 40
25.4
 41
25.4
  0
VERTEX
  5
81F
  8
PROFILEEDGES
 10
-116.0380333003998
 20
22.95426048889454
 30
0.0
 40
25.4
 41
25.4
  0
SEQEND
  5
D89
  8
PROFILEEDGES
  0
POLYLINE
  5
261
  8
PROFILEEDGES
 66
     1
 10
0.0
 20
0.0
 30
0.0
  0
VERTEX
  5
820
  8
PROFILEEDGES
 10
-32.65584286317122
 20
38.55790807761927
 30
0.0
 40
25.4
 41
25.4
  0
VERTEX
  5
821
  8
PROFILEEDGES
 10
-32.62433612539302
 20
38.87780135463919
 30
0.0
 40
25.4
 41
25.4
  0
SEQEND
  5
D8A
  8
PROFILEEDGES
  0
POLYLINE
  5
262
  8
PROFILEEDGES
 66
     1
 10
0.0
 20
0.0
 30
0.0
  0
VERTEX
  5
822
  8
PROFILEEDGES
 10
-116.1855664888507
 20
25.20518197083003
 30
0.0
 40
25.4
 41
25.4
  0
VERTEX
  5
823
  8
PROFILEEDGES
 10
-116.2764822612959
 20
25.37527341763271
 30
0.0
 40
25.4
 41
25.4
  0
SEQEND
  5
D8B
  8
PROFILEEDGES
  0
POLYLINE
  5
263
  8
PROFILEEDGES
 66
     1
 10
0.0
 20
0.0
 30
0.0
  0
VERTEX
  5
824
  8
PROFILEEDGES
 10
-115.9820476441568
 20
24.66444537170151
 30
0.0
 40
25.4
 41
25.4
  0
VERTEX
  5
825
  8
PROFILEEDGES
 10
-116.0380333003998
 20
24.84900534637086
 30
0.0
 40
25.4
 41
25.4
  0
SEQEND
  5
D8C
  8
PROFILEEDGES
  0
POLYLINE
  5
264
  8
PROFILEEDGES
 66
     1
 10
0.0
 20
0.0
 30
0.0
  0
VERTEX
  5
826
  8
PROFILEEDGES
 10
-123.7061280107834
 20
14.85632262390736
 30
0.0
 40
25.4
 41
25.4
  0
VERTEX
  5
827
  8
PROFILEEDGES
 10
-116.7448600982258
 20
21.81759053647045
 30
0.0
 40
25.4
 41
25.4
  0
SEQEND
  5
D8D
  8
PROFILEEDGES
  0
POLYLINE
  5
265
  8
PROFILEEDGES
 66
     1
 10
0.0
 20
0.0
 30
0.0
  0
VERTEX
  5
828
  8
PROFILEEDGES
 10
-116.3783278889709
 20
22.26421132568845
 30
0.0
 40
25.4
 41
25.4
  0
VERTEX
  5
829
  8
PROFILEEDGES
 10
-116.2764822612959
 20
22.42799241763269
 30
0.0
 40
25.4
 41
25.4
  0
SEQEND
  5
D8E
  8
PROFILEEDGES
  0
POLYLINE
  5
266
  8
PROFILEEDGES
 66
     1
 10
0.0
 20
0.0
 30
0.0
  0
VERTEX
  5
82A
  8
PROFILEEDGES
 10
-115.8879318342457
 20
24.09439431775326
 30
0.0
 40
25.4
 41
25.4
  0
VERTEX
  5
82B
  8
PROFILEEDGES
 10
-115.9068358769127
 20
24.28633028396521
 30
0.0
 40
25.4
 41
25.4
  0
SEQEND
  5
D8F
  8
PROFILEEDGES
  0
POLYLINE
  5
267
  8
PROFILEEDGES
 66
     1
 10
0.0
 20
0.0
 30
0.0
  0
VERTEX
  5
82C
  8
PROFILEEDGES
 10
-33.62889515708498
 20
36.20875203275639
 30
0.0
 40
25.4
 41
25.4
  0
VERTEX
  5
82D
  8
PROFILEEDGES
 10
-33.4416628832674
 20
36.47003436826633
 30
0.0
 40
25.4
 41
25.4
  0
SEQEND
  5
D90
  8
PROFILEEDGES
  0
POLYLINE
  5
268
  8
PROFILEEDGES
 66
     1
 10
0.0
 20
0.0
 30
0.0
  0
VERTEX
  5
82E
  8
PROFILEEDGES
 10
-115.9068358769127
 20
23.5169355513002
 30
0.0
 40
25.4
 41
25.4
  0
VERTEX
  5
82F
  8
PROFILEEDGES
 10
-115.8879318342457
 20
23.70887151751215
 30
0.0
 40
25.4
 41
25.4
  0
SEQEND
  5
D91
  8
PROFILEEDGES
  0
POLYLINE
  5
269
  8
PROFILEEDGES
 66
     1
 10
0.0
 20
0.0
 30
0.0
  0
VERTEX
  5
830
  8
PROFILEEDGES
 10
-116.0380333003998
 20
22.95426048889454
 30
0.0
 40
25.4
 41
25.4
  0
VERTEX
  5
831
  8
PROFILEEDGES
 10
-115.9820476441568
 20
23.13882046356394
 30
0.0
 40
25.4
 41
25.4
  0
SEQEND
  5
D92
  8
PROFILEEDGES
  0
POLYLINE
  5
26A
  8
PROFILEEDGES
 66
     1
 10
0.0
 20
0.0
 30
0.0
  0
VERTEX
  5
832
  8
PROFILEEDGES
 10
-116.7448600982258
 20
21.81759053647045
 30
0.0
 40
25.4
 41
25.4
  0
VERTEX
  5
833
  8
PROFILEEDGES
 10
-116.6130192997611
 20
21.95835552435878
 30
0.0
 40
25.4
 41
25.4
  0
SEQEND
  5
D93
  8
PROFILEEDGES
  0
POLYLINE
  5
26B
  8
PROFILEEDGES
 66
     1
 10
0.0
 20
0.0
 30
0.0
  0
VERTEX
  5
834
  8
PROFILEEDGES
 10
-116.105969886928
 20
25.0295085268571
 30
0.0
 40
25.4
 41
25.4
  0
VERTEX
  5
835
  8
PROFILEEDGES
 10
-116.1855664888507
 20
25.20518197083003
 30
0.0
 40
25.4
 41
25.4
  0
SEQEND
  5
D94
  8
PROFILEEDGES
  0
POLYLINE
  5
26C
  8
PROFILEEDGES
 66
     1
 10
0.0
 20
0.0
 30
0.0
  0
VERTEX
  5
836
  8
PROFILEEDGES
 10
-116.2764822612959
 20
25.37527341763271
 30
0.0
 40
25.4
 41
25.4
  0
VERTEX
  5
837
  8
PROFILEEDGES
 10
-116.3783278889709
 20
25.53905450957696
 30
0.0
 40
25.4
 41
25.4
  0
SEQEND
  5
D95
  8
PROFILEEDGES
  0
POLYLINE
  5
26D
  8
PROFILEEDGES
 66
     1
 10
0.0
 20
0.0
 30
0.0
  0
VERTEX
  5
838
  8
PROFILEEDGES
 10
-33.4416628832674
 20
36.47003436826633
 30
0.0
 40
25.4
 41
25.4
  0
VERTEX
  5
839
  8
PROFILEEDGES
 10
-33.27192017047766
 20
36.74300285484009
 30
0.0
 40
25.4
 41
25.4
  0
SEQEND
  5
D96
  8
PROFILEEDGES
  0
POLYLINE
  5
26E
  8
PROFILEEDGES
 66
     1
 10
0.0
 20
0.0
 30
0.0
  0
VERTEX
  5
83A
  8
PROFILEEDGES
 10
-115.8879318342457
 20
23.70887151751215
 30
0.0
 40
25.4
 41
25.4
  0
VERTEX
  5
83B
  8
PROFILEEDGES
 10
-115.8816214793873
 20
23.90163291763273
 30
0.0
 40
25.4
 41
25.4
  0
SEQEND
  5
D97
  8
PROFILEEDGES
  0
POLYLINE
  5
26F
  8
PROFILEEDGES
 66
     1
 10
0.0
 20
0.0
 30
0.0
  0
VERTEX
  5
83C
  8
PROFILEEDGES
 10
-116.2764822612959
 20
22.42799241763269
 30
0.0
 40
25.4
 41
25.4
  0
VERTEX
  5
83D
  8
PROFILEEDGES
 10
-116.1855664888507
 20
22.59808386443538
 30
0.0
 40
25.4
 41
25.4
  0
SEQEND
  5
D98
  8
PROFILEEDGES
  0
POLYLINE
  5
270
  8
PROFILEEDGES
 66
     1
 10
0.0
 20
0.0
 30
0.0
  0
VERTEX
  5
83E
  8
PROFILEEDGES
 10
-116.6130192997611
 20
21.95835552435878
 30
0.0
 40
25.4
 41
25.4
  0
VERTEX
  5
83F
  8
PROFILEEDGES
 10
-116.4906672532598
 20
22.10744192438248
 30
0.0
 40
25.4
 41
25.4
  0
SEQEND
  5
D99
  8
PROFILEEDGES
  0
POLYLINE
  5
271
  8
PROFILEEDGES
 66
     1
 10
0.0
 20
0.0
 30
0.0
  0
VERTEX
  5
840
  8
PROFILEEDGES
 10
-115.9820476441568
 20
23.13882046356394
 30
0.0
 40
25.4
 41
25.4
  0
VERTEX
  5
841
  8
PROFILEEDGES
 10
-115.938252657376
 20
23.32664691827071
 30
0.0
 40
25.4
 41
25.4
  0
SEQEND
  5
D9A
  8
PROFILEEDGES
  0
POLYLINE
  5
272
  8
PROFILEEDGES
 66
     1
 10
0.0
 20
0.0
 30
0.0
  0
VERTEX
  5
842
  8
PROFILEEDGES
 10
-115.8816214793873
 20
23.90163291763273
 30
0.0
 40
25.4
 41
25.4
  0
VERTEX
  5
843
  8
PROFILEEDGES
 10
-115.8879318342457
 20
24.09439431775326
 30
0.0
 40
25.4
 41
25.4
  0
SEQEND
  5
D9B
  8
PROFILEEDGES
  0
POLYLINE
  5
273
  8
PROFILEEDGES
 66
     1
 10
0.0
 20
0.0
 30
0.0
  0
VERTEX
  5
844
  8
PROFILEEDGES
 10
-126.2958438672962
 20
-10.48331208237191
 30
0.0
 40
25.4
 41
25.4
  0
VERTEX
  5
845
  8
PROFILEEDGES
 10
-126.2958438672962
 20
8.604195480420529
 30
0.0
 40
25.4
 41
25.4
  0
SEQEND
  5
D9C
  8
PROFILEEDGES
  0
POLYLINE
  5
274
  8
PROFILEEDGES
 66
     1
 10
0.0
 20
0.0
 30
0.0
  0
VERTEX
  5
846
  8
PROFILEEDGES
 10
-120.3412813775654
 20
-14.45731277603139
 30
0.0
 40
25.4
 41
25.4
  0
VERTEX
  5
847
  8
PROFILEEDGES
 10
-120.08605442085
 20
-14.63076483670326
 30
0.0
 40
25.4
 41
25.4
  0
SEQEND
  5
D9D
  8
PROFILEEDGES
  0
POLYLINE
  5
275
  8
PROFILEEDGES
 66
     1
 10
0.0
 20
0.0
 30
0.0
  0
VERTEX
  5
848
  8
PROFILEEDGES
 10
-118.0696546305514
 20
-15.35671343070878
 30
0.0
 40
25.4
 41
25.4
  0
VERTEX
  5
849
  8
PROFILEEDGES
 10
-117.7624363759457
 20
-15.38575410601541
 30
0.0
 40
25.4
 41
25.4
  0
SEQEND
  5
D9E
  8
PROFILEEDGES
  0
POLYLINE
  5
276
  8
PROFILEEDGES
 66
     1
 10
0.0
 20
0.0
 30
0.0
  0
VERTEX
  5
84A
  8
PROFILEEDGES
 10
-121.6014536216323
 20
-13.11536563592154
 30
0.0
 40
25.4
 41
25.4
  0
VERTEX
  5
84B
  8
PROFILEEDGES
 10
-121.4280015609611
 20
-13.37059259263708
 30
0.0
 40
25.4
 41
25.4
  0
SEQEND
  5
D9F
  8
PROFILEEDGES
  0
POLYLINE
  5
277
  8
PROFILEEDGES
 66
     1
 10
0.0
 20
0.0
 30
0.0
  0
VERTEX
  5
84C
  8
PROFILEEDGES
 10
-121.898633500662
 20
-12.57479744273939
 30
0.0
 40
25.4
 41
25.4
  0
VERTEX
  5
84D
  8
PROFILEEDGES
 10
-121.7585375810731
 20
-12.84975116630101
 30
0.0
 40
25.4
 41
25.4
  0
SEQEND
  5
DA0
  8
PROFILEEDGES
  0
POLYLINE
  5
278
  8
PROFILEEDGES
 66
     1
 10
0.0
 20
0.0
 30
0.0
  0
VERTEX
  5
84E
  8
PROFILEEDGES
 10
-122.0211884858055
 20
-12.29158958196912
 30
0.0
 40
25.4
 41
25.4
  0
VERTEX
  5
84F
  8
PROFILEEDGES
 10
-121.898633500662
 20
-12.57479744273939
 30
0.0
 40
25.4
 41
25.4
  0
SEQEND
  5
DA1
  8
PROFILEEDGES
  0
POLYLINE
  5
279
  8
PROFILEEDGES
 66
     1
 10
0.0
 20
0.0
 30
0.0
  0
VERTEX
  5
850
  8
PROFILEEDGES
 10
-122.2791284516547
 20
-11.40375439608992
 30
0.0
 40
25.4
 41
25.4
  0
VERTEX
  5
851
  8
PROFILEEDGES
 10
-122.2118121134879
 20
-11.7049103812559
 30
0.0
 40
25.4
 41
25.4
  0
SEQEND
  5
DA2
  8
PROFILEEDGES
  0
POLYLINE
  5
27A
  8
PROFILEEDGES
 66
     1
 10
0.0
 20
0.0
 30
0.0
  0
VERTEX
  5
852
  8
PROFILEEDGES
 10
-122.357173943341
 20
8.900782810860518
 30
0.0
 40
25.4
 41
25.4
  0
VERTEX
  5
853
  8
PROFILEEDGES
 10
-122.366135867297
 20
8.604195480425092
 30
0.0
 40
25.4
 41
25.4
  0
SEQEND
  5
DA3
  8
PROFILEEDGES
  0
POLYLINE
  5
27B
  8
PROFILEEDGES
 66
     1
 10
0.0
 20
0.0
 30
0.0
  0
VERTEX
  5
854
  8
PROFILEEDGES
 10
-117.7624363759457
 20
-15.38575410601541
 30
0.0
 40
25.4
 41
25.4
  0
VERTEX
  5
855
  8
PROFILEEDGES
 10
-117.4540008672954
 20
-15.3954470823674
 30
0.0
 40
25.4
 41
25.4
  0
SEQEND
  5
DA4
  8
PROFILEEDGES
  0
POLYLINE
  5
27C
  8
PROFILEEDGES
 66
     1
 10
0.0
 20
0.0
 30
0.0
  0
VERTEX
  5
856
  8
PROFILEEDGES
 10
-118.9719340609603
 20
-15.1550300830389
 30
0.0
 40
25.4
 41
25.4
  0
VERTEX
  5
857
  8
PROFILEEDGES
 10
-118.6755991661856
 20
-15.241123328558
 30
0.0
 40
25.4
 41
25.4
  0
SEQEND
  5
DA5
  8
PROFILEEDGES
  0
POLYLINE
  5
27D
  8
PROFILEEDGES
 66
     1
 10
0.0
 20
0.0
 30
0.0
  0
VERTEX
  5
858
  8
PROFILEEDGES
 10
-119.2622783668996
 20
-15.0504997008761
 30
0.0
 40
25.4
 41
25.4
  0
VERTEX
  5
859
  8
PROFILEEDGES
 10
-118.9719340609603
 20
-15.1550300830389
 30
0.0
 40
25.4
 41
25.4
  0
SEQEND
  5
DA6
  8
PROFILEEDGES
  0
POLYLINE
  5
27E
  8
PROFILEEDGES
 66
     1
 10
0.0
 20
0.0
 30
0.0
  0
VERTEX
  5
85A
  8
PROFILEEDGES
 10
-120.816588665478
 20
-14.06410439102608
 30
0.0
 40
25.4
 41
25.4
  0
VERTEX
  5
85B
  8
PROFILEEDGES
 10
-120.5851135571813
 20
-14.26817715016985
 30
0.0
 40
25.4
 41
25.4
  0
SEQEND
  5
DA7
  8
PROFILEEDGES
  0
POLYLINE
  5
27F
  8
PROFILEEDGES
 66
     1
 10
0.0
 20
0.0
 30
0.0
  0
VERTEX
  5
85C
  8
PROFILEEDGES
 10
-122.1257188679689
 20
-12.00124527603136
 30
0.0
 40
25.4
 41
25.4
  0
VERTEX
  5
85D
  8
PROFILEEDGES
 10
-122.0211884858055
 20
-12.29158958196912
 30
0.0
 40
25.4
 41
25.4
  0
SEQEND
  5
DA8
  8
PROFILEEDGES
  0
POLYLINE
  5
280
  8
PROFILEEDGES
 66
     1
 10
0.0
 20
0.0
 30
0.0
  0
VERTEX
  5
85E
  8
PROFILEEDGES
 10
-119.5454862276681
 20
-14.92794471573257
 30
0.0
 40
25.4
 41
25.4
  0
VERTEX
  5
85F
  8
PROFILEEDGES
 10
-119.2622783668996
 20
-15.0504997008761
 30
0.0
 40
25.4
 41
25.4
  0
SEQEND
  5
DA9
  8
PROFILEEDGES
  0
POLYLINE
  5
281
  8
PROFILEEDGES
 66
     1
 10
0.0
 20
0.0
 30
0.0
  0
VERTEX
  5
860
  8
PROFILEEDGES
 10
-121.4280015609611
 20
-13.37059259263708
 30
0.0
 40
25.4
 41
25.4
  0
VERTEX
  5
861
  8
PROFILEEDGES
 10
-121.2388659351002
 20
-13.61442477225157
 30
0.0
 40
25.4
 41
25.4
  0
SEQEND
  5
DAA
  8
PROFILEEDGES
  0
POLYLINE
  5
282
  8
PROFILEEDGES
 66
     1
 10
0.0
 20
0.0
 30
0.0
  0
VERTEX
  5
862
  8
PROFILEEDGES
 10
-120.5851135571813
 20
-14.26817715016985
 30
0.0
 40
25.4
 41
25.4
  0
VERTEX
  5
863
  8
PROFILEEDGES
 10
-120.3412813775654
 20
-14.45731277603139
 30
0.0
 40
25.4
 41
25.4
  0
SEQEND
  5
DAB
  8
PROFILEEDGES
  0
POLYLINE
  5
283
  8
PROFILEEDGES
 66
     1
 10
0.0
 20
0.0
 30
0.0
  0
VERTEX
  5
864
  8
PROFILEEDGES
 10
-122.3661358672971
 20
-10.48331208236735
 30
0.0
 40
25.4
 41
25.4
  0
VERTEX
  5
865
  8
PROFILEEDGES
 10
-122.366135867297
 20
8.604195480425092
 30
0.0
 40
25.4
 41
25.4
  0
SEQEND
  5
DAC
  8
PROFILEEDGES
  0
POLYLINE
  5
284
  8
PROFILEEDGES
 66
     1
 10
0.0
 20
0.0
 30
0.0
  0
VERTEX
  5
866
  8
PROFILEEDGES
 10
-122.3303208725651
 20
9.19628792629108
 30
0.0
 40
25.4
 41
25.4
  0
VERTEX
  5
867
  8
PROFILEEDGES
 10
-122.357173943341
 20
8.900782810860518
 30
0.0
 40
25.4
 41
25.4
  0
SEQEND
  5
DAD
  8
PROFILEEDGES
  0
POLYLINE
  5
285
  8
PROFILEEDGES
 66
     1
 10
0.0
 20
0.0
 30
0.0
  0
VERTEX
  5
868
  8
PROFILEEDGES
 10
-122.2856746389084
 20
9.489632560597094
 30
0.0
 40
25.4
 41
25.4
  0
VERTEX
  5
869
  8
PROFILEEDGES
 10
-122.3303208725651
 20
9.19628792629108
 30
0.0
 40
25.4
 41
25.4
  0
SEQEND
  5
DAE
  8
PROFILEEDGES
  0
POLYLINE
  5
286
  8
PROFILEEDGES
 66
     1
 10
0.0
 20
0.0
 30
0.0
  0
VERTEX
  5
86A
  8
PROFILEEDGES
 10
-122.2233981516397
 20
9.779746331020288
 30
0.0
 40
25.4
 41
25.4
  0
VERTEX
  5
86B
  8
PROFILEEDGES
 10
-122.2856746389084
 20
9.489632560597094
 30
0.0
 40
25.4
 41
25.4
  0
SEQEND
  5
DAF
  8
PROFILEEDGES
  0
POLYLINE
  5
287
  8
PROFILEEDGES
 66
     1
 10
0.0
 20
0.0
 30
0.0
  0
VERTEX
  5
86C
  8
PROFILEEDGES
 10
-119.8204399512292
 20
-14.78784879614467
 30
0.0
 40
25.4
 41
25.4
  0
VERTEX
  5
86D
  8
PROFILEEDGES
 10
-119.5454862276681
 20
-14.92794471573257
 30
0.0
 40
25.4
 41
25.4
  0
SEQEND
  5
DB0
  8
PROFILEEDGES
  0
POLYLINE
  5
288
  8
PROFILEEDGES
 66
     1
 10
0.0
 20
0.0
 30
0.0
  0
VERTEX
  5
86E
  8
PROFILEEDGES
 10
-118.3744431810205
 20
-15.30843966672556
 30
0.0
 40
25.4
 41
25.4
  0
VERTEX
  5
86F
  8
PROFILEEDGES
 10
-118.0696546305514
 20
-15.35671343070878
 30
0.0
 40
25.4
 41
25.4
  0
SEQEND
  5
DB1
  8
PROFILEEDGES
  0
POLYLINE
  5
289
  8
PROFILEEDGES
 66
     1
 10
0.0
 20
0.0
 30
0.0
  0
VERTEX
  5
870
  8
PROFILEEDGES
 10
-118.6755991661856
 20
-15.241123328558
 30
0.0
 40
25.4
 41
25.4
  0
VERTEX
  5
871
  8
PROFILEEDGES
 10
-118.3744431810205
 20
-15.30843966672556
 30
0.0
 40
25.4
 41
25.4
  0
SEQEND
  5
DB2
  8
PROFILEEDGES
  0
POLYLINE
  5
28A
  8
PROFILEEDGES
 66
     1
 10
0.0
 20
0.0
 30
0.0
  0
VERTEX
  5
872
  8
PROFILEEDGES
 10
-121.2388659351002
 20
-13.61442477225157
 30
0.0
 40
25.4
 41
25.4
  0
VERTEX
  5
873
  8
PROFILEEDGES
 10
-121.0347931759553
 20
-13.84589988054841
 30
0.0
 40
25.4
 41
25.4
  0
SEQEND
  5
DB3
  8
PROFILEEDGES
  0
POLYLINE
  5
28B
  8
PROFILEEDGES
 66
     1
 10
0.0
 20
0.0
 30
0.0
  0
VERTEX
  5
874
  8
PROFILEEDGES
 10
-122.0469268785591
 20
10.3460625572378
 30
0.0
 40
25.4
 41
25.4
  0
VERTEX
  5
875
  8
PROFILEEDGES
 10
-122.1437186509043
 20
10.06557064387416
 30
0.0
 40
25.4
 41
25.4
  0
SEQEND
  5
DB4
  8
PROFILEEDGES
  0
POLYLINE
  5
28C
  8
PROFILEEDGES
 66
     1
 10
0.0
 20
0.0
 30
0.0
  0
VERTEX
  5
876
  8
PROFILEEDGES
 10
-122.2118121134879
 20
-11.7049103812559
 30
0.0
 40
25.4
 41
25.4
  0
VERTEX
  5
877
  8
PROFILEEDGES
 10
-122.1257188679689
 20
-12.00124527603136
 30
0.0
 40
25.4
 41
25.4
  0
SEQEND
  5
DB5
  8
PROFILEEDGES
  0
POLYLINE
  5
28D
  8
PROFILEEDGES
 66
     1
 10
0.0
 20
0.0
 30
0.0
  0
VERTEX
  5
878
  8
PROFILEEDGES
 10
-122.327402215638
 20
-11.09896584562175
 30
0.0
 40
25.4
 41
25.4
  0
VERTEX
  5
879
  8
PROFILEEDGES
 10
-122.2791284516547
 20
-11.40375439608992
 30
0.0
 40
25.4
 41
25.4
  0
SEQEND
  5
DB6
  8
PROFILEEDGES
  0
POLYLINE
  5
28E
  8
PROFILEEDGES
 66
     1
 10
0.0
 20
0.0
 30
0.0
  0
VERTEX
  5
87A
  8
PROFILEEDGES
 10
-122.3564428909455
 20
-10.79174759101548
 30
0.0
 40
25.4
 41
25.4
  0
VERTEX
  5
87B
  8
PROFILEEDGES
 10
-122.327402215638
 20
-11.09896584562175
 30
0.0
 40
25.4
 41
25.4
  0
SEQEND
  5
DB7
  8
PROFILEEDGES
  0
POLYLINE
  5
28F
  8
PROFILEEDGES
 66
     1
 10
0.0
 20
0.0
 30
0.0
  0
VERTEX
  5
87C
  8
PROFILEEDGES
 10
-120.08605442085
 20
-14.63076483670326
 30
0.0
 40
25.4
 41
25.4
  0
VERTEX
  5
87D
  8
PROFILEEDGES
 10
-119.8204399512292
 20
-14.78784879614467
 30
0.0
 40
25.4
 41
25.4
  0
SEQEND
  5
DB8
  8
PROFILEEDGES
  0
POLYLINE
  5
290
  8
PROFILEEDGES
 66
     1
 10
0.0
 20
0.0
 30
0.0
  0
VERTEX
  5
87E
  8
PROFILEEDGES
 10
-28.68411086729425
 20
8.604195480420303
 30
0.0
 40
25.4
 41
25.4
  0
VERTEX
  5
87F
  8
PROFILEEDGES
 10
-28.68411086729571
 20
-10.48331208237213
 30
0.0
 40
25.4
 41
25.4
  0
SEQEND
  5
DB9
  8
PROFILEEDGES
  0
POLYLINE
  5
291
  8
PROFILEEDGES
 66
     1
 10
0.0
 20
0.0
 30
0.0
  0
VERTEX
  5
880
  8
PROFILEEDGES
 10
-122.1437186509043
 20
10.06557064387416
 30
0.0
 40
25.4
 41
25.4
  0
VERTEX
  5
881
  8
PROFILEEDGES
 10
-122.2233981516397
 20
9.779746331020288
 30
0.0
 40
25.4
 41
25.4
  0
SEQEND
  5
DBA
  8
PROFILEEDGES
  0
POLYLINE
  5
292
  8
PROFILEEDGES
 66
     1
 10
0.0
 20
0.0
 30
0.0
  0
VERTEX
  5
882
  8
PROFILEEDGES
 10
-122.3661358672971
 20
-10.48331208236735
 30
0.0
 40
25.4
 41
25.4
  0
VERTEX
  5
883
  8
PROFILEEDGES
 10
-122.3564428909455
 20
-10.79174759101548
 30
0.0
 40
25.4
 41
25.4
  0
SEQEND
  5
DBB
  8
PROFILEEDGES
  0
POLYLINE
  5
293
  8
PROFILEEDGES
 66
     1
 10
0.0
 20
0.0
 30
0.0
  0
VERTEX
  5
884
  8
PROFILEEDGES
 10
-121.9333760172894
 20
10.62019858653779
 30
0.0
 40
25.4
 41
25.4
  0
VERTEX
  5
885
  8
PROFILEEDGES
 10
-122.0469268785591
 20
10.3460625572378
 30
0.0
 40
25.4
 41
25.4
  0
SEQEND
  5
DBC
  8
PROFILEEDGES
  0
POLYLINE
  5
294
  8
PROFILEEDGES
 66
     1
 10
0.0
 20
0.0
 30
0.0
  0
VERTEX
  5
886
  8
PROFILEEDGES
 10
-121.0347931759553
 20
-13.84589988054841
 30
0.0
 40
25.4
 41
25.4
  0
VERTEX
  5
887
  8
PROFILEEDGES
 10
-120.816588665478
 20
-14.06410439102608
 30
0.0
 40
25.4
 41
25.4
  0
SEQEND
  5
DBD
  8
PROFILEEDGES
  0
POLYLINE
  5
295
  8
PROFILEEDGES
 66
     1
 10
0.0
 20
0.0
 30
0.0
  0
VERTEX
  5
888
  8
PROFILEEDGES
 10
-121.7585375810731
 20
-12.84975116630101
 30
0.0
 40
25.4
 41
25.4
  0
VERTEX
  5
889
  8
PROFILEEDGES
 10
-121.6014536216323
 20
-13.11536563592154
 30
0.0
 40
25.4
 41
25.4
  0
SEQEND
  5
DBE
  8
PROFILEEDGES
  0
POLYLINE
  5
296
  8
PROFILEEDGES
 66
     1
 10
0.0
 20
0.0
 30
0.0
  0
VERTEX
  5
88A
  8
PROFILEEDGES
 10
-112.6611185014671
 20
20.86001846016772
 30
0.0
 40
25.4
 41
25.4
  0
VERTEX
  5
88B
  8
PROFILEEDGES
 10
-112.4753930969809
 20
21.26992316277119
 30
0.0
 40
25.4
 41
25.4
  0
SEQEND
  5
DBF
  8
PROFILEEDGES
  0
POLYLINE
  5
297
  8
PROFILEEDGES
 66
     1
 10
0.0
 20
0.0
 30
0.0
  0
VERTEX
  5
88C
  8
PROFILEEDGES
 10
-112.3168743950811
 20
21.69109725057244
 30
0.0
 40
25.4
 41
25.4
  0
VERTEX
  5
88D
  8
PROFILEEDGES
 10
-112.1862411971818
 20
22.12173719146766
 30
0.0
 40
25.4
 41
25.4
  0
SEQEND
  5
DC0
  8
PROFILEEDGES
  0
POLYLINE
  5
298
  8
PROFILEEDGES
 66
     1
 10
0.0
 20
0.0
 30
0.0
  0
VERTEX
  5
88E
  8
PROFILEEDGES
 10
-112.8732553038412
 20
27.34012741762812
 30
0.0
 40
25.4
 41
25.4
  0
VERTEX
  5
88F
  8
PROFILEEDGES
 10
-113.1108951017485
 20
27.72228329883139
 30
0.0
 40
25.4
 41
25.4
  0
SEQEND
  5
DC1
  8
PROFILEEDGES
  0
POLYLINE
  5
299
  8
PROFILEEDGES
 66
     1
 10
0.0
 20
0.0
 30
0.0
  0
VERTEX
  5
890
  8
PROFILEEDGES
 10
-112.0840528946919
 20
22.5599989191168
 30
0.0
 40
25.4
 41
25.4
  0
VERTEX
  5
891
  8
PROFILEEDGES
 10
-112.010747073613
 20
23.00400572951898
 30
0.0
 40
25.4
 41
25.4
  0
SEQEND
  5
DC2
  8
PROFILEEDGES
  0
POLYLINE
  5
29A
  8
PROFILEEDGES
 66
     1
 10
0.0
 20
0.0
 30
0.0
  0
VERTEX
  5
892
  8
PROFILEEDGES
 10
-113.1108951017485
 20
27.72228329883139
 30
0.0
 40
25.4
 41
25.4
  0
VERTEX
  5
893
  8
PROFILEEDGES
 10
-113.373020285092
 20
28.08807856854539
 30
0.0
 40
25.4
 41
25.4
  0
SEQEND
  5
DC3
  8
PROFILEEDGES
  0
POLYLINE
  5
29B
  8
PROFILEEDGES
 66
     1
 10
0.0
 20
0.0
 30
0.0
  0
VERTEX
  5
894
  8
PROFILEEDGES
 10
-112.3168743950811
 20
26.11216858468387
 30
0.0
 40
25.4
 41
25.4
  0
VERTEX
  5
895
  8
PROFILEEDGES
 10
-112.4753930969809
 20
26.53334267248511
 30
0.0
 40
25.4
 41
25.4
  0
SEQEND
  5
DC4
  8
PROFILEEDGES
  0
POLYLINE
  5
29C
  8
PROFILEEDGES
 66
     1
 10
0.0
 20
0.0
 30
0.0
  0
VERTEX
  5
896
  8
PROFILEEDGES
 10
-112.0840528946919
 20
25.24326691613951
 30
0.0
 40
25.4
 41
25.4
  0
VERTEX
  5
897
  8
PROFILEEDGES
 10
-112.1862411971818
 20
25.6815286437887
 30
0.0
 40
25.4
 41
25.4
  0
SEQEND
  5
DC5
  8
PROFILEEDGES
  0
POLYLINE
  5
29D
  8
PROFILEEDGES
 66
     1
 10
0.0
 20
0.0
 30
0.0
  0
VERTEX
  5
898
  8
PROFILEEDGES
 10
-113.6585083935914
 20
19.36731899998895
 30
0.0
 40
25.4
 41
25.4
  0
VERTEX
  5
899
  8
PROFILEEDGES
 10
-113.373020285092
 20
19.71518726671094
 30
0.0
 40
25.4
 41
25.4
  0
SEQEND
  5
DC6
  8
PROFILEEDGES
  0
POLYLINE
  5
29E
  8
PROFILEEDGES
 66
     1
 10
0.0
 20
0.0
 30
0.0
  0
VERTEX
  5
89A
  8
PROFILEEDGES
 10
-113.9661369233433
 20
19.03886736158288
 30
0.0
 40
25.4
 41
25.4
  0
VERTEX
  5
89B
  8
PROFILEEDGES
 10
-113.6585083935914
 20
19.36731899998895
 30
0.0
 40
25.4
 41
25.4
  0
SEQEND
  5
DC7
  8
PROFILEEDGES
  0
POLYLINE
  5
29F
  8
PROFILEEDGES
 66
     1
 10
0.0
 20
0.0
 30
0.0
  0
VERTEX
  5
89C
  8
PROFILEEDGES
 10
-112.6611185014671
 20
26.9432473750886
 30
0.0
 40
25.4
 41
25.4
  0
VERTEX
  5
89D
  8
PROFILEEDGES
 10
-112.8732553038412
 20
27.34012741762812
 30
0.0
 40
25.4
 41
25.4
  0
SEQEND
  5
DC8
  8
PROFILEEDGES
  0
POLYLINE
  5
2A0
  8
PROFILEEDGES
 66
     1
 10
0.0
 20
0.0
 30
0.0
  0
VERTEX
  5
89E
  8
PROFILEEDGES
 10
-112.4753930969809
 20
26.53334267248511
 30
0.0
 40
25.4
 41
25.4
  0
VERTEX
  5
89F
  8
PROFILEEDGES
 10
-112.6611185014671
 20
26.9432473750886
 30
0.0
 40
25.4
 41
25.4
  0
SEQEND
  5
DC9
  8
PROFILEEDGES
  0
POLYLINE
  5
2A1
  8
PROFILEEDGES
 66
     1
 10
0.0
 20
0.0
 30
0.0
  0
VERTEX
  5
8A0
  8
PROFILEEDGES
 10
-112.1862411971818
 20
22.12173719146766
 30
0.0
 40
25.4
 41
25.4
  0
VERTEX
  5
8A1
  8
PROFILEEDGES
 10
-112.0840528946919
 20
22.5599989191168
 30
0.0
 40
25.4
 41
25.4
  0
SEQEND
  5
DCA
  8
PROFILEEDGES
  0
POLYLINE
  5
2A2
  8
PROFILEEDGES
 66
     1
 10
0.0
 20
0.0
 30
0.0
  0
VERTEX
  5
8A2
  8
PROFILEEDGES
 10
-113.1108951017485
 20
20.08098253642494
 30
0.0
 40
25.4
 41
25.4
  0
VERTEX
  5
8A3
  8
PROFILEEDGES
 10
-112.8732553038412
 20
20.46313841762819
 30
0.0
 40
25.4
 41
25.4
  0
SEQEND
  5
DCB
  8
PROFILEEDGES
  0
POLYLINE
  5
2A3
  8
PROFILEEDGES
 66
     1
 10
0.0
 20
0.0
 30
0.0
  0
VERTEX
  5
8A4
  8
PROFILEEDGES
 10
-113.9661369233433
 20
28.76439847367341
 30
0.0
 40
25.4
 41
25.4
  0
VERTEX
  5
8A5
  8
PROFILEEDGES
 10
-120.9274048359009
 20
35.72566638623185
 30
0.0
 40
25.4
 41
25.4
  0
SEQEND
  5
DCC
  8
PROFILEEDGES
  0
POLYLINE
  5
2A4
  8
PROFILEEDGES
 66
     1
 10
0.0
 20
0.0
 30
0.0
  0
VERTEX
  5
8A6
  8
PROFILEEDGES
 10
-113.6585083935913
 20
28.43594683526734
 30
0.0
 40
25.4
 41
25.4
  0
VERTEX
  5
8A7
  8
PROFILEEDGES
 10
-113.9661369233433
 20
28.76439847367341
 30
0.0
 40
25.4
 41
25.4
  0
SEQEND
  5
DCD
  8
PROFILEEDGES
  0
POLYLINE
  5
2A5
  8
PROFILEEDGES
 66
     1
 10
0.0
 20
0.0
 30
0.0
  0
VERTEX
  5
8A8
  8
PROFILEEDGES
 10
-111.9666376407236
 20
24.35140951790942
 30
0.0
 40
25.4
 41
25.4
  0
VERTEX
  5
8A9
  8
PROFILEEDGES
 10
-112.010747073613
 20
24.79926010573734
 30
0.0
 40
25.4
 41
25.4
  0
SEQEND
  5
DCE
  8
PROFILEEDGES
  0
POLYLINE
  5
2A6
  8
PROFILEEDGES
 66
     1
 10
0.0
 20
0.0
 30
0.0
  0
VERTEX
  5
8AA
  8
PROFILEEDGES
 10
-112.8732553038412
 20
20.46313841762819
 30
0.0
 40
25.4
 41
25.4
  0
VERTEX
  5
8AB
  8
PROFILEEDGES
 10
-112.6611185014671
 20
20.86001846016772
 30
0.0
 40
25.4
 41
25.4
  0
SEQEND
  5
DCF
  8
PROFILEEDGES
  0
POLYLINE
  5
2A7
  8
PROFILEEDGES
 66
     1
 10
0.0
 20
0.0
 30
0.0
  0
VERTEX
  5
8AC
  8
PROFILEEDGES
 10
-120.9274048358986
 20
12.07759944902665
 30
0.0
 40
25.4
 41
25.4
  0
VERTEX
  5
8AD
  8
PROFILEEDGES
 10
-113.9661369233433
 20
19.03886736158288
 30
0.0
 40
25.4
 41
25.4
  0
SEQEND
  5
DD0
  8
PROFILEEDGES
  0
POLYLINE
  5
2A8
  8
PROFILEEDGES
 66
     1
 10
0.0
 20
0.0
 30
0.0
  0
VERTEX
  5
8AE
  8
PROFILEEDGES
 10
-112.4753930969809
 20
21.26992316277119
 30
0.0
 40
25.4
 41
25.4
  0
VERTEX
  5
8AF
  8
PROFILEEDGES
 10
-112.3168743950811
 20
21.69109725057244
 30
0.0
 40
25.4
 41
25.4
  0
SEQEND
  5
DD1
  8
PROFILEEDGES
  0
POLYLINE
  5
2A9
  8
PROFILEEDGES
 66
     1
 10
0.0
 20
0.0
 30
0.0
  0
VERTEX
  5
8B0
  8
PROFILEEDGES
 10
-113.373020285092
 20
19.71518726671094
 30
0.0
 40
25.4
 41
25.4
  0
VERTEX
  5
8B1
  8
PROFILEEDGES
 10
-113.1108951017485
 20
20.08098253642494
 30
0.0
 40
25.4
 41
25.4
  0
SEQEND
  5
DD2
  8
PROFILEEDGES
  0
POLYLINE
  5
2AA
  8
PROFILEEDGES
 66
     1
 10
0.0
 20
0.0
 30
0.0
  0
VERTEX
  5
8B2
  8
PROFILEEDGES
 10
-113.373020285092
 20
28.08807856854539
 30
0.0
 40
25.4
 41
25.4
  0
VERTEX
  5
8B3
  8
PROFILEEDGES
 10
-113.6585083935913
 20
28.43594683526734
 30
0.0
 40
25.4
 41
25.4
  0
SEQEND
  5
DD3
  8
PROFILEEDGES
  0
POLYLINE
  5
2AB
  8
PROFILEEDGES
 66
     1
 10
0.0
 20
0.0
 30
0.0
  0
VERTEX
  5
8B4
  8
PROFILEEDGES
 10
-111.9519134793882
 20
23.90163291762815
 30
0.0
 40
25.4
 41
25.4
  0
VERTEX
  5
8B5
  8
PROFILEEDGES
 10
-111.9666376407236
 20
24.35140951790942
 30
0.0
 40
25.4
 41
25.4
  0
SEQEND
  5
DD4
  8
PROFILEEDGES
  0
POLYLINE
  5
2AC
  8
PROFILEEDGES
 66
     1
 10
0.0
 20
0.0
 30
0.0
  0
VERTEX
  5
8B6
  8
PROFILEEDGES
 10
-111.9666376407236
 20
23.45185631734688
 30
0.0
 40
25.4
 41
25.4
  0
VERTEX
  5
8B7
  8
PROFILEEDGES
 10
-111.9519134793882
 20
23.90163291762815
 30
0.0
 40
25.4
 41
25.4
  0
SEQEND
  5
DD5
  8
PROFILEEDGES
  0
POLYLINE
  5
2AD
  8
PROFILEEDGES
 66
     1
 10
0.0
 20
0.0
 30
0.0
  0
VERTEX
  5
8B8
  8
PROFILEEDGES
 10
-112.010747073613
 20
24.79926010573734
 30
0.0
 40
25.4
 41
25.4
  0
VERTEX
  5
8B9
  8
PROFILEEDGES
 10
-112.0840528946919
 20
25.24326691613951
 30
0.0
 40
25.4
 41
25.4
  0
SEQEND
  5
DD6
  8
PROFILEEDGES
  0
POLYLINE
  5
2AE
  8
PROFILEEDGES
 66
     1
 10
0.0
 20
0.0
 30
0.0
  0
VERTEX
  5
8BA
  8
PROFILEEDGES
 10
-112.1862411971818
 20
25.6815286437887
 30
0.0
 40
25.4
 41
25.4
  0
VERTEX
  5
8BB
  8
PROFILEEDGES
 10
-112.3168743950811
 20
26.11216858468387
 30
0.0
 40
25.4
 41
25.4
  0
SEQEND
  5
DD7
  8
PROFILEEDGES
  0
POLYLINE
  5
2AF
  8
PROFILEEDGES
 66
     1
 10
0.0
 20
0.0
 30
0.0
  0
VERTEX
  5
8BC
  8
PROFILEEDGES
 10
-112.010747073613
 20
23.00400572951898
 30
0.0
 40
25.4
 41
25.4
  0
VERTEX
  5
8BD
  8
PROFILEEDGES
 10
-111.9666376407236
 20
23.45185631734688
 30
0.0
 40
25.4
 41
25.4
  0
SEQEND
  5
DD8
  8
PROFILEEDGES
  0
POLYLINE
  5
2B0
  8
PROFILEEDGES
 66
     1
 10
0.0
 20
0.0
 30
0.0
  0
VERTEX
  5
8BE
  8
PROFILEEDGES
 10
-121.8034804018681
 20
10.88697843913235
 30
0.0
 40
25.4
 41
25.4
  0
VERTEX
  5
8BF
  8
PROFILEEDGES
 10
-121.9333760172894
 20
10.62019858653779
 30
0.0
 40
25.4
 41
25.4
  0
SEQEND
  5
DD9
  8
PROFILEEDGES
  0
POLYLINE
  5
2B1
  8
PROFILEEDGES
 66
     1
 10
0.0
 20
0.0
 30
0.0
  0
VERTEX
  5
8C0
  8
PROFILEEDGES
 10
-120.9274048358986
 20
12.07759944902665
 30
0.0
 40
25.4
 41
25.4
  0
VERTEX
  5
8C1
  8
PROFILEEDGES
 10
-121.1307867112645
 20
11.86154349926277
 30
0.0
 40
25.4
 41
25.4
  0
SEQEND
  5
DDA
  8
PROFILEEDGES
  0
POLYLINE
  5
2B2
  8
PROFILEEDGES
 66
     1
 10
0.0
 20
0.0
 30
0.0
  0
VERTEX
  5
8C2
  8
PROFILEEDGES
 10
-121.3207523938183
 20
36.16966399544102
 30
0.0
 40
25.4
 41
25.4
  0
VERTEX
  5
8C3
  8
PROFILEEDGES
 10
-121.1307867112645
 20
35.94172233600261
 30
0.0
 40
25.4
 41
25.4
  0
SEQEND
  5
DDB
  8
PROFILEEDGES
  0
POLYLINE
  5
2B3
  8
PROFILEEDGES
 66
     1
 10
0.0
 20
0.0
 30
0.0
  0
VERTEX
  5
8C4
  8
PROFILEEDGES
 10
-121.4966087193893
 20
36.40865963015602
 30
0.0
 40
25.4
 41
25.4
  0
VERTEX
  5
8C5
  8
PROFILEEDGES
 10
-121.3207523938183
 20
36.16966399544102
 30
0.0
 40
25.4
 41
25.4
  0
SEQEND
  5
DDC
  8
PROFILEEDGES
  0
POLYLINE
  5
2B4
  8
PROFILEEDGES
 66
     1
 10
0.0
 20
0.0
 30
0.0
  0
VERTEX
  5
8C6
  8
PROFILEEDGES
 10
-121.4966087193893
 20
11.39460620510937
 30
0.0
 40
25.4
 41
25.4
  0
VERTEX
  5
8C7
  8
PROFILEEDGES
 10
-121.6577140073121
 20
11.1454286642707
 30
0.0
 40
25.4
 41
25.4
  0
SEQEND
  5
DDD
  8
PROFILEEDGES
  0
POLYLINE
  5
2B5
  8
PROFILEEDGES
 66
     1
 10
0.0
 20
0.0
 30
0.0
  0
VERTEX
  5
8C8
  8
PROFILEEDGES
 10
-121.1307867112645
 20
11.86154349926277
 30
0.0
 40
25.4
 41
25.4
  0
VERTEX
  5
8C9
  8
PROFILEEDGES
 10
-121.3207523938184
 20
11.63360183982435
 30
0.0
 40
25.4
 41
25.4
  0
SEQEND
  5
DDE
  8
PROFILEEDGES
  0
POLYLINE
  5
2B6
  8
PROFILEEDGES
 66
     1
 10
0.0
 20
0.0
 30
0.0
  0
VERTEX
  5
8CA
  8
PROFILEEDGES
 10
-121.6577140073121
 20
11.1454286642707
 30
0.0
 40
25.4
 41
25.4
  0
VERTEX
  5
8CB
  8
PROFILEEDGES
 10
-121.8034804018681
 20
10.88697843913235
 30
0.0
 40
25.4
 41
25.4
  0
SEQEND
  5
DDF
  8
PROFILEEDGES
  0
POLYLINE
  5
2B7
  8
PROFILEEDGES
 66
     1
 10
0.0
 20
0.0
 30
0.0
  0
VERTEX
  5
8CC
  8
PROFILEEDGES
 10
-121.803480401868
 20
36.91628739613304
 30
0.0
 40
25.4
 41
25.4
  0
VERTEX
  5
8CD
  8
PROFILEEDGES
 10
-121.657714007312
 20
36.65783717099469
 30
0.0
 40
25.4
 41
25.4
  0
SEQEND
  5
DE0
  8
PROFILEEDGES
  0
POLYLINE
  5
2B8
  8
PROFILEEDGES
 66
     1
 10
0.0
 20
0.0
 30
0.0
  0
VERTEX
  5
8CE
  8
PROFILEEDGES
 10
-122.2233981516396
 20
38.02351950424511
 30
0.0
 40
25.4
 41
25.4
  0
VERTEX
  5
8CF
  8
PROFILEEDGES
 10
-122.1437186509042
 20
37.73769519139123
 30
0.0
 40
25.4
 41
25.4
  0
SEQEND
  5
DE1
  8
PROFILEEDGES
  0
POLYLINE
  5
2B9
  8
PROFILEEDGES
 66
     1
 10
0.0
 20
0.0
 30
0.0
  0
VERTEX
  5
8D0
  8
PROFILEEDGES
 10
-122.2856746389084
 20
38.31363327466829
 30
0.0
 40
25.4
 41
25.4
  0
VERTEX
  5
8D1
  8
PROFILEEDGES
 10
-122.2233981516396
 20
38.02351950424511
 30
0.0
 40
25.4
 41
25.4
  0
SEQEND
  5
DE2
  8
PROFILEEDGES
  0
POLYLINE
  5
2BA
  8
PROFILEEDGES
 66
     1
 10
0.0
 20
0.0
 30
0.0
  0
VERTEX
  5
8D2
  8
PROFILEEDGES
 10
-122.0469268785591
 20
37.45720327802755
 30
0.0
 40
25.4
 41
25.4
  0
VERTEX
  5
8D3
  8
PROFILEEDGES
 10
-121.9333760172893
 20
37.18306724872756
 30
0.0
 40
25.4
 41
25.4
  0
SEQEND
  5
DE3
  8
PROFILEEDGES
  0
POLYLINE
  5
2BB
  8
PROFILEEDGES
 66
     1
 10
0.0
 20
0.0
 30
0.0
  0
VERTEX
  5
8D4
  8
PROFILEEDGES
 10
-121.9333760172893
 20
37.18306724872756
 30
0.0
 40
25.4
 41
25.4
  0
VERTEX
  5
8D5
  8
PROFILEEDGES
 10
-121.803480401868
 20
36.91628739613304
 30
0.0
 40
25.4
 41
25.4
  0
SEQEND
  5
DE4
  8
PROFILEEDGES
  0
POLYLINE
  5
2BC
  8
PROFILEEDGES
 66
     1
 10
0.0
 20
0.0
 30
0.0
  0
VERTEX
  5
8D6
  8
PROFILEEDGES
 10
-122.330320872565
 20
38.60697790897432
 30
0.0
 40
25.4
 41
25.4
  0
VERTEX
  5
8D7
  8
PROFILEEDGES
 10
-122.2856746389084
 20
38.31363327466829
 30
0.0
 40
25.4
 41
25.4
  0
SEQEND
  5
DE5
  8
PROFILEEDGES
  0
POLYLINE
  5
2BD
  8
PROFILEEDGES
 66
     1
 10
0.0
 20
0.0
 30
0.0
  0
VERTEX
  5
8D8
  8
PROFILEEDGES
 10
-122.366135867297
 20
39.1990703548403
 30
0.0
 40
25.4
 41
25.4
  0
VERTEX
  5
8D9
  8
PROFILEEDGES
 10
-122.357173943341
 20
38.90248302440487
 30
0.0
 40
25.4
 41
25.4
  0
SEQEND
  5
DE6
  8
PROFILEEDGES
  0
POLYLINE
  5
2BE
  8
PROFILEEDGES
 66
     1
 10
0.0
 20
0.0
 30
0.0
  0
VERTEX
  5
8DA
  8
PROFILEEDGES
 10
-121.657714007312
 20
36.65783717099469
 30
0.0
 40
25.4
 41
25.4
  0
VERTEX
  5
8DB
  8
PROFILEEDGES
 10
-121.4966087193893
 20
36.40865963015602
 30
0.0
 40
25.4
 41
25.4
  0
SEQEND
  5
DE7
  8
PROFILEEDGES
  0
POLYLINE
  5
2BF
  8
PROFILEEDGES
 66
     1
 10
0.0
 20
0.0
 30
0.0
  0
VERTEX
  5
8DC
  8
PROFILEEDGES
 10
-121.1307867112645
 20
35.94172233600261
 30
0.0
 40
25.4
 41
25.4
  0
VERTEX
  5
8DD
  8
PROFILEEDGES
 10
-120.9274048359009
 20
35.72566638623185
 30
0.0
 40
25.4
 41
25.4
  0
SEQEND
  5
DE8
  8
PROFILEEDGES
  0
POLYLINE
  5
2C0
  8
PROFILEEDGES
 66
     1
 10
0.0
 20
0.0
 30
0.0
  0
VERTEX
  5
8DE
  8
PROFILEEDGES
 10
-121.3207523938184
 20
11.63360183982435
 30
0.0
 40
25.4
 41
25.4
  0
VERTEX
  5
8DF
  8
PROFILEEDGES
 10
-121.4966087193893
 20
11.39460620510937
 30
0.0
 40
25.4
 41
25.4
  0
SEQEND
  5
DE9
  8
PROFILEEDGES
  0
POLYLINE
  5
2C1
  8
PROFILEEDGES
 66
     1
 10
0.0
 20
0.0
 30
0.0
  0
VERTEX
  5
8E0
  8
PROFILEEDGES
 10
-122.1437186509042
 20
37.73769519139123
 30
0.0
 40
25.4
 41
25.4
  0
VERTEX
  5
8E1
  8
PROFILEEDGES
 10
-122.0469268785591
 20
37.45720327802755
 30
0.0
 40
25.4
 41
25.4
  0
SEQEND
  5
DEA
  8
PROFILEEDGES
  0
POLYLINE
  5
2C2
  8
PROFILEEDGES
 66
     1
 10
0.0
 20
0.0
 30
0.0
  0
VERTEX
  5
8E2
  8
PROFILEEDGES
 10
-122.357173943341
 20
38.90248302440487
 30
0.0
 40
25.4
 41
25.4
  0
VERTEX
  5
8E3
  8
PROFILEEDGES
 10
-122.330320872565
 20
38.60697790897432
 30
0.0
 40
25.4
 41
25.4
  0
SEQEND
  5
DEB
  8
PROFILEEDGES
  0
POLYLINE
  5
2C3
  8
PROFILEEDGES
 66
     1
 10
0.0
 20
0.0
 30
0.0
  0
VERTEX
  5
8E4
  8
PROFILEEDGES
 10
-111.0675398795482
 20
-15.39544708237198
 30
0.0
 40
25.4
 41
25.4
  0
VERTEX
  5
8E5
  8
PROFILEEDGES
 10
-117.4540008672954
 20
-15.3954470823674
 30
0.0
 40
25.4
 41
25.4
  0
SEQEND
  5
DEC
  8
PROFILEEDGES
  0
LINE
  5
2C4
  8
0
 10
-42.82379950190396
 20
-15.39544708237214
 30
0.0
 11
-42.82379950190397
 21
-19.32515508236755
 31
0.0
  0
POLYLINE
  5
2C5
  8
PROFILEEDGES
 66
     1
 10
0.0
 20
0.0
 30
0.0
  0
VERTEX
  5
8E6
  8
PROFILEEDGES
 10
-111.0675398795482
 20
-19.32515508236741
 30
0.0
 40
25.4
 41
25.4
  0
VERTEX
  5
8E7
  8
PROFILEEDGES
 10
-117.4540008672982
 20
-19.32515508237196
 30
0.0
 40
25.4
 41
25.4
  0
SEQEND
  5
DED
  8
PROFILEEDGES
  0
LINE
  5
2C6
  8
0
 10
-111.0675398795482
 20
-15.39544708237198
 30
0.0
 11
-111.0675398795482
 21
-19.32515508236741
 31
0.0
  0
POLYLINE
  5
2C7
  8
PROFILEEDGES
 66
     1
 10
0.0
 20
0.0
 30
0.0
  0
VERTEX
  5
8E8
  8
PROFILEEDGES
 10
19.83721263271113
 20
128.0388949176269
 30
0.0
 40
25.4
 41
25.4
  0
VERTEX
  5
8E9
  8
PROFILEEDGES
 10
19.83721263271187
 20
39.19907035483435
 30
0.0
 40
25.4
 41
25.4
  0
SEQEND
  5
DEE
  8
PROFILEEDGES
  0
POLYLINE
  5
2C8
  8
PROFILEEDGES
 66
     1
 10
0.0
 20
0.0
 30
0.0
  0
VERTEX
  5
8EA
  8
PROFILEEDGES
 10
19.83721263271212
 20
8.604195480419131
 30
0.0
 40
25.4
 41
25.4
  0
VERTEX
  5
8EB
  8
PROFILEEDGES
 10
19.8372126327123
 20
-10.4833120823733
 30
0.0
 40
25.4
 41
25.4
  0
SEQEND
  5
DEF
  8
PROFILEEDGES
  0
LINE
  5
2C9
  8
0
 10
19.83721263271157
 20
32.94694321134779
 30
0.0
 11
78.78283263271163
 21
32.94694321134827
 31
0.0
  0
LINE
  5
2CA
  8
0
 10
19.83721263271065
 20
25.98567529878966
 30
0.0
 11
78.78283263269977
 21
25.98567529879539
 31
0.0
  0
LINE
  5
2CB
  8
0
 10
19.83721263271187
 20
39.19907035483435
 30
0.0
 11
78.78283263271194
 21
39.19907035483483
 31
0.0
  0
POLYLINE
  5
2CC
  8
PROFILEEDGES
 66
     1
 10
0.0
 20
0.0
 30
0.0
  0
VERTEX
  5
8EC
  8
PROFILEEDGES
 10
19.83721263271113
 20
128.0388949176269
 30
0.0
 40
25.4
 41
25.4
  0
VERTEX
  5
8ED
  8
PROFILEEDGES
 10
78.78283263269759
 20
128.0388949176339
 30
0.0
 40
25.4
 41
25.4
  0
SEQEND
  5
DF0
  8
PROFILEEDGES
  0
POLYLINE
  5
2CD
  8
PROFILEEDGES
 66
     1
 10
0.0
 20
0.0
 30
0.0
  0
VERTEX
  5
8EE
  8
PROFILEEDGES
 10
78.78283263271194
 20
39.19907035483483
 30
0.0
 40
25.4
 41
25.4
  0
VERTEX
  5
8EF
  8
PROFILEEDGES
 10
78.78283263269759
 20
128.0388949176339
 30
0.0
 40
25.4
 41
25.4
  0
SEQEND
  5
DF1
  8
PROFILEEDGES
  0
POLYLINE
  5
2CE
  8
PROFILEEDGES
 66
     1
 10
0.0
 20
0.0
 30
0.0
  0
VERTEX
  5
8F0
  8
PROFILEEDGES
 10
78.78283263269874
 20
-10.48331208236629
 30
0.0
 40
25.4
 41
25.4
  0
VERTEX
  5
8F1
  8
PROFILEEDGES
 10
78.78283263271219
 20
8.604195480419627
 30
0.0
 40
25.4
 41
25.4
  0
SEQEND
  5
DF2
  8
PROFILEEDGES
  0
LINE
  5
2CF
  8
0
 10
19.83721263271066
 20
21.8175905364651
 30
0.0
 11
78.7828326326998
 21
21.81759053647088
 31
0.0
  0
LINE
  5
2D0
  8
0
 10
19.83721263271168
 20
14.85632262390614
 30
0.0
 11
78.78283263269888
 21
14.85632262391281
 31
0.0
  0
LINE
  5
2D1
  8
0
 10
19.83721263271212
 20
8.604195480419131
 30
0.0
 11
78.78283263271219
 21
8.604195480419627
 31
0.0
  0
LINE
  5
2D2
  8
0
 10
19.8372126327123
 20
-10.4833120823733
 30
0.0
 11
78.78283263269874
 21
-10.48331208236629
 31
0.0
  0
POLYLINE
  5
2D3
  8
PROFILEEDGES
 66
     1
 10
0.0
 20
0.0
 30
0.0
  0
VERTEX
  5
8F2
  8
PROFILEEDGES
 10
69.69538288269821
 20
117.9819269841369
 30
0.0
 40
25.4
 41
25.4
  0
VERTEX
  5
8F3
  8
PROFILEEDGES
 10
69.99564821792933
 20
117.7952100000669
 30
0.0
 40
25.4
 41
25.4
  0
SEQEND
  5
DF3
  8
PROFILEEDGES
  0
POLYLINE
  5
2D4
  8
PROFILEEDGES
 66
     1
 10
0.0
 20
0.0
 30
0.0
  0
VERTEX
  5
8F4
  8
PROFILEEDGES
 10
69.99564821792933
 20
117.7952100000669
 30
0.0
 40
25.4
 41
25.4
  0
VERTEX
  5
8F5
  8
PROFILEEDGES
 10
70.28305878699032
 20
117.589254498869
 30
0.0
 40
25.4
 41
25.4
  0
SEQEND
  5
DF4
  8
PROFILEEDGES
  0
POLYLINE
  5
2D5
  8
PROFILEEDGES
 66
     1
 10
0.0
 20
0.0
 30
0.0
  0
VERTEX
  5
8F6
  8
PROFILEEDGES
 10
70.28305878699032
 20
117.589254498869
 30
0.0
 40
25.4
 41
25.4
  0
VERTEX
  5
8F7
  8
PROFILEEDGES
 10
70.55638385370042
 20
117.3649424136182
 30
0.0
 40
25.4
 41
25.4
  0
SEQEND
  5
DF5
  8
PROFILEEDGES
  0
POLYLINE
  5
2D6
  8
PROFILEEDGES
 66
     1
 10
0.0
 20
0.0
 30
0.0
  0
VERTEX
  5
8F8
  8
PROFILEEDGES
 10
70.55638385370042
 20
117.3649424136182
 30
0.0
 40
25.4
 41
25.4
  0
VERTEX
  5
8F9
  8
PROFILEEDGES
 10
70.8144529981624
 20
117.1232342831005
 30
0.0
 40
25.4
 41
25.4
  0
SEQEND
  5
DF6
  8
PROFILEEDGES
  0
POLYLINE
  5
2D7
  8
PROFILEEDGES
 66
     1
 10
0.0
 20
0.0
 30
0.0
  0
VERTEX
  5
8FA
  8
PROFILEEDGES
 10
70.8144529981624
 20
117.1232342831005
 30
0.0
 40
25.4
 41
25.4
  0
VERTEX
  5
8FB
  8
PROFILEEDGES
 10
71.05616112868006
 20
116.8651651386387
 30
0.0
 40
25.4
 41
25.4
  0
SEQEND
  5
DF7
  8
PROFILEEDGES
  0
POLYLINE
  5
2D8
  8
PROFILEEDGES
 66
     1
 10
0.0
 20
0.0
 30
0.0
  0
VERTEX
  5
8FC
  8
PROFILEEDGES
 10
71.05616112868006
 20
116.8651651386387
 30
0.0
 40
25.4
 41
25.4
  0
VERTEX
  5
8FD
  8
PROFILEEDGES
 10
71.28047321393095
 20
116.5918400719285
 30
0.0
 40
25.4
 41
25.4
  0
SEQEND
  5
DF8
  8
PROFILEEDGES
  0
POLYLINE
  5
2D9
  8
PROFILEEDGES
 66
     1
 10
0.0
 20
0.0
 30
0.0
  0
VERTEX
  5
8FE
  8
PROFILEEDGES
 10
71.28047321393095
 20
116.5918400719285
 30
0.0
 40
25.4
 41
25.4
  0
VERTEX
  5
8FF
  8
PROFILEEDGES
 10
71.48642871512884
 20
116.3044295028676
 30
0.0
 40
25.4
 41
25.4
  0
SEQEND
  5
DF9
  8
PROFILEEDGES
  0
POLYLINE
  5
2DA
  8
PROFILEEDGES
 66
     1
 10
0.0
 20
0.0
 30
0.0
  0
VERTEX
  5
900
  8
PROFILEEDGES
 10
71.48642871512884
 20
116.3044295028676
 30
0.0
 40
25.4
 41
25.4
  0
VERTEX
  5
901
  8
PROFILEEDGES
 10
71.67314569919883
 20
116.0041641676364
 30
0.0
 40
25.4
 41
25.4
  0
SEQEND
  5
DFA
  8
PROFILEEDGES
  0
POLYLINE
  5
2DB
  8
PROFILEEDGES
 66
     1
 10
0.0
 20
0.0
 30
0.0
  0
VERTEX
  5
902
  8
PROFILEEDGES
 10
71.67314569919883
 20
116.0041641676364
 30
0.0
 40
25.4
 41
25.4
  0
VERTEX
  5
903
  8
PROFILEEDGES
 10
71.83982461534991
 20
115.6923298484983
 30
0.0
 40
25.4
 41
25.4
  0
SEQEND
  5
DFB
  8
PROFILEEDGES
  0
POLYLINE
  5
2DC
  8
PROFILEEDGES
 66
     1
 10
0.0
 20
0.0
 30
0.0
  0
VERTEX
  5
904
  8
PROFILEEDGES
 10
71.83982461534991
 20
115.6923298484983
 30
0.0
 40
25.4
 41
25.4
  0
VERTEX
  5
905
  8
PROFILEEDGES
 10
71.98575171887391
 20
115.3702618678812
 30
0.0
 40
25.4
 41
25.4
  0
SEQEND
  5
DFC
  8
PROFILEEDGES
  0
POLYLINE
  5
2DD
  8
PROFILEEDGES
 66
     1
 10
0.0
 20
0.0
 30
0.0
  0
VERTEX
  5
906
  8
PROFILEEDGES
 10
71.98575171887391
 20
115.3702618678812
 30
0.0
 40
25.4
 41
25.4
  0
VERTEX
  5
907
  8
PROFILEEDGES
 10
72.11030212751058
 20
115.0393393703231
 30
0.0
 40
25.4
 41
25.4
  0
SEQEND
  5
DFD
  8
PROFILEEDGES
  0
POLYLINE
  5
2DE
  8
PROFILEEDGES
 66
     1
 10
0.0
 20
0.0
 30
0.0
  0
VERTEX
  5
908
  8
PROFILEEDGES
 10
72.11030212751058
 20
115.0393393703231
 30
0.0
 40
25.4
 41
25.4
  0
VERTEX
  5
909
  8
PROFILEEDGES
 10
72.2129424972887
 20
114.7009794167626
 30
0.0
 40
25.4
 41
25.4
  0
SEQEND
  5
DFE
  8
PROFILEEDGES
  0
POLYLINE
  5
2DF
  8
PROFILEEDGES
 66
     1
 10
0.0
 20
0.0
 30
0.0
  0
VERTEX
  5
90A
  8
PROFILEEDGES
 10
72.2129424972887
 20
114.7009794167626
 30
0.0
 40
25.4
 41
25.4
  0
VERTEX
  5
90B
  8
PROFILEEDGES
 10
72.29323330638732
 20
114.3566309164668
 30
0.0
 40
25.4
 41
25.4
  0
SEQEND
  5
DFF
  8
PROFILEEDGES
  0
POLYLINE
  5
2E0
  8
PROFILEEDGES
 66
     1
 10
0.0
 20
0.0
 30
0.0
  0
VERTEX
  5
90C
  8
PROFILEEDGES
 10
72.29323330638732
 20
114.3566309164668
 30
0.0
 40
25.4
 41
25.4
  0
VERTEX
  5
90D
  8
PROFILEEDGES
 10
72.35083073723533
 20
114.0077684225794
 30
0.0
 40
25.4
 41
25.4
  0
SEQEND
  5
E00
  8
PROFILEEDGES
  0
POLYLINE
  5
2E1
  8
PROFILEEDGES
 66
     1
 10
0.0
 20
0.0
 30
0.0
  0
VERTEX
  5
90E
  8
PROFILEEDGES
 10
72.35083073723533
 20
114.0077684225794
 30
0.0
 40
25.4
 41
25.4
  0
VERTEX
  5
90F
  8
PROFILEEDGES
 10
72.3854881487914
 20
113.6558858178574
 30
0.0
 40
25.4
 41
25.4
  0
SEQEND
  5
E01
  8
PROFILEEDGES
  0
POLYLINE
  5
2E2
  8
PROFILEEDGES
 66
     1
 10
0.0
 20
0.0
 30
0.0
  0
VERTEX
  5
910
  8
PROFILEEDGES
 10
72.3854881487914
 20
113.6558858178574
 30
0.0
 40
25.4
 41
25.4
  0
VERTEX
  5
911
  8
PROFILEEDGES
 10
72.39705713269848
 20
113.3024899176364
 30
0.0
 40
25.4
 41
25.4
  0
SEQEND
  5
E02
  8
PROFILEEDGES
  0
POLYLINE
  5
2E3
  8
PROFILEEDGES
 66
     1
 10
0.0
 20
0.0
 30
0.0
  0
VERTEX
  5
912
  8
PROFILEEDGES
 10
72.39705713269848
 20
113.3024899176364
 30
0.0
 40
25.4
 41
25.4
  0
VERTEX
  5
913
  8
PROFILEEDGES
 10
72.38548814879144
 20
112.9490940174155
 30
0.0
 40
25.4
 41
25.4
  0
SEQEND
  5
E03
  8
PROFILEEDGES
  0
POLYLINE
  5
2E4
  8
PROFILEEDGES
 66
     1
 10
0.0
 20
0.0
 30
0.0
  0
VERTEX
  5
914
  8
PROFILEEDGES
 10
72.38548814879144
 20
112.9490940174155
 30
0.0
 40
25.4
 41
25.4
  0
VERTEX
  5
915
  8
PROFILEEDGES
 10
72.35083073723541
 20
112.5972114126936
 30
0.0
 40
25.4
 41
25.4
  0
SEQEND
  5
E04
  8
PROFILEEDGES
  0
POLYLINE
  5
2E5
  8
PROFILEEDGES
 66
     1
 10
0.0
 20
0.0
 30
0.0
  0
VERTEX
  5
916
  8
PROFILEEDGES
 10
72.35083073723541
 20
112.5972114126936
 30
0.0
 40
25.4
 41
25.4
  0
VERTEX
  5
917
  8
PROFILEEDGES
 10
72.29323330638744
 20
112.2483489188061
 30
0.0
 40
25.4
 41
25.4
  0
SEQEND
  5
E05
  8
PROFILEEDGES
  0
POLYLINE
  5
2E6
  8
PROFILEEDGES
 66
     1
 10
0.0
 20
0.0
 30
0.0
  0
VERTEX
  5
918
  8
PROFILEEDGES
 10
72.29323330638744
 20
112.2483489188061
 30
0.0
 40
25.4
 41
25.4
  0
VERTEX
  5
919
  8
PROFILEEDGES
 10
72.21294249728886
 20
111.9040004185104
 30
0.0
 40
25.4
 41
25.4
  0
SEQEND
  5
E06
  8
PROFILEEDGES
  0
POLYLINE
  5
2E7
  8
PROFILEEDGES
 66
     1
 10
0.0
 20
0.0
 30
0.0
  0
VERTEX
  5
91A
  8
PROFILEEDGES
 10
72.21294249728886
 20
111.9040004185104
 30
0.0
 40
25.4
 41
25.4
  0
VERTEX
  5
91B
  8
PROFILEEDGES
 10
72.11030212751079
 20
111.5656404649498
 30
0.0
 40
25.4
 41
25.4
  0
SEQEND
  5
E07
  8
PROFILEEDGES
  0
POLYLINE
  5
2E8
  8
PROFILEEDGES
 66
     1
 10
0.0
 20
0.0
 30
0.0
  0
VERTEX
  5
91C
  8
PROFILEEDGES
 10
72.11030212751079
 20
111.5656404649498
 30
0.0
 40
25.4
 41
25.4
  0
VERTEX
  5
91D
  8
PROFILEEDGES
 10
71.98575171887417
 20
111.2347179673917
 30
0.0
 40
25.4
 41
25.4
  0
SEQEND
  5
E08
  8
PROFILEEDGES
  0
POLYLINE
  5
2E9
  8
PROFILEEDGES
 66
     1
 10
0.0
 20
0.0
 30
0.0
  0
VERTEX
  5
91E
  8
PROFILEEDGES
 10
71.98575171887417
 20
111.2347179673917
 30
0.0
 40
25.4
 41
25.4
  0
VERTEX
  5
91F
  8
PROFILEEDGES
 10
71.8398246153502
 20
110.9126499867747
 30
0.0
 40
25.4
 41
25.4
  0
SEQEND
  5
E09
  8
PROFILEEDGES
  0
POLYLINE
  5
2EA
  8
PROFILEEDGES
 66
     1
 10
0.0
 20
0.0
 30
0.0
  0
VERTEX
  5
920
  8
PROFILEEDGES
 10
71.8398246153502
 20
110.9126499867747
 30
0.0
 40
25.4
 41
25.4
  0
VERTEX
  5
921
  8
PROFILEEDGES
 10
71.67314569919921
 20
110.6008156676364
 30
0.0
 40
25.4
 41
25.4
  0
SEQEND
  5
E0A
  8
PROFILEEDGES
  0
POLYLINE
  5
2EB
  8
PROFILEEDGES
 66
     1
 10
0.0
 20
0.0
 30
0.0
  0
VERTEX
  5
922
  8
PROFILEEDGES
 10
71.67314569919921
 20
110.6008156676364
 30
0.0
 40
25.4
 41
25.4
  0
VERTEX
  5
923
  8
PROFILEEDGES
 10
71.48642871512918
 20
110.3005503324053
 30
0.0
 40
25.4
 41
25.4
  0
SEQEND
  5
E0B
  8
PROFILEEDGES
  0
POLYLINE
  5
2EC
  8
PROFILEEDGES
 66
     1
 10
0.0
 20
0.0
 30
0.0
  0
VERTEX
  5
924
  8
PROFILEEDGES
 10
71.48642871512918
 20
110.3005503324053
 30
0.0
 40
25.4
 41
25.4
  0
VERTEX
  5
925
  8
PROFILEEDGES
 10
71.28047321393133
 20
110.0131397633443
 30
0.0
 40
25.4
 41
25.4
  0
SEQEND
  5
E0C
  8
PROFILEEDGES
  0
POLYLINE
  5
2ED
  8
PROFILEEDGES
 66
     1
 10
0.0
 20
0.0
 30
0.0
  0
VERTEX
  5
926
  8
PROFILEEDGES
 10
71.28047321393133
 20
110.0131397633443
 30
0.0
 40
25.4
 41
25.4
  0
VERTEX
  5
927
  8
PROFILEEDGES
 10
71.05616112868054
 20
109.7398146966342
 30
0.0
 40
25.4
 41
25.4
  0
SEQEND
  5
E0D
  8
PROFILEEDGES
  0
POLYLINE
  5
2EE
  8
PROFILEEDGES
 66
     1
 10
0.0
 20
0.0
 30
0.0
  0
VERTEX
  5
928
  8
PROFILEEDGES
 10
71.05616112868054
 20
109.7398146966342
 30
0.0
 40
25.4
 41
25.4
  0
VERTEX
  5
929
  8
PROFILEEDGES
 10
70.81445299816292
 20
109.4817455521722
 30
0.0
 40
25.4
 41
25.4
  0
SEQEND
  5
E0E
  8
PROFILEEDGES
  0
POLYLINE
  5
2EF
  8
PROFILEEDGES
 66
     1
 10
0.0
 20
0.0
 30
0.0
  0
VERTEX
  5
92A
  8
PROFILEEDGES
 10
70.81445299816292
 20
109.4817455521722
 30
0.0
 40
25.4
 41
25.4
  0
VERTEX
  5
92B
  8
PROFILEEDGES
 10
70.55638385370099
 20
109.2400374216546
 30
0.0
 40
25.4
 41
25.4
  0
SEQEND
  5
E0F
  8
PROFILEEDGES
  0
POLYLINE
  5
2F0
  8
PROFILEEDGES
 66
     1
 10
0.0
 20
0.0
 30
0.0
  0
VERTEX
  5
92C
  8
PROFILEEDGES
 10
70.55638385370099
 20
109.2400374216546
 30
0.0
 40
25.4
 41
25.4
  0
VERTEX
  5
92D
  8
PROFILEEDGES
 10
70.28305878699089
 20
109.0157253364037
 30
0.0
 40
25.4
 41
25.4
  0
SEQEND
  5
E10
  8
PROFILEEDGES
  0
POLYLINE
  5
2F1
  8
PROFILEEDGES
 66
     1
 10
0.0
 20
0.0
 30
0.0
  0
VERTEX
  5
92E
  8
PROFILEEDGES
 10
70.28305878699089
 20
109.0157253364037
 30
0.0
 40
25.4
 41
25.4
  0
VERTEX
  5
92F
  8
PROFILEEDGES
 10
69.99564821792985
 20
108.8097698352058
 30
0.0
 40
25.4
 41
25.4
  0
SEQEND
  5
E11
  8
PROFILEEDGES
  0
POLYLINE
  5
2F2
  8
PROFILEEDGES
 66
     1
 10
0.0
 20
0.0
 30
0.0
  0
VERTEX
  5
930
  8
PROFILEEDGES
 10
69.99564821792985
 20
108.8097698352058
 30
0.0
 40
25.4
 41
25.4
  0
VERTEX
  5
931
  8
PROFILEEDGES
 10
69.69538288269878
 20
108.6230528511358
 30
0.0
 40
25.4
 41
25.4
  0
SEQEND
  5
E12
  8
PROFILEEDGES
  0
POLYLINE
  5
2F3
  8
PROFILEEDGES
 66
     1
 10
0.0
 20
0.0
 30
0.0
  0
VERTEX
  5
932
  8
PROFILEEDGES
 10
69.69538288269878
 20
108.6230528511358
 30
0.0
 40
25.4
 41
25.4
  0
VERTEX
  5
933
  8
PROFILEEDGES
 10
69.38354856356057
 20
108.4563739349848
 30
0.0
 40
25.4
 41
25.4
  0
SEQEND
  5
E13
  8
PROFILEEDGES
  0
POLYLINE
  5
2F4
  8
PROFILEEDGES
 66
     1
 10
0.0
 20
0.0
 30
0.0
  0
VERTEX
  5
934
  8
PROFILEEDGES
 10
69.38354856356057
 20
108.4563739349848
 30
0.0
 40
25.4
 41
25.4
  0
VERTEX
  5
935
  8
PROFILEEDGES
 10
69.06148058294355
 20
108.3104468314607
 30
0.0
 40
25.4
 41
25.4
  0
SEQEND
  5
E14
  8
PROFILEEDGES
  0
POLYLINE
  5
2F5
  8
PROFILEEDGES
 66
     1
 10
0.0
 20
0.0
 30
0.0
  0
VERTEX
  5
936
  8
PROFILEEDGES
 10
69.06148058294355
 20
108.3104468314607
 30
0.0
 40
25.4
 41
25.4
  0
VERTEX
  5
937
  8
PROFILEEDGES
 10
68.73055808538544
 20
108.1858964228241
 30
0.0
 40
25.4
 41
25.4
  0
SEQEND
  5
E15
  8
PROFILEEDGES
  0
POLYLINE
  5
2F6
  8
PROFILEEDGES
 66
     1
 10
0.0
 20
0.0
 30
0.0
  0
VERTEX
  5
938
  8
PROFILEEDGES
 10
68.73055808538544
 20
108.1858964228241
 30
0.0
 40
25.4
 41
25.4
  0
VERTEX
  5
939
  8
PROFILEEDGES
 10
68.39219813182497
 20
108.0832560530459
 30
0.0
 40
25.4
 41
25.4
  0
SEQEND
  5
E16
  8
PROFILEEDGES
  0
POLYLINE
  5
2F7
  8
PROFILEEDGES
 66
     1
 10
0.0
 20
0.0
 30
0.0
  0
VERTEX
  5
93A
  8
PROFILEEDGES
 10
68.39219813182497
 20
108.0832560530459
 30
0.0
 40
25.4
 41
25.4
  0
VERTEX
  5
93B
  8
PROFILEEDGES
 10
68.04784963152919
 20
108.0029652439473
 30
0.0
 40
25.4
 41
25.4
  0
SEQEND
  5
E17
  8
PROFILEEDGES
  0
POLYLINE
  5
2F8
  8
PROFILEEDGES
 66
     1
 10
0.0
 20
0.0
 30
0.0
  0
VERTEX
  5
93C
  8
PROFILEEDGES
 10
68.04784963152919
 20
108.0029652439473
 30
0.0
 40
25.4
 41
25.4
  0
VERTEX
  5
93D
  8
PROFILEEDGES
 10
67.69898713764174
 20
107.9453678130992
 30
0.0
 40
25.4
 41
25.4
  0
SEQEND
  5
E18
  8
PROFILEEDGES
  0
POLYLINE
  5
2F9
  8
PROFILEEDGES
 66
     1
 10
0.0
 20
0.0
 30
0.0
  0
VERTEX
  5
93E
  8
PROFILEEDGES
 10
67.69898713764174
 20
107.9453678130992
 30
0.0
 40
25.4
 41
25.4
  0
VERTEX
  5
93F
  8
PROFILEEDGES
 10
67.34710453291979
 20
107.9107104015433
 30
0.0
 40
25.4
 41
25.4
  0
SEQEND
  5
E19
  8
PROFILEEDGES
  0
POLYLINE
  5
2FA
  8
PROFILEEDGES
 66
     1
 10
0.0
 20
0.0
 30
0.0
  0
VERTEX
  5
940
  8
PROFILEEDGES
 10
67.34710453291979
 20
107.9107104015433
 30
0.0
 40
25.4
 41
25.4
  0
VERTEX
  5
941
  8
PROFILEEDGES
 10
66.99370863269881
 20
107.8991414176361
 30
0.0
 40
25.4
 41
25.4
  0
SEQEND
  5
E1A
  8
PROFILEEDGES
  0
POLYLINE
  5
2FB
  8
PROFILEEDGES
 66
     1
 10
0.0
 20
0.0
 30
0.0
  0
VERTEX
  5
942
  8
PROFILEEDGES
 10
66.99370863269881
 20
107.8991414176361
 30
0.0
 40
25.4
 41
25.4
  0
VERTEX
  5
943
  8
PROFILEEDGES
 10
66.64031273247778
 20
107.9107104015432
 30
0.0
 40
25.4
 41
25.4
  0
SEQEND
  5
E1B
  8
PROFILEEDGES
  0
POLYLINE
  5
2FC
  8
PROFILEEDGES
 66
     1
 10
0.0
 20
0.0
 30
0.0
  0
VERTEX
  5
944
  8
PROFILEEDGES
 10
66.64031273247778
 20
107.9107104015432
 30
0.0
 40
25.4
 41
25.4
  0
VERTEX
  5
945
  8
PROFILEEDGES
 10
66.28843012775589
 20
107.9453678130992
 30
0.0
 40
25.4
 41
25.4
  0
SEQEND
  5
E1C
  8
PROFILEEDGES
  0
POLYLINE
  5
2FD
  8
PROFILEEDGES
 66
     1
 10
0.0
 20
0.0
 30
0.0
  0
VERTEX
  5
946
  8
PROFILEEDGES
 10
66.28843012775589
 20
107.9453678130992
 30
0.0
 40
25.4
 41
25.4
  0
VERTEX
  5
947
  8
PROFILEEDGES
 10
65.93956763386842
 20
108.0029652439472
 30
0.0
 40
25.4
 41
25.4
  0
SEQEND
  5
E1D
  8
PROFILEEDGES
  0
POLYLINE
  5
2FE
  8
PROFILEEDGES
 66
     1
 10
0.0
 20
0.0
 30
0.0
  0
VERTEX
  5
948
  8
PROFILEEDGES
 10
65.93956763386842
 20
108.0029652439472
 30
0.0
 40
25.4
 41
25.4
  0
VERTEX
  5
949
  8
PROFILEEDGES
 10
65.59521913357264
 20
108.0832560530457
 30
0.0
 40
25.4
 41
25.4
  0
SEQEND
  5
E1E
  8
PROFILEEDGES
  0
POLYLINE
  5
2FF
  8
PROFILEEDGES
 66
     1
 10
0.0
 20
0.0
 30
0.0
  0
VERTEX
  5
94A
  8
PROFILEEDGES
 10
65.59521913357264
 20
108.0832560530457
 30
0.0
 40
25.4
 41
25.4
  0
VERTEX
  5
94B
  8
PROFILEEDGES
 10
65.25685918001209
 20
108.1858964228239
 30
0.0
 40
25.4
 41
25.4
  0
SEQEND
  5
E1F
  8
PROFILEEDGES
  0
POLYLINE
  5
300
  8
PROFILEEDGES
 66
     1
 10
0.0
 20
0.0
 30
0.0
  0
VERTEX
  5
94C
  8
PROFILEEDGES
 10
65.25685918001209
 20
108.1858964228239
 30
0.0
 40
25.4
 41
25.4
  0
VERTEX
  5
94D
  8
PROFILEEDGES
 10
64.92593668245398
 20
108.3104468314604
 30
0.0
 40
25.4
 41
25.4
  0
SEQEND
  5
E20
  8
PROFILEEDGES
  0
POLYLINE
  5
301
  8
PROFILEEDGES
 66
     1
 10
0.0
 20
0.0
 30
0.0
  0
VERTEX
  5
94E
  8
PROFILEEDGES
 10
64.92593668245398
 20
108.3104468314604
 30
0.0
 40
25.4
 41
25.4
  0
VERTEX
  5
94F
  8
PROFILEEDGES
 10
64.60386870183692
 20
108.4563739349845
 30
0.0
 40
25.4
 41
25.4
  0
SEQEND
  5
E21
  8
PROFILEEDGES
  0
POLYLINE
  5
302
  8
PROFILEEDGES
 66
     1
 10
0.0
 20
0.0
 30
0.0
  0
VERTEX
  5
950
  8
PROFILEEDGES
 10
64.60386870183692
 20
108.4563739349845
 30
0.0
 40
25.4
 41
25.4
  0
VERTEX
  5
951
  8
PROFILEEDGES
 10
64.29203438269874
 20
108.6230528511355
 30
0.0
 40
25.4
 41
25.4
  0
SEQEND
  5
E22
  8
PROFILEEDGES
  0
POLYLINE
  5
303
  8
PROFILEEDGES
 66
     1
 10
0.0
 20
0.0
 30
0.0
  0
VERTEX
  5
952
  8
PROFILEEDGES
 10
64.29203438269874
 20
108.6230528511355
 30
0.0
 40
25.4
 41
25.4
  0
VERTEX
  5
953
  8
PROFILEEDGES
 10
63.99176904746763
 20
108.8097698352054
 30
0.0
 40
25.4
 41
25.4
  0
SEQEND
  5
E23
  8
PROFILEEDGES
  0
POLYLINE
  5
304
  8
PROFILEEDGES
 66
     1
 10
0.0
 20
0.0
 30
0.0
  0
VERTEX
  5
954
  8
PROFILEEDGES
 10
63.99176904746763
 20
108.8097698352054
 30
0.0
 40
25.4
 41
25.4
  0
VERTEX
  5
955
  8
PROFILEEDGES
 10
63.70435847840655
 20
109.0157253364034
 30
0.0
 40
25.4
 41
25.4
  0
SEQEND
  5
E24
  8
PROFILEEDGES
  0
POLYLINE
  5
305
  8
PROFILEEDGES
 66
     1
 10
0.0
 20
0.0
 30
0.0
  0
VERTEX
  5
956
  8
PROFILEEDGES
 10
63.70435847840655
 20
109.0157253364034
 30
0.0
 40
25.4
 41
25.4
  0
VERTEX
  5
957
  8
PROFILEEDGES
 10
63.43103341169646
 20
109.2400374216542
 30
0.0
 40
25.4
 41
25.4
  0
SEQEND
  5
E25
  8
PROFILEEDGES
  0
POLYLINE
  5
306
  8
PROFILEEDGES
 66
     1
 10
0.0
 20
0.0
 30
0.0
  0
VERTEX
  5
958
  8
PROFILEEDGES
 10
63.43103341169646
 20
109.2400374216542
 30
0.0
 40
25.4
 41
25.4
  0
VERTEX
  5
959
  8
PROFILEEDGES
 10
63.17296426723453
 20
109.4817455521718
 30
0.0
 40
25.4
 41
25.4
  0
SEQEND
  5
E26
  8
PROFILEEDGES
  0
POLYLINE
  5
307
  8
PROFILEEDGES
 66
     1
 10
0.0
 20
0.0
 30
0.0
  0
VERTEX
  5
95A
  8
PROFILEEDGES
 10
63.17296426723453
 20
109.4817455521718
 30
0.0
 40
25.4
 41
25.4
  0
VERTEX
  5
95B
  8
PROFILEEDGES
 10
62.93125613671682
 20
109.7398146966337
 30
0.0
 40
25.4
 41
25.4
  0
SEQEND
  5
E27
  8
PROFILEEDGES
  0
POLYLINE
  5
308
  8
PROFILEEDGES
 66
     1
 10
0.0
 20
0.0
 30
0.0
  0
VERTEX
  5
95C
  8
PROFILEEDGES
 10
62.93125613671682
 20
109.7398146966337
 30
0.0
 40
25.4
 41
25.4
  0
VERTEX
  5
95D
  8
PROFILEEDGES
 10
62.70694405146602
 20
110.0131397633438
 30
0.0
 40
25.4
 41
25.4
  0
SEQEND
  5
E28
  8
PROFILEEDGES
  0
POLYLINE
  5
309
  8
PROFILEEDGES
 66
     1
 10
0.0
 20
0.0
 30
0.0
  0
VERTEX
  5
95E
  8
PROFILEEDGES
 10
62.70694405146602
 20
110.0131397633438
 30
0.0
 40
25.4
 41
25.4
  0
VERTEX
  5
95F
  8
PROFILEEDGES
 10
62.50098855026804
 20
110.3005503324048
 30
0.0
 40
25.4
 41
25.4
  0
SEQEND
  5
E29
  8
PROFILEEDGES
  0
POLYLINE
  5
30A
  8
PROFILEEDGES
 66
     1
 10
0.0
 20
0.0
 30
0.0
  0
VERTEX
  5
960
  8
PROFILEEDGES
 10
62.50098855026804
 20
110.3005503324048
 30
0.0
 40
25.4
 41
25.4
  0
VERTEX
  5
961
  8
PROFILEEDGES
 10
62.31427156619805
 20
110.6008156676359
 30
0.0
 40
25.4
 41
25.4
  0
SEQEND
  5
E2A
  8
PROFILEEDGES
  0
POLYLINE
  5
30B
  8
PROFILEEDGES
 66
     1
 10
0.0
 20
0.0
 30
0.0
  0
VERTEX
  5
962
  8
PROFILEEDGES
 10
62.31427156619805
 20
110.6008156676359
 30
0.0
 40
25.4
 41
25.4
  0
VERTEX
  5
963
  8
PROFILEEDGES
 10
62.14759265004707
 20
110.912649986774
 30
0.0
 40
25.4
 41
25.4
  0
SEQEND
  5
E2B
  8
PROFILEEDGES
  0
POLYLINE
  5
30C
  8
PROFILEEDGES
 66
     1
 10
0.0
 20
0.0
 30
0.0
  0
VERTEX
  5
964
  8
PROFILEEDGES
 10
62.14759265004707
 20
110.912649986774
 30
0.0
 40
25.4
 41
25.4
  0
VERTEX
  5
965
  8
PROFILEEDGES
 10
62.00166554652301
 20
111.2347179673911
 30
0.0
 40
25.4
 41
25.4
  0
SEQEND
  5
E2C
  8
PROFILEEDGES
  0
POLYLINE
  5
30D
  8
PROFILEEDGES
 66
     1
 10
0.0
 20
0.0
 30
0.0
  0
VERTEX
  5
966
  8
PROFILEEDGES
 10
62.00166554652301
 20
111.2347179673911
 30
0.0
 40
25.4
 41
25.4
  0
VERTEX
  5
967
  8
PROFILEEDGES
 10
61.87711513788639
 20
111.5656404649493
 30
0.0
 40
25.4
 41
25.4
  0
SEQEND
  5
E2D
  8
PROFILEEDGES
  0
POLYLINE
  5
30E
  8
PROFILEEDGES
 66
     1
 10
0.0
 20
0.0
 30
0.0
  0
VERTEX
  5
968
  8
PROFILEEDGES
 10
61.87711513788639
 20
111.5656404649493
 30
0.0
 40
25.4
 41
25.4
  0
VERTEX
  5
969
  8
PROFILEEDGES
 10
61.77447476810823
 20
111.9040004185097
 30
0.0
 40
25.4
 41
25.4
  0
SEQEND
  5
E2E
  8
PROFILEEDGES
  0
POLYLINE
  5
30F
  8
PROFILEEDGES
 66
     1
 10
0.0
 20
0.0
 30
0.0
  0
VERTEX
  5
96A
  8
PROFILEEDGES
 10
61.77447476810823
 20
111.9040004185097
 30
0.0
 40
25.4
 41
25.4
  0
VERTEX
  5
96B
  8
PROFILEEDGES
 10
61.69418395900966
 20
112.2483489188055
 30
0.0
 40
25.4
 41
25.4
  0
SEQEND
  5
E2F
  8
PROFILEEDGES
  0
POLYLINE
  5
310
  8
PROFILEEDGES
 66
     1
 10
0.0
 20
0.0
 30
0.0
  0
VERTEX
  5
96C
  8
PROFILEEDGES
 10
61.69418395900966
 20
112.2483489188055
 30
0.0
 40
25.4
 41
25.4
  0
VERTEX
  5
96D
  8
PROFILEEDGES
 10
61.6365865281616
 20
112.5972114126929
 30
0.0
 40
25.4
 41
25.4
  0
SEQEND
  5
E30
  8
PROFILEEDGES
  0
POLYLINE
  5
311
  8
PROFILEEDGES
 66
     1
 10
0.0
 20
0.0
 30
0.0
  0
VERTEX
  5
96E
  8
PROFILEEDGES
 10
61.6365865281616
 20
112.5972114126929
 30
0.0
 40
25.4
 41
25.4
  0
VERTEX
  5
96F
  8
PROFILEEDGES
 10
61.60192911660558
 20
112.9490940174148
 30
0.0
 40
25.4
 41
25.4
  0
SEQEND
  5
E31
  8
PROFILEEDGES
  0
POLYLINE
  5
312
  8
PROFILEEDGES
 66
     1
 10
0.0
 20
0.0
 30
0.0
  0
VERTEX
  5
970
  8
PROFILEEDGES
 10
61.60192911660558
 20
112.9490940174148
 30
0.0
 40
25.4
 41
25.4
  0
VERTEX
  5
971
  8
PROFILEEDGES
 10
61.59036013269845
 20
113.3024899176359
 30
0.0
 40
25.4
 41
25.4
  0
SEQEND
  5
E32
  8
PROFILEEDGES
  0
POLYLINE
  5
313
  8
PROFILEEDGES
 66
     1
 10
0.0
 20
0.0
 30
0.0
  0
VERTEX
  5
972
  8
PROFILEEDGES
 10
61.59036013269845
 20
113.3024899176359
 30
0.0
 40
25.4
 41
25.4
  0
VERTEX
  5
973
  8
PROFILEEDGES
 10
61.60192911660553
 20
113.6558858178568
 30
0.0
 40
25.4
 41
25.4
  0
SEQEND
  5
E33
  8
PROFILEEDGES
  0
POLYLINE
  5
314
  8
PROFILEEDGES
 66
     1
 10
0.0
 20
0.0
 30
0.0
  0
VERTEX
  5
974
  8
PROFILEEDGES
 10
61.60192911660553
 20
113.6558858178568
 30
0.0
 40
25.4
 41
25.4
  0
VERTEX
  5
975
  8
PROFILEEDGES
 10
61.63658652816151
 20
114.0077684225787
 30
0.0
 40
25.4
 41
25.4
  0
SEQEND
  5
E34
  8
PROFILEEDGES
  0
POLYLINE
  5
315
  8
PROFILEEDGES
 66
     1
 10
0.0
 20
0.0
 30
0.0
  0
VERTEX
  5
976
  8
PROFILEEDGES
 10
61.63658652816151
 20
114.0077684225787
 30
0.0
 40
25.4
 41
25.4
  0
VERTEX
  5
977
  8
PROFILEEDGES
 10
61.69418395900954
 20
114.3566309164662
 30
0.0
 40
25.4
 41
25.4
  0
SEQEND
  5
E35
  8
PROFILEEDGES
  0
POLYLINE
  5
316
  8
PROFILEEDGES
 66
     1
 10
0.0
 20
0.0
 30
0.0
  0
VERTEX
  5
978
  8
PROFILEEDGES
 10
61.69418395900954
 20
114.3566309164662
 30
0.0
 40
25.4
 41
25.4
  0
VERTEX
  5
979
  8
PROFILEEDGES
 10
61.77447476810806
 20
114.700979416762
 30
0.0
 40
25.4
 41
25.4
  0
SEQEND
  5
E36
  8
PROFILEEDGES
  0
POLYLINE
  5
317
  8
PROFILEEDGES
 66
     1
 10
0.0
 20
0.0
 30
0.0
  0
VERTEX
  5
97A
  8
PROFILEEDGES
 10
61.77447476810806
 20
114.700979416762
 30
0.0
 40
25.4
 41
25.4
  0
VERTEX
  5
97B
  8
PROFILEEDGES
 10
61.87711513788619
 20
115.0393393703225
 30
0.0
 40
25.4
 41
25.4
  0
SEQEND
  5
E37
  8
PROFILEEDGES
  0
POLYLINE
  5
318
  8
PROFILEEDGES
 66
     1
 10
0.0
 20
0.0
 30
0.0
  0
VERTEX
  5
97C
  8
PROFILEEDGES
 10
61.87711513788619
 20
115.0393393703225
 30
0.0
 40
25.4
 41
25.4
  0
VERTEX
  5
97D
  8
PROFILEEDGES
 10
62.00166554652276
 20
115.3702618678807
 30
0.0
 40
25.4
 41
25.4
  0
SEQEND
  5
E38
  8
PROFILEEDGES
  0
POLYLINE
  5
319
  8
PROFILEEDGES
 66
     1
 10
0.0
 20
0.0
 30
0.0
  0
VERTEX
  5
97E
  8
PROFILEEDGES
 10
62.00166554652276
 20
115.3702618678807
 30
0.0
 40
25.4
 41
25.4
  0
VERTEX
  5
97F
  8
PROFILEEDGES
 10
62.14759265004678
 20
115.6923298484976
 30
0.0
 40
25.4
 41
25.4
  0
SEQEND
  5
E39
  8
PROFILEEDGES
  0
POLYLINE
  5
31A
  8
PROFILEEDGES
 66
     1
 10
0.0
 20
0.0
 30
0.0
  0
VERTEX
  5
980
  8
PROFILEEDGES
 10
62.14759265004678
 20
115.6923298484976
 30
0.0
 40
25.4
 41
25.4
  0
VERTEX
  5
981
  8
PROFILEEDGES
 10
62.31427156619775
 20
116.0041641676359
 30
0.0
 40
25.4
 41
25.4
  0
SEQEND
  5
E3A
  8
PROFILEEDGES
  0
POLYLINE
  5
31B
  8
PROFILEEDGES
 66
     1
 10
0.0
 20
0.0
 30
0.0
  0
VERTEX
  5
982
  8
PROFILEEDGES
 10
62.31427156619775
 20
116.0041641676359
 30
0.0
 40
25.4
 41
25.4
  0
VERTEX
  5
983
  8
PROFILEEDGES
 10
62.50098855026775
 20
116.304429502867
 30
0.0
 40
25.4
 41
25.4
  0
SEQEND
  5
E3B
  8
PROFILEEDGES
  0
POLYLINE
  5
31C
  8
PROFILEEDGES
 66
     1
 10
0.0
 20
0.0
 30
0.0
  0
VERTEX
  5
984
  8
PROFILEEDGES
 10
62.50098855026775
 20
116.304429502867
 30
0.0
 40
25.4
 41
25.4
  0
VERTEX
  5
985
  8
PROFILEEDGES
 10
62.70694405146563
 20
116.591840071928
 30
0.0
 40
25.4
 41
25.4
  0
SEQEND
  5
E3C
  8
PROFILEEDGES
  0
POLYLINE
  5
31D
  8
PROFILEEDGES
 66
     1
 10
0.0
 20
0.0
 30
0.0
  0
VERTEX
  5
986
  8
PROFILEEDGES
 10
62.70694405146563
 20
116.591840071928
 30
0.0
 40
25.4
 41
25.4
  0
VERTEX
  5
987
  8
PROFILEEDGES
 10
62.93125613671643
 20
116.8651651386382
 30
0.0
 40
25.4
 41
25.4
  0
SEQEND
  5
E3D
  8
PROFILEEDGES
  0
POLYLINE
  5
31E
  8
PROFILEEDGES
 66
     1
 10
0.0
 20
0.0
 30
0.0
  0
VERTEX
  5
988
  8
PROFILEEDGES
 10
62.93125613671643
 20
116.8651651386382
 30
0.0
 40
25.4
 41
25.4
  0
VERTEX
  5
989
  8
PROFILEEDGES
 10
63.17296426723411
 20
117.1232342831001
 30
0.0
 40
25.4
 41
25.4
  0
SEQEND
  5
E3E
  8
PROFILEEDGES
  0
POLYLINE
  5
31F
  8
PROFILEEDGES
 66
     1
 10
0.0
 20
0.0
 30
0.0
  0
VERTEX
  5
98A
  8
PROFILEEDGES
 10
63.17296426723411
 20
117.1232342831001
 30
0.0
 40
25.4
 41
25.4
  0
VERTEX
  5
98B
  8
PROFILEEDGES
 10
63.43103341169599
 20
117.3649424136177
 30
0.0
 40
25.4
 41
25.4
  0
SEQEND
  5
E3F
  8
PROFILEEDGES
  0
POLYLINE
  5
320
  8
PROFILEEDGES
 66
     1
 10
0.0
 20
0.0
 30
0.0
  0
VERTEX
  5
98C
  8
PROFILEEDGES
 10
63.43103341169599
 20
117.3649424136177
 30
0.0
 40
25.4
 41
25.4
  0
VERTEX
  5
98D
  8
PROFILEEDGES
 10
63.70435847840609
 20
117.5892544988686
 30
0.0
 40
25.4
 41
25.4
  0
SEQEND
  5
E40
  8
PROFILEEDGES
  0
POLYLINE
  5
321
  8
PROFILEEDGES
 66
     1
 10
0.0
 20
0.0
 30
0.0
  0
VERTEX
  5
98E
  8
PROFILEEDGES
 10
63.70435847840609
 20
117.5892544988686
 30
0.0
 40
25.4
 41
25.4
  0
VERTEX
  5
98F
  8
PROFILEEDGES
 10
63.99176904746707
 20
117.7952100000665
 30
0.0
 40
25.4
 41
25.4
  0
SEQEND
  5
E41
  8
PROFILEEDGES
  0
POLYLINE
  5
322
  8
PROFILEEDGES
 66
     1
 10
0.0
 20
0.0
 30
0.0
  0
VERTEX
  5
990
  8
PROFILEEDGES
 10
63.99176904746707
 20
117.7952100000665
 30
0.0
 40
25.4
 41
25.4
  0
VERTEX
  5
991
  8
PROFILEEDGES
 10
64.29203438269819
 20
117.9819269841365
 30
0.0
 40
25.4
 41
25.4
  0
SEQEND
  5
E42
  8
PROFILEEDGES
  0
POLYLINE
  5
323
  8
PROFILEEDGES
 66
     1
 10
0.0
 20
0.0
 30
0.0
  0
VERTEX
  5
992
  8
PROFILEEDGES
 10
64.29203438269819
 20
117.9819269841365
 30
0.0
 40
25.4
 41
25.4
  0
VERTEX
  5
993
  8
PROFILEEDGES
 10
64.60386870183636
 20
118.1486059002875
 30
0.0
 40
25.4
 41
25.4
  0
SEQEND
  5
E43
  8
PROFILEEDGES
  0
POLYLINE
  5
324
  8
PROFILEEDGES
 66
     1
 10
0.0
 20
0.0
 30
0.0
  0
VERTEX
  5
994
  8
PROFILEEDGES
 10
64.60386870183636
 20
118.1486059002875
 30
0.0
 40
25.4
 41
25.4
  0
VERTEX
  5
995
  8
PROFILEEDGES
 10
64.92593668245338
 20
118.2945330038116
 30
0.0
 40
25.4
 41
25.4
  0
SEQEND
  5
E44
  8
PROFILEEDGES
  0
POLYLINE
  5
325
  8
PROFILEEDGES
 66
     1
 10
0.0
 20
0.0
 30
0.0
  0
VERTEX
  5
996
  8
PROFILEEDGES
 10
64.92593668245338
 20
118.2945330038116
 30
0.0
 40
25.4
 41
25.4
  0
VERTEX
  5
997
  8
PROFILEEDGES
 10
65.25685918001155
 20
118.4190834124482
 30
0.0
 40
25.4
 41
25.4
  0
SEQEND
  5
E45
  8
PROFILEEDGES
  0
POLYLINE
  5
326
  8
PROFILEEDGES
 66
     1
 10
0.0
 20
0.0
 30
0.0
  0
VERTEX
  5
998
  8
PROFILEEDGES
 10
65.25685918001155
 20
118.4190834124482
 30
0.0
 40
25.4
 41
25.4
  0
VERTEX
  5
999
  8
PROFILEEDGES
 10
65.59521913357204
 20
118.5217237822264
 30
0.0
 40
25.4
 41
25.4
  0
SEQEND
  5
E46
  8
PROFILEEDGES
  0
POLYLINE
  5
327
  8
PROFILEEDGES
 66
     1
 10
0.0
 20
0.0
 30
0.0
  0
VERTEX
  5
99A
  8
PROFILEEDGES
 10
65.59521913357204
 20
118.5217237822264
 30
0.0
 40
25.4
 41
25.4
  0
VERTEX
  5
99B
  8
PROFILEEDGES
 10
65.93956763386778
 20
118.602014591325
 30
0.0
 40
25.4
 41
25.4
  0
SEQEND
  5
E47
  8
PROFILEEDGES
  0
POLYLINE
  5
328
  8
PROFILEEDGES
 66
     1
 10
0.0
 20
0.0
 30
0.0
  0
VERTEX
  5
99C
  8
PROFILEEDGES
 10
65.93956763386778
 20
118.602014591325
 30
0.0
 40
25.4
 41
25.4
  0
VERTEX
  5
99D
  8
PROFILEEDGES
 10
66.28843012775523
 20
118.6596120221731
 30
0.0
 40
25.4
 41
25.4
  0
SEQEND
  5
E48
  8
PROFILEEDGES
  0
POLYLINE
  5
329
  8
PROFILEEDGES
 66
     1
 10
0.0
 20
0.0
 30
0.0
  0
VERTEX
  5
99E
  8
PROFILEEDGES
 10
66.28843012775523
 20
118.6596120221731
 30
0.0
 40
25.4
 41
25.4
  0
VERTEX
  5
99F
  8
PROFILEEDGES
 10
66.64031273247714
 20
118.694269433729
 30
0.0
 40
25.4
 41
25.4
  0
SEQEND
  5
E49
  8
PROFILEEDGES
  0
POLYLINE
  5
32A
  8
PROFILEEDGES
 66
     1
 10
0.0
 20
0.0
 30
0.0
  0
VERTEX
  5
9A0
  8
PROFILEEDGES
 10
66.64031273247714
 20
118.694269433729
 30
0.0
 40
25.4
 41
25.4
  0
VERTEX
  5
9A1
  8
PROFILEEDGES
 10
66.99370863269816
 20
118.7058384176362
 30
0.0
 40
25.4
 41
25.4
  0
SEQEND
  5
E4A
  8
PROFILEEDGES
  0
POLYLINE
  5
32B
  8
PROFILEEDGES
 66
     1
 10
0.0
 20
0.0
 30
0.0
  0
VERTEX
  5
9A2
  8
PROFILEEDGES
 10
66.99370863269816
 20
118.7058384176362
 30
0.0
 40
25.4
 41
25.4
  0
VERTEX
  5
9A3
  8
PROFILEEDGES
 10
67.34710453291915
 20
118.6942694337291
 30
0.0
 40
25.4
 41
25.4
  0
SEQEND
  5
E4B
  8
PROFILEEDGES
  0
POLYLINE
  5
32C
  8
PROFILEEDGES
 66
     1
 10
0.0
 20
0.0
 30
0.0
  0
VERTEX
  5
9A4
  8
PROFILEEDGES
 10
67.34710453291915
 20
118.6942694337291
 30
0.0
 40
25.4
 41
25.4
  0
VERTEX
  5
9A5
  8
PROFILEEDGES
 10
67.6989871376411
 20
118.6596120221731
 30
0.0
 40
25.4
 41
25.4
  0
SEQEND
  5
E4C
  8
PROFILEEDGES
  0
POLYLINE
  5
32D
  8
PROFILEEDGES
 66
     1
 10
0.0
 20
0.0
 30
0.0
  0
VERTEX
  5
9A6
  8
PROFILEEDGES
 10
67.6989871376411
 20
118.6596120221731
 30
0.0
 40
25.4
 41
25.4
  0
VERTEX
  5
9A7
  8
PROFILEEDGES
 10
68.04784963152855
 20
118.6020145913251
 30
0.0
 40
25.4
 41
25.4
  0
SEQEND
  5
E4D
  8
PROFILEEDGES
  0
POLYLINE
  5
32E
  8
PROFILEEDGES
 66
     1
 10
0.0
 20
0.0
 30
0.0
  0
VERTEX
  5
9A8
  8
PROFILEEDGES
 10
68.04784963152855
 20
118.6020145913251
 30
0.0
 40
25.4
 41
25.4
  0
VERTEX
  5
9A9
  8
PROFILEEDGES
 10
68.39219813182429
 20
118.5217237822266
 30
0.0
 40
25.4
 41
25.4
  0
SEQEND
  5
E4E
  8
PROFILEEDGES
  0
POLYLINE
  5
32F
  8
PROFILEEDGES
 66
     1
 10
0.0
 20
0.0
 30
0.0
  0
VERTEX
  5
9AA
  8
PROFILEEDGES
 10
68.39219813182429
 20
118.5217237822266
 30
0.0
 40
25.4
 41
25.4
  0
VERTEX
  5
9AB
  8
PROFILEEDGES
 10
68.73055808538479
 20
118.4190834124485
 30
0.0
 40
25.4
 41
25.4
  0
SEQEND
  5
E4F
  8
PROFILEEDGES
  0
POLYLINE
  5
330
  8
PROFILEEDGES
 66
     1
 10
0.0
 20
0.0
 30
0.0
  0
VERTEX
  5
9AC
  8
PROFILEEDGES
 10
68.73055808538479
 20
118.4190834124485
 30
0.0
 40
25.4
 41
25.4
  0
VERTEX
  5
9AD
  8
PROFILEEDGES
 10
69.0614805829429
 20
118.2945330038119
 30
0.0
 40
25.4
 41
25.4
  0
SEQEND
  5
E50
  8
PROFILEEDGES
  0
POLYLINE
  5
331
  8
PROFILEEDGES
 66
     1
 10
0.0
 20
0.0
 30
0.0
  0
VERTEX
  5
9AE
  8
PROFILEEDGES
 10
69.0614805829429
 20
118.2945330038119
 30
0.0
 40
25.4
 41
25.4
  0
VERTEX
  5
9AF
  8
PROFILEEDGES
 10
69.38354856355997
 20
118.1486059002879
 30
0.0
 40
25.4
 41
25.4
  0
SEQEND
  5
E51
  8
PROFILEEDGES
  0
POLYLINE
  5
332
  8
PROFILEEDGES
 66
     1
 10
0.0
 20
0.0
 30
0.0
  0
VERTEX
  5
9B0
  8
PROFILEEDGES
 10
69.38354856355997
 20
118.1486059002879
 30
0.0
 40
25.4
 41
25.4
  0
VERTEX
  5
9B1
  8
PROFILEEDGES
 10
69.69538288269821
 20
117.9819269841369
 30
0.0
 40
25.4
 41
25.4
  0
SEQEND
  5
E52
  8
PROFILEEDGES
  0
POLYLINE
  5
333
  8
PROFILEEDGES
 66
     1
 10
0.0
 20
0.0
 30
0.0
  0
VERTEX
  5
9B2
  8
PROFILEEDGES
 10
52.87269785370194
 20
92.80426741361704
 30
0.0
 40
25.4
 41
25.4
  0
VERTEX
  5
9B3
  8
PROFILEEDGES
 10
53.13076699816382
 20
92.56255928309952
 30
0.0
 40
25.4
 41
25.4
  0
SEQEND
  5
E53
  8
PROFILEEDGES
  0
POLYLINE
  5
334
  8
PROFILEEDGES
 66
     1
 10
0.0
 20
0.0
 30
0.0
  0
VERTEX
  5
9B4
  8
PROFILEEDGES
 10
53.13076699816382
 20
92.56255928309952
 30
0.0
 40
25.4
 41
25.4
  0
VERTEX
  5
9B5
  8
PROFILEEDGES
 10
53.37247512868153
 20
92.30449013863755
 30
0.0
 40
25.4
 41
25.4
  0
SEQEND
  5
E54
  8
PROFILEEDGES
  0
POLYLINE
  5
335
  8
PROFILEEDGES
 66
     1
 10
0.0
 20
0.0
 30
0.0
  0
VERTEX
  5
9B6
  8
PROFILEEDGES
 10
53.37247512868153
 20
92.30449013863755
 30
0.0
 40
25.4
 41
25.4
  0
VERTEX
  5
9B7
  8
PROFILEEDGES
 10
53.59678721393238
 20
92.0311650719275
 30
0.0
 40
25.4
 41
25.4
  0
SEQEND
  5
E55
  8
PROFILEEDGES
  0
POLYLINE
  5
336
  8
PROFILEEDGES
 66
     1
 10
0.0
 20
0.0
 30
0.0
  0
VERTEX
  5
9B8
  8
PROFILEEDGES
 10
53.59678721393238
 20
92.0311650719275
 30
0.0
 40
25.4
 41
25.4
  0
VERTEX
  5
9B9
  8
PROFILEEDGES
 10
53.80274271513026
 20
91.74375450286644
 30
0.0
 40
25.4
 41
25.4
  0
SEQEND
  5
E56
  8
PROFILEEDGES
  0
POLYLINE
  5
337
  8
PROFILEEDGES
 66
     1
 10
0.0
 20
0.0
 30
0.0
  0
VERTEX
  5
9BA
  8
PROFILEEDGES
 10
53.80274271513026
 20
91.74375450286644
 30
0.0
 40
25.4
 41
25.4
  0
VERTEX
  5
9BB
  8
PROFILEEDGES
 10
53.9894596992003
 20
91.4434891676354
 30
0.0
 40
25.4
 41
25.4
  0
SEQEND
  5
E57
  8
PROFILEEDGES
  0
POLYLINE
  5
338
  8
PROFILEEDGES
 66
     1
 10
0.0
 20
0.0
 30
0.0
  0
VERTEX
  5
9BC
  8
PROFILEEDGES
 10
53.9894596992003
 20
91.4434891676354
 30
0.0
 40
25.4
 41
25.4
  0
VERTEX
  5
9BD
  8
PROFILEEDGES
 10
54.15613861535132
 20
91.13165484849719
 30
0.0
 40
25.4
 41
25.4
  0
SEQEND
  5
E58
  8
PROFILEEDGES
  0
POLYLINE
  5
339
  8
PROFILEEDGES
 66
     1
 10
0.0
 20
0.0
 30
0.0
  0
VERTEX
  5
9BE
  8
PROFILEEDGES
 10
54.15613861535132
 20
91.13165484849719
 30
0.0
 40
25.4
 41
25.4
  0
VERTEX
  5
9BF
  8
PROFILEEDGES
 10
54.30206571887538
 20
90.80958686788009
 30
0.0
 40
25.4
 41
25.4
  0
SEQEND
  5
E59
  8
PROFILEEDGES
  0
POLYLINE
  5
33A
  8
PROFILEEDGES
 66
     1
 10
0.0
 20
0.0
 30
0.0
  0
VERTEX
  5
9C0
  8
PROFILEEDGES
 10
54.30206571887538
 20
90.80958686788009
 30
0.0
 40
25.4
 41
25.4
  0
VERTEX
  5
9C1
  8
PROFILEEDGES
 10
54.42661612751201
 20
90.47866437032201
 30
0.0
 40
25.4
 41
25.4
  0
SEQEND
  5
E5A
  8
PROFILEEDGES
  0
POLYLINE
  5
33B
  8
PROFILEEDGES
 66
     1
 10
0.0
 20
0.0
 30
0.0
  0
VERTEX
  5
9C2
  8
PROFILEEDGES
 10
54.42661612751201
 20
90.47866437032201
 30
0.0
 40
25.4
 41
25.4
  0
VERTEX
  5
9C3
  8
PROFILEEDGES
 10
54.52925649729015
 20
90.14030441676158
 30
0.0
 40
25.4
 41
25.4
  0
SEQEND
  5
E5B
  8
PROFILEEDGES
  0
POLYLINE
  5
33C
  8
PROFILEEDGES
 66
     1
 10
0.0
 20
0.0
 30
0.0
  0
VERTEX
  5
9C4
  8
PROFILEEDGES
 10
54.52925649729015
 20
90.14030441676158
 30
0.0
 40
25.4
 41
25.4
  0
VERTEX
  5
9C5
  8
PROFILEEDGES
 10
54.60954730638873
 20
89.79595591646577
 30
0.0
 40
25.4
 41
25.4
  0
SEQEND
  5
E5C
  8
PROFILEEDGES
  0
POLYLINE
  5
33D
  8
PROFILEEDGES
 66
     1
 10
0.0
 20
0.0
 30
0.0
  0
VERTEX
  5
9C6
  8
PROFILEEDGES
 10
54.60954730638873
 20
89.79595591646577
 30
0.0
 40
25.4
 41
25.4
  0
VERTEX
  5
9C7
  8
PROFILEEDGES
 10
54.66714473723678
 20
89.44709342257826
 30
0.0
 40
25.4
 41
25.4
  0
SEQEND
  5
E5D
  8
PROFILEEDGES
  0
POLYLINE
  5
33E
  8
PROFILEEDGES
 66
     1
 10
0.0
 20
0.0
 30
0.0
  0
VERTEX
  5
9C8
  8
PROFILEEDGES
 10
54.66714473723678
 20
89.44709342257826
 30
0.0
 40
25.4
 41
25.4
  0
VERTEX
  5
9C9
  8
PROFILEEDGES
 10
54.70180214879282
 20
89.09521081785645
 30
0.0
 40
25.4
 41
25.4
  0
SEQEND
  5
E5E
  8
PROFILEEDGES
  0
POLYLINE
  5
33F
  8
PROFILEEDGES
 66
     1
 10
0.0
 20
0.0
 30
0.0
  0
VERTEX
  5
9CA
  8
PROFILEEDGES
 10
54.70180214879282
 20
89.09521081785645
 30
0.0
 40
25.4
 41
25.4
  0
VERTEX
  5
9CB
  8
PROFILEEDGES
 10
54.71337113269995
 20
88.74181491763541
 30
0.0
 40
25.4
 41
25.4
  0
SEQEND
  5
E5F
  8
PROFILEEDGES
  0
POLYLINE
  5
340
  8
PROFILEEDGES
 66
     1
 10
0.0
 20
0.0
 30
0.0
  0
VERTEX
  5
9CC
  8
PROFILEEDGES
 10
54.71337113269995
 20
88.74181491763541
 30
0.0
 40
25.4
 41
25.4
  0
VERTEX
  5
9CD
  8
PROFILEEDGES
 10
54.70180214879286
 20
88.38841901741438
 30
0.0
 40
25.4
 41
25.4
  0
SEQEND
  5
E60
  8
PROFILEEDGES
  0
POLYLINE
  5
341
  8
PROFILEEDGES
 66
     1
 10
0.0
 20
0.0
 30
0.0
  0
VERTEX
  5
9CE
  8
PROFILEEDGES
 10
54.70180214879286
 20
88.38841901741438
 30
0.0
 40
25.4
 41
25.4
  0
VERTEX
  5
9CF
  8
PROFILEEDGES
 10
54.66714473723687
 20
88.03653641269248
 30
0.0
 40
25.4
 41
25.4
  0
SEQEND
  5
E61
  8
PROFILEEDGES
  0
POLYLINE
  5
342
  8
PROFILEEDGES
 66
     1
 10
0.0
 20
0.0
 30
0.0
  0
VERTEX
  5
9D0
  8
PROFILEEDGES
 10
54.66714473723687
 20
88.03653641269248
 30
0.0
 40
25.4
 41
25.4
  0
VERTEX
  5
9D1
  8
PROFILEEDGES
 10
54.60954730638885
 20
87.68767391880506
 30
0.0
 40
25.4
 41
25.4
  0
SEQEND
  5
E62
  8
PROFILEEDGES
  0
POLYLINE
  5
343
  8
PROFILEEDGES
 66
     1
 10
0.0
 20
0.0
 30
0.0
  0
VERTEX
  5
9D2
  8
PROFILEEDGES
 10
54.60954730638885
 20
87.68767391880506
 30
0.0
 40
25.4
 41
25.4
  0
VERTEX
  5
9D3
  8
PROFILEEDGES
 10
54.52925649729033
 20
87.34332541850921
 30
0.0
 40
25.4
 41
25.4
  0
SEQEND
  5
E63
  8
PROFILEEDGES
  0
POLYLINE
  5
344
  8
PROFILEEDGES
 66
     1
 10
0.0
 20
0.0
 30
0.0
  0
VERTEX
  5
9D4
  8
PROFILEEDGES
 10
54.52925649729033
 20
87.34332541850921
 30
0.0
 40
25.4
 41
25.4
  0
VERTEX
  5
9D5
  8
PROFILEEDGES
 10
54.42661612751221
 20
87.00496546494878
 30
0.0
 40
25.4
 41
25.4
  0
SEQEND
  5
E64
  8
PROFILEEDGES
  0
POLYLINE
  5
345
  8
PROFILEEDGES
 66
     1
 10
0.0
 20
0.0
 30
0.0
  0
VERTEX
  5
9D6
  8
PROFILEEDGES
 10
54.42661612751221
 20
87.00496546494878
 30
0.0
 40
25.4
 41
25.4
  0
VERTEX
  5
9D7
  8
PROFILEEDGES
 10
54.30206571887564
 20
86.67404296739065
 30
0.0
 40
25.4
 41
25.4
  0
SEQEND
  5
E65
  8
PROFILEEDGES
  0
POLYLINE
  5
346
  8
PROFILEEDGES
 66
     1
 10
0.0
 20
0.0
 30
0.0
  0
VERTEX
  5
9D8
  8
PROFILEEDGES
 10
54.30206571887564
 20
86.67404296739065
 30
0.0
 40
25.4
 41
25.4
  0
VERTEX
  5
9D9
  8
PROFILEEDGES
 10
54.15613861535163
 20
86.35197498677351
 30
0.0
 40
25.4
 41
25.4
  0
SEQEND
  5
E66
  8
PROFILEEDGES
  0
POLYLINE
  5
347
  8
PROFILEEDGES
 66
     1
 10
0.0
 20
0.0
 30
0.0
  0
VERTEX
  5
9DA
  8
PROFILEEDGES
 10
54.15613861535163
 20
86.35197498677351
 30
0.0
 40
25.4
 41
25.4
  0
VERTEX
  5
9DB
  8
PROFILEEDGES
 10
53.98945969920064
 20
86.04014066763531
 30
0.0
 40
25.4
 41
25.4
  0
SEQEND
  5
E67
  8
PROFILEEDGES
  0
POLYLINE
  5
348
  8
PROFILEEDGES
 66
     1
 10
0.0
 20
0.0
 30
0.0
  0
VERTEX
  5
9DC
  8
PROFILEEDGES
 10
53.98945969920064
 20
86.04014066763531
 30
0.0
 40
25.4
 41
25.4
  0
VERTEX
  5
9DD
  8
PROFILEEDGES
 10
53.80274271513066
 20
85.73987533240415
 30
0.0
 40
25.4
 41
25.4
  0
SEQEND
  5
E68
  8
PROFILEEDGES
  0
POLYLINE
  5
349
  8
PROFILEEDGES
 66
     1
 10
0.0
 20
0.0
 30
0.0
  0
VERTEX
  5
9DE
  8
PROFILEEDGES
 10
53.80274271513066
 20
85.73987533240415
 30
0.0
 40
25.4
 41
25.4
  0
VERTEX
  5
9DF
  8
PROFILEEDGES
 10
53.59678721393276
 20
85.45246476334314
 30
0.0
 40
25.4
 41
25.4
  0
SEQEND
  5
E69
  8
PROFILEEDGES
  0
POLYLINE
  5
34A
  8
PROFILEEDGES
 66
     1
 10
0.0
 20
0.0
 30
0.0
  0
VERTEX
  5
9E0
  8
PROFILEEDGES
 10
53.59678721393276
 20
85.45246476334314
 30
0.0
 40
25.4
 41
25.4
  0
VERTEX
  5
9E1
  8
PROFILEEDGES
 10
53.37247512868201
 20
85.17913969663311
 30
0.0
 40
25.4
 41
25.4
  0
SEQEND
  5
E6A
  8
PROFILEEDGES
  0
POLYLINE
  5
34B
  8
PROFILEEDGES
 66
     1
 10
0.0
 20
0.0
 30
0.0
  0
VERTEX
  5
9E2
  8
PROFILEEDGES
 10
53.37247512868201
 20
85.17913969663311
 30
0.0
 40
25.4
 41
25.4
  0
VERTEX
  5
9E3
  8
PROFILEEDGES
 10
53.13076699816433
 20
84.92107055217113
 30
0.0
 40
25.4
 41
25.4
  0
SEQEND
  5
E6B
  8
PROFILEEDGES
  0
POLYLINE
  5
34C
  8
PROFILEEDGES
 66
     1
 10
0.0
 20
0.0
 30
0.0
  0
VERTEX
  5
9E4
  8
PROFILEEDGES
 10
53.13076699816433
 20
84.92107055217113
 30
0.0
 40
25.4
 41
25.4
  0
VERTEX
  5
9E5
  8
PROFILEEDGES
 10
52.87269785370241
 20
84.67936242165348
 30
0.0
 40
25.4
 41
25.4
  0
SEQEND
  5
E6C
  8
PROFILEEDGES
  0
POLYLINE
  5
34D
  8
PROFILEEDGES
 66
     1
 10
0.0
 20
0.0
 30
0.0
  0
VERTEX
  5
9E6
  8
PROFILEEDGES
 10
52.87269785370241
 20
84.67936242165348
 30
0.0
 40
25.4
 41
25.4
  0
VERTEX
  5
9E7
  8
PROFILEEDGES
 10
52.59937278699236
 20
84.45505033640264
 30
0.0
 40
25.4
 41
25.4
  0
SEQEND
  5
E6D
  8
PROFILEEDGES
  0
POLYLINE
  5
34E
  8
PROFILEEDGES
 66
     1
 10
0.0
 20
0.0
 30
0.0
  0
VERTEX
  5
9E8
  8
PROFILEEDGES
 10
52.59937278699236
 20
84.45505033640264
 30
0.0
 40
25.4
 41
25.4
  0
VERTEX
  5
9E9
  8
PROFILEEDGES
 10
52.31196221793132
 20
84.24909483520466
 30
0.0
 40
25.4
 41
25.4
  0
SEQEND
  5
E6E
  8
PROFILEEDGES
  0
POLYLINE
  5
34F
  8
PROFILEEDGES
 66
     1
 10
0.0
 20
0.0
 30
0.0
  0
VERTEX
  5
9EA
  8
PROFILEEDGES
 10
52.31196221793132
 20
84.24909483520466
 30
0.0
 40
25.4
 41
25.4
  0
VERTEX
  5
9EB
  8
PROFILEEDGES
 10
52.01169688270019
 20
84.06237785113471
 30
0.0
 40
25.4
 41
25.4
  0
SEQEND
  5
E6F
  8
PROFILEEDGES
  0
POLYLINE
  5
350
  8
PROFILEEDGES
 66
     1
 10
0.0
 20
0.0
 30
0.0
  0
VERTEX
  5
9EC
  8
PROFILEEDGES
 10
52.01169688270019
 20
84.06237785113471
 30
0.0
 40
25.4
 41
25.4
  0
VERTEX
  5
9ED
  8
PROFILEEDGES
 10
51.69986256356199
 20
83.89569893498366
 30
0.0
 40
25.4
 41
25.4
  0
SEQEND
  5
E70
  8
PROFILEEDGES
  0
POLYLINE
  5
351
  8
PROFILEEDGES
 66
     1
 10
0.0
 20
0.0
 30
0.0
  0
VERTEX
  5
9EE
  8
PROFILEEDGES
 10
51.69986256356199
 20
83.89569893498366
 30
0.0
 40
25.4
 41
25.4
  0
VERTEX
  5
9EF
  8
PROFILEEDGES
 10
51.37779458294501
 20
83.74977183145955
 30
0.0
 40
25.4
 41
25.4
  0
SEQEND
  5
E71
  8
PROFILEEDGES
  0
POLYLINE
  5
352
  8
PROFILEEDGES
 66
     1
 10
0.0
 20
0.0
 30
0.0
  0
VERTEX
  5
9F0
  8
PROFILEEDGES
 10
51.37779458294501
 20
83.74977183145955
 30
0.0
 40
25.4
 41
25.4
  0
VERTEX
  5
9F1
  8
PROFILEEDGES
 10
51.0468720853869
 20
83.62522142282292
 30
0.0
 40
25.4
 41
25.4
  0
SEQEND
  5
E72
  8
PROFILEEDGES
  0
POLYLINE
  5
353
  8
PROFILEEDGES
 66
     1
 10
0.0
 20
0.0
 30
0.0
  0
VERTEX
  5
9F2
  8
PROFILEEDGES
 10
51.0468720853869
 20
83.62522142282292
 30
0.0
 40
25.4
 41
25.4
  0
VERTEX
  5
9F3
  8
PROFILEEDGES
 10
50.70851213182641
 20
83.52258105304479
 30
0.0
 40
25.4
 41
25.4
  0
SEQEND
  5
E73
  8
PROFILEEDGES
  0
POLYLINE
  5
354
  8
PROFILEEDGES
 66
     1
 10
0.0
 20
0.0
 30
0.0
  0
VERTEX
  5
9F4
  8
PROFILEEDGES
 10
50.70851213182641
 20
83.52258105304479
 30
0.0
 40
25.4
 41
25.4
  0
VERTEX
  5
9F5
  8
PROFILEEDGES
 10
50.36416363153062
 20
83.44229024394619
 30
0.0
 40
25.4
 41
25.4
  0
SEQEND
  5
E74
  8
PROFILEEDGES
  0
POLYLINE
  5
355
  8
PROFILEEDGES
 66
     1
 10
0.0
 20
0.0
 30
0.0
  0
VERTEX
  5
9F6
  8
PROFILEEDGES
 10
50.36416363153062
 20
83.44229024394619
 30
0.0
 40
25.4
 41
25.4
  0
VERTEX
  5
9F7
  8
PROFILEEDGES
 10
50.01530113764315
 20
83.38469281309824
 30
0.0
 40
25.4
 41
25.4
  0
SEQEND
  5
E75
  8
PROFILEEDGES
  0
POLYLINE
  5
356
  8
PROFILEEDGES
 66
     1
 10
0.0
 20
0.0
 30
0.0
  0
VERTEX
  5
9F8
  8
PROFILEEDGES
 10
50.01530113764315
 20
83.38469281309824
 30
0.0
 40
25.4
 41
25.4
  0
VERTEX
  5
9F9
  8
PROFILEEDGES
 10
49.66341853292121
 20
83.35003540154219
 30
0.0
 40
25.4
 41
25.4
  0
SEQEND
  5
E76
  8
PROFILEEDGES
  0
POLYLINE
  5
357
  8
PROFILEEDGES
 66
     1
 10
0.0
 20
0.0
 30
0.0
  0
VERTEX
  5
9FA
  8
PROFILEEDGES
 10
49.66341853292121
 20
83.35003540154219
 30
0.0
 40
25.4
 41
25.4
  0
VERTEX
  5
9FB
  8
PROFILEEDGES
 10
49.31002263270022
 20
83.33846641763509
 30
0.0
 40
25.4
 41
25.4
  0
SEQEND
  5
E77
  8
PROFILEEDGES
  0
POLYLINE
  5
358
  8
PROFILEEDGES
 66
     1
 10
0.0
 20
0.0
 30
0.0
  0
VERTEX
  5
9FC
  8
PROFILEEDGES
 10
49.31002263270022
 20
83.33846641763509
 30
0.0
 40
25.4
 41
25.4
  0
VERTEX
  5
9FD
  8
PROFILEEDGES
 10
48.95662673247921
 20
83.35003540154214
 30
0.0
 40
25.4
 41
25.4
  0
SEQEND
  5
E78
  8
PROFILEEDGES
  0
POLYLINE
  5
359
  8
PROFILEEDGES
 66
     1
 10
0.0
 20
0.0
 30
0.0
  0
VERTEX
  5
9FE
  8
PROFILEEDGES
 10
48.95662673247921
 20
83.35003540154214
 30
0.0
 40
25.4
 41
25.4
  0
VERTEX
  5
9FF
  8
PROFILEEDGES
 10
48.60474412775731
 20
83.38469281309814
 30
0.0
 40
25.4
 41
25.4
  0
SEQEND
  5
E79
  8
PROFILEEDGES
  0
POLYLINE
  5
35A
  8
PROFILEEDGES
 66
     1
 10
0.0
 20
0.0
 30
0.0
  0
VERTEX
  5
A00
  8
PROFILEEDGES
 10
48.60474412775731
 20
83.38469281309814
 30
0.0
 40
25.4
 41
25.4
  0
VERTEX
  5
A01
  8
PROFILEEDGES
 10
48.25588163386985
 20
83.44229024394615
 30
0.0
 40
25.4
 41
25.4
  0
SEQEND
  5
E7A
  8
PROFILEEDGES
  0
POLYLINE
  5
35B
  8
PROFILEEDGES
 66
     1
 10
0.0
 20
0.0
 30
0.0
  0
VERTEX
  5
A02
  8
PROFILEEDGES
 10
48.25588163386985
 20
83.44229024394615
 30
0.0
 40
25.4
 41
25.4
  0
VERTEX
  5
A03
  8
PROFILEEDGES
 10
47.91153313357406
 20
83.52258105304469
 30
0.0
 40
25.4
 41
25.4
  0
SEQEND
  5
E7B
  8
PROFILEEDGES
  0
POLYLINE
  5
35C
  8
PROFILEEDGES
 66
     1
 10
0.0
 20
0.0
 30
0.0
  0
VERTEX
  5
A04
  8
PROFILEEDGES
 10
47.91153313357406
 20
83.52258105304469
 30
0.0
 40
25.4
 41
25.4
  0
VERTEX
  5
A05
  8
PROFILEEDGES
 10
47.57317318001355
 20
83.62522142282273
 30
0.0
 40
25.4
 41
25.4
  0
SEQEND
  5
E7C
  8
PROFILEEDGES
  0
POLYLINE
  5
35D
  8
PROFILEEDGES
 66
     1
 10
0.0
 20
0.0
 30
0.0
  0
VERTEX
  5
A06
  8
PROFILEEDGES
 10
47.57317318001355
 20
83.62522142282273
 30
0.0
 40
25.4
 41
25.4
  0
VERTEX
  5
A07
  8
PROFILEEDGES
 10
47.24225068245545
 20
83.74977183145941
 30
0.0
 40
25.4
 41
25.4
  0
SEQEND
  5
E7D
  8
PROFILEEDGES
  0
POLYLINE
  5
35E
  8
PROFILEEDGES
 66
     1
 10
0.0
 20
0.0
 30
0.0
  0
VERTEX
  5
A08
  8
PROFILEEDGES
 10
47.24225068245545
 20
83.74977183145941
 30
0.0
 40
25.4
 41
25.4
  0
VERTEX
  5
A09
  8
PROFILEEDGES
 10
46.92018270183835
 20
83.89569893498336
 30
0.0
 40
25.4
 41
25.4
  0
SEQEND
  5
E7E
  8
PROFILEEDGES
  0
POLYLINE
  5
35F
  8
PROFILEEDGES
 66
     1
 10
0.0
 20
0.0
 30
0.0
  0
VERTEX
  5
A0A
  8
PROFILEEDGES
 10
46.92018270183835
 20
83.89569893498336
 30
0.0
 40
25.4
 41
25.4
  0
VERTEX
  5
A0B
  8
PROFILEEDGES
 10
46.60834838270018
 20
84.06237785113433
 30
0.0
 40
25.4
 41
25.4
  0
SEQEND
  5
E7F
  8
PROFILEEDGES
  0
POLYLINE
  5
360
  8
PROFILEEDGES
 66
     1
 10
0.0
 20
0.0
 30
0.0
  0
VERTEX
  5
A0C
  8
PROFILEEDGES
 10
46.60834838270018
 20
84.06237785113433
 30
0.0
 40
25.4
 41
25.4
  0
VERTEX
  5
A0D
  8
PROFILEEDGES
 10
46.30808304746905
 20
84.24909483520429
 30
0.0
 40
25.4
 41
25.4
  0
SEQEND
  5
E80
  8
PROFILEEDGES
  0
POLYLINE
  5
361
  8
PROFILEEDGES
 66
     1
 10
0.0
 20
0.0
 30
0.0
  0
VERTEX
  5
A0E
  8
PROFILEEDGES
 10
46.30808304746905
 20
84.24909483520429
 30
0.0
 40
25.4
 41
25.4
  0
VERTEX
  5
A0F
  8
PROFILEEDGES
 10
46.02067247840802
 20
84.45505033640221
 30
0.0
 40
25.4
 41
25.4
  0
SEQEND
  5
E81
  8
PROFILEEDGES
  0
POLYLINE
  5
362
  8
PROFILEEDGES
 66
     1
 10
0.0
 20
0.0
 30
0.0
  0
VERTEX
  5
A10
  8
PROFILEEDGES
 10
46.02067247840802
 20
84.45505033640221
 30
0.0
 40
25.4
 41
25.4
  0
VERTEX
  5
A11
  8
PROFILEEDGES
 10
45.74734741169787
 20
84.67936242165298
 30
0.0
 40
25.4
 41
25.4
  0
SEQEND
  5
E82
  8
PROFILEEDGES
  0
POLYLINE
  5
363
  8
PROFILEEDGES
 66
     1
 10
0.0
 20
0.0
 30
0.0
  0
VERTEX
  5
A12
  8
PROFILEEDGES
 10
45.74734741169787
 20
84.67936242165298
 30
0.0
 40
25.4
 41
25.4
  0
VERTEX
  5
A13
  8
PROFILEEDGES
 10
45.48927826723595
 20
84.92107055217072
 30
0.0
 40
25.4
 41
25.4
  0
SEQEND
  5
E83
  8
PROFILEEDGES
  0
POLYLINE
  5
364
  8
PROFILEEDGES
 66
     1
 10
0.0
 20
0.0
 30
0.0
  0
VERTEX
  5
A14
  8
PROFILEEDGES
 10
45.48927826723595
 20
84.92107055217072
 30
0.0
 40
25.4
 41
25.4
  0
VERTEX
  5
A15
  8
PROFILEEDGES
 10
45.24757013671828
 20
85.17913969663255
 30
0.0
 40
25.4
 41
25.4
  0
SEQEND
  5
E84
  8
PROFILEEDGES
  0
POLYLINE
  5
365
  8
PROFILEEDGES
 66
     1
 10
0.0
 20
0.0
 30
0.0
  0
VERTEX
  5
A16
  8
PROFILEEDGES
 10
45.24757013671828
 20
85.17913969663255
 30
0.0
 40
25.4
 41
25.4
  0
VERTEX
  5
A17
  8
PROFILEEDGES
 10
45.02325805146744
 20
85.4524647633427
 30
0.0
 40
25.4
 41
25.4
  0
SEQEND
  5
E85
  8
PROFILEEDGES
  0
POLYLINE
  5
366
  8
PROFILEEDGES
 66
     1
 10
0.0
 20
0.0
 30
0.0
  0
VERTEX
  5
A18
  8
PROFILEEDGES
 10
45.02325805146744
 20
85.4524647633427
 30
0.0
 40
25.4
 41
25.4
  0
VERTEX
  5
A19
  8
PROFILEEDGES
 10
44.81730255026951
 20
85.73987533240368
 30
0.0
 40
25.4
 41
25.4
  0
SEQEND
  5
E86
  8
PROFILEEDGES
  0
POLYLINE
  5
367
  8
PROFILEEDGES
 66
     1
 10
0.0
 20
0.0
 30
0.0
  0
VERTEX
  5
A1A
  8
PROFILEEDGES
 10
44.81730255026951
 20
85.73987533240368
 30
0.0
 40
25.4
 41
25.4
  0
VERTEX
  5
A1B
  8
PROFILEEDGES
 10
44.63058556619948
 20
86.04014066763484
 30
0.0
 40
25.4
 41
25.4
  0
SEQEND
  5
E87
  8
PROFILEEDGES
  0
POLYLINE
  5
368
  8
PROFILEEDGES
 66
     1
 10
0.0
 20
0.0
 30
0.0
  0
VERTEX
  5
A1C
  8
PROFILEEDGES
 10
44.63058556619948
 20
86.04014066763484
 30
0.0
 40
25.4
 41
25.4
  0
VERTEX
  5
A1D
  8
PROFILEEDGES
 10
44.46390665004849
 20
86.35197498677306
 30
0.0
 40
25.4
 41
25.4
  0
SEQEND
  5
E88
  8
PROFILEEDGES
  0
POLYLINE
  5
369
  8
PROFILEEDGES
 66
     1
 10
0.0
 20
0.0
 30
0.0
  0
VERTEX
  5
A1E
  8
PROFILEEDGES
 10
44.46390665004849
 20
86.35197498677306
 30
0.0
 40
25.4
 41
25.4
  0
VERTEX
  5
A1F
  8
PROFILEEDGES
 10
44.31797954652448
 20
86.67404296738997
 30
0.0
 40
25.4
 41
25.4
  0
SEQEND
  5
E89
  8
PROFILEEDGES
  0
POLYLINE
  5
36A
  8
PROFILEEDGES
 66
     1
 10
0.0
 20
0.0
 30
0.0
  0
VERTEX
  5
A20
  8
PROFILEEDGES
 10
44.31797954652448
 20
86.67404296738997
 30
0.0
 40
25.4
 41
25.4
  0
VERTEX
  5
A21
  8
PROFILEEDGES
 10
44.19342913788781
 20
87.00496546494809
 30
0.0
 40
25.4
 41
25.4
  0
SEQEND
  5
E8A
  8
PROFILEEDGES
  0
POLYLINE
  5
36B
  8
PROFILEEDGES
 66
     1
 10
0.0
 20
0.0
 30
0.0
  0
VERTEX
  5
A22
  8
PROFILEEDGES
 10
44.19342913788781
 20
87.00496546494809
 30
0.0
 40
25.4
 41
25.4
  0
VERTEX
  5
A23
  8
PROFILEEDGES
 10
44.09078876810968
 20
87.34332541850867
 30
0.0
 40
25.4
 41
25.4
  0
SEQEND
  5
E8B
  8
PROFILEEDGES
  0
POLYLINE
  5
36C
  8
PROFILEEDGES
 66
     1
 10
0.0
 20
0.0
 30
0.0
  0
VERTEX
  5
A24
  8
PROFILEEDGES
 10
44.09078876810968
 20
87.34332541850867
 30
0.0
 40
25.4
 41
25.4
  0
VERTEX
  5
A25
  8
PROFILEEDGES
 10
44.01049795901108
 20
87.68767391880445
 30
0.0
 40
25.4
 41
25.4
  0
SEQEND
  5
E8C
  8
PROFILEEDGES
  0
POLYLINE
  5
36D
  8
PROFILEEDGES
 66
     1
 10
0.0
 20
0.0
 30
0.0
  0
VERTEX
  5
A26
  8
PROFILEEDGES
 10
44.01049795901108
 20
87.68767391880445
 30
0.0
 40
25.4
 41
25.4
  0
VERTEX
  5
A27
  8
PROFILEEDGES
 10
43.95290052816307
 20
88.0365364126918
 30
0.0
 40
25.4
 41
25.4
  0
SEQEND
  5
E8D
  8
PROFILEEDGES
  0
POLYLINE
  5
36E
  8
PROFILEEDGES
 66
     1
 10
0.0
 20
0.0
 30
0.0
  0
VERTEX
  5
A28
  8
PROFILEEDGES
 10
43.95290052816307
 20
88.0365364126918
 30
0.0
 40
25.4
 41
25.4
  0
VERTEX
  5
A29
  8
PROFILEEDGES
 10
43.91824311660699
 20
88.38841901741384
 30
0.0
 40
25.4
 41
25.4
  0
SEQEND
  5
E8E
  8
PROFILEEDGES
  0
POLYLINE
  5
36F
  8
PROFILEEDGES
 66
     1
 10
0.0
 20
0.0
 30
0.0
  0
VERTEX
  5
A2A
  8
PROFILEEDGES
 10
43.91824311660699
 20
88.38841901741384
 30
0.0
 40
25.4
 41
25.4
  0
VERTEX
  5
A2B
  8
PROFILEEDGES
 10
43.90667413269991
 20
88.74181491763476
 30
0.0
 40
25.4
 41
25.4
  0
SEQEND
  5
E8F
  8
PROFILEEDGES
  0
POLYLINE
  5
370
  8
PROFILEEDGES
 66
     1
 10
0.0
 20
0.0
 30
0.0
  0
VERTEX
  5
A2C
  8
PROFILEEDGES
 10
43.90667413269991
 20
88.74181491763476
 30
0.0
 40
25.4
 41
25.4
  0
VERTEX
  5
A2D
  8
PROFILEEDGES
 10
43.91824311660694
 20
89.09521081785567
 30
0.0
 40
25.4
 41
25.4
  0
SEQEND
  5
E90
  8
PROFILEEDGES
  0
POLYLINE
  5
371
  8
PROFILEEDGES
 66
     1
 10
0.0
 20
0.0
 30
0.0
  0
VERTEX
  5
A2E
  8
PROFILEEDGES
 10
43.91824311660694
 20
89.09521081785567
 30
0.0
 40
25.4
 41
25.4
  0
VERTEX
  5
A2F
  8
PROFILEEDGES
 10
43.95290052816298
 20
89.4470934225777
 30
0.0
 40
25.4
 41
25.4
  0
SEQEND
  5
E91
  8
PROFILEEDGES
  0
POLYLINE
  5
372
  8
PROFILEEDGES
 66
     1
 10
0.0
 20
0.0
 30
0.0
  0
VERTEX
  5
A30
  8
PROFILEEDGES
 10
43.95290052816298
 20
89.4470934225777
 30
0.0
 40
25.4
 41
25.4
  0
VERTEX
  5
A31
  8
PROFILEEDGES
 10
44.01049795901095
 20
89.79595591646516
 30
0.0
 40
25.4
 41
25.4
  0
SEQEND
  5
E92
  8
PROFILEEDGES
  0
POLYLINE
  5
373
  8
PROFILEEDGES
 66
     1
 10
0.0
 20
0.0
 30
0.0
  0
VERTEX
  5
A32
  8
PROFILEEDGES
 10
44.01049795901095
 20
89.79595591646516
 30
0.0
 40
25.4
 41
25.4
  0
VERTEX
  5
A33
  8
PROFILEEDGES
 10
44.09078876810952
 20
90.14030441676083
 30
0.0
 40
25.4
 41
25.4
  0
SEQEND
  5
E93
  8
PROFILEEDGES
  0
POLYLINE
  5
374
  8
PROFILEEDGES
 66
     1
 10
0.0
 20
0.0
 30
0.0
  0
VERTEX
  5
A34
  8
PROFILEEDGES
 10
44.09078876810952
 20
90.14030441676083
 30
0.0
 40
25.4
 41
25.4
  0
VERTEX
  5
A35
  8
PROFILEEDGES
 10
44.19342913788761
 20
90.47866437032141
 30
0.0
 40
25.4
 41
25.4
  0
SEQEND
  5
E94
  8
PROFILEEDGES
  0
POLYLINE
  5
375
  8
PROFILEEDGES
 66
     1
 10
0.0
 20
0.0
 30
0.0
  0
VERTEX
  5
A36
  8
PROFILEEDGES
 10
44.19342913788761
 20
90.47866437032141
 30
0.0
 40
25.4
 41
25.4
  0
VERTEX
  5
A37
  8
PROFILEEDGES
 10
44.31797954652422
 20
90.80958686787957
 30
0.0
 40
25.4
 41
25.4
  0
SEQEND
  5
E95
  8
PROFILEEDGES
  0
POLYLINE
  5
376
  8
PROFILEEDGES
 66
     1
 10
0.0
 20
0.0
 30
0.0
  0
VERTEX
  5
A38
  8
PROFILEEDGES
 10
44.31797954652422
 20
90.80958686787957
 30
0.0
 40
25.4
 41
25.4
  0
VERTEX
  5
A39
  8
PROFILEEDGES
 10
44.46390665004819
 20
91.13165484849654
 30
0.0
 40
25.4
 41
25.4
  0
SEQEND
  5
E96
  8
PROFILEEDGES
  0
POLYLINE
  5
377
  8
PROFILEEDGES
 66
     1
 10
0.0
 20
0.0
 30
0.0
  0
VERTEX
  5
A3A
  8
PROFILEEDGES
 10
44.46390665004819
 20
91.13165484849654
 30
0.0
 40
25.4
 41
25.4
  0
VERTEX
  5
A3B
  8
PROFILEEDGES
 10
44.63058556619922
 20
91.44348916763477
 30
0.0
 40
25.4
 41
25.4
  0
SEQEND
  5
E97
  8
PROFILEEDGES
  0
POLYLINE
  5
378
  8
PROFILEEDGES
 66
     1
 10
0.0
 20
0.0
 30
0.0
  0
VERTEX
  5
A3C
  8
PROFILEEDGES
 10
44.63058556619922
 20
91.44348916763477
 30
0.0
 40
25.4
 41
25.4
  0
VERTEX
  5
A3D
  8
PROFILEEDGES
 10
44.81730255026916
 20
91.74375450286595
 30
0.0
 40
25.4
 41
25.4
  0
SEQEND
  5
E98
  8
PROFILEEDGES
  0
POLYLINE
  5
379
  8
PROFILEEDGES
 66
     1
 10
0.0
 20
0.0
 30
0.0
  0
VERTEX
  5
A3E
  8
PROFILEEDGES
 10
44.81730255026916
 20
91.74375450286595
 30
0.0
 40
25.4
 41
25.4
  0
VERTEX
  5
A3F
  8
PROFILEEDGES
 10
45.02325805146706
 20
92.03116507192688
 30
0.0
 40
25.4
 41
25.4
  0
SEQEND
  5
E99
  8
PROFILEEDGES
  0
POLYLINE
  5
37A
  8
PROFILEEDGES
 66
     1
 10
0.0
 20
0.0
 30
0.0
  0
VERTEX
  5
A40
  8
PROFILEEDGES
 10
45.02325805146706
 20
92.03116507192688
 30
0.0
 40
25.4
 41
25.4
  0
VERTEX
  5
A41
  8
PROFILEEDGES
 10
45.2475701367179
 20
92.30449013863708
 30
0.0
 40
25.4
 41
25.4
  0
SEQEND
  5
E9A
  8
PROFILEEDGES
  0
POLYLINE
  5
37B
  8
PROFILEEDGES
 66
     1
 10
0.0
 20
0.0
 30
0.0
  0
VERTEX
  5
A42
  8
PROFILEEDGES
 10
45.2475701367179
 20
92.30449013863708
 30
0.0
 40
25.4
 41
25.4
  0
VERTEX
  5
A43
  8
PROFILEEDGES
 10
45.48927826723551
 20
92.56255928309898
 30
0.0
 40
25.4
 41
25.4
  0
SEQEND
  5
E9B
  8
PROFILEEDGES
  0
POLYLINE
  5
37C
  8
PROFILEEDGES
 66
     1
 10
0.0
 20
0.0
 30
0.0
  0
VERTEX
  5
A44
  8
PROFILEEDGES
 10
45.48927826723551
 20
92.56255928309898
 30
0.0
 40
25.4
 41
25.4
  0
VERTEX
  5
A45
  8
PROFILEEDGES
 10
45.74734741169741
 20
92.8042674136167
 30
0.0
 40
25.4
 41
25.4
  0
SEQEND
  5
E9C
  8
PROFILEEDGES
  0
POLYLINE
  5
37D
  8
PROFILEEDGES
 66
     1
 10
0.0
 20
0.0
 30
0.0
  0
VERTEX
  5
A46
  8
PROFILEEDGES
 10
45.74734741169741
 20
92.8042674136167
 30
0.0
 40
25.4
 41
25.4
  0
VERTEX
  5
A47
  8
PROFILEEDGES
 10
46.02067247840755
 20
93.02857949886756
 30
0.0
 40
25.4
 41
25.4
  0
SEQEND
  5
E9D
  8
PROFILEEDGES
  0
POLYLINE
  5
37E
  8
PROFILEEDGES
 66
     1
 10
0.0
 20
0.0
 30
0.0
  0
VERTEX
  5
A48
  8
PROFILEEDGES
 10
46.02067247840755
 20
93.02857949886756
 30
0.0
 40
25.4
 41
25.4
  0
VERTEX
  5
A49
  8
PROFILEEDGES
 10
46.30808304746851
 20
93.2345350000654
 30
0.0
 40
25.4
 41
25.4
  0
SEQEND
  5
E9E
  8
PROFILEEDGES
  0
POLYLINE
  5
37F
  8
PROFILEEDGES
 66
     1
 10
0.0
 20
0.0
 30
0.0
  0
VERTEX
  5
A4A
  8
PROFILEEDGES
 10
46.30808304746851
 20
93.2345350000654
 30
0.0
 40
25.4
 41
25.4
  0
VERTEX
  5
A4B
  8
PROFILEEDGES
 10
46.60834838269963
 20
93.42125198413548
 30
0.0
 40
25.4
 41
25.4
  0
SEQEND
  5
E9F
  8
PROFILEEDGES
  0
POLYLINE
  5
380
  8
PROFILEEDGES
 66
     1
 10
0.0
 20
0.0
 30
0.0
  0
VERTEX
  5
A4C
  8
PROFILEEDGES
 10
46.60834838269963
 20
93.42125198413548
 30
0.0
 40
25.4
 41
25.4
  0
VERTEX
  5
A4D
  8
PROFILEEDGES
 10
46.92018270183782
 20
93.58793090028654
 30
0.0
 40
25.4
 41
25.4
  0
SEQEND
  5
EA0
  8
PROFILEEDGES
  0
POLYLINE
  5
381
  8
PROFILEEDGES
 66
     1
 10
0.0
 20
0.0
 30
0.0
  0
VERTEX
  5
A4E
  8
PROFILEEDGES
 10
46.92018270183782
 20
93.58793090028654
 30
0.0
 40
25.4
 41
25.4
  0
VERTEX
  5
A4F
  8
PROFILEEDGES
 10
47.24225068245484
 20
93.7338580038105
 30
0.0
 40
25.4
 41
25.4
  0
SEQEND
  5
EA1
  8
PROFILEEDGES
  0
POLYLINE
  5
382
  8
PROFILEEDGES
 66
     1
 10
0.0
 20
0.0
 30
0.0
  0
VERTEX
  5
A50
  8
PROFILEEDGES
 10
47.24225068245484
 20
93.7338580038105
 30
0.0
 40
25.4
 41
25.4
  0
VERTEX
  5
A51
  8
PROFILEEDGES
 10
47.57317318001297
 20
93.85840841244715
 30
0.0
 40
25.4
 41
25.4
  0
SEQEND
  5
EA2
  8
PROFILEEDGES
  0
POLYLINE
  5
383
  8
PROFILEEDGES
 66
     1
 10
0.0
 20
0.0
 30
0.0
  0
VERTEX
  5
A52
  8
PROFILEEDGES
 10
47.57317318001297
 20
93.85840841244715
 30
0.0
 40
25.4
 41
25.4
  0
VERTEX
  5
A53
  8
PROFILEEDGES
 10
47.91153313357346
 20
93.96104878222525
 30
0.0
 40
25.4
 41
25.4
  0
SEQEND
  5
EA3
  8
PROFILEEDGES
  0
POLYLINE
  5
384
  8
PROFILEEDGES
 66
     1
 10
0.0
 20
0.0
 30
0.0
  0
VERTEX
  5
A54
  8
PROFILEEDGES
 10
47.91153313357346
 20
93.96104878222525
 30
0.0
 40
25.4
 41
25.4
  0
VERTEX
  5
A55
  8
PROFILEEDGES
 10
48.2558816338692
 20
94.04133959132385
 30
0.0
 40
25.4
 41
25.4
  0
SEQEND
  5
EA4
  8
PROFILEEDGES
  0
POLYLINE
  5
385
  8
PROFILEEDGES
 66
     1
 10
0.0
 20
0.0
 30
0.0
  0
VERTEX
  5
A56
  8
PROFILEEDGES
 10
48.2558816338692
 20
94.04133959132385
 30
0.0
 40
25.4
 41
25.4
  0
VERTEX
  5
A57
  8
PROFILEEDGES
 10
48.60474412775667
 20
94.09893702217197
 30
0.0
 40
25.4
 41
25.4
  0
SEQEND
  5
EA5
  8
PROFILEEDGES
  0
POLYLINE
  5
386
  8
PROFILEEDGES
 66
     1
 10
0.0
 20
0.0
 30
0.0
  0
VERTEX
  5
A58
  8
PROFILEEDGES
 10
48.60474412775667
 20
94.09893702217197
 30
0.0
 40
25.4
 41
25.4
  0
VERTEX
  5
A59
  8
PROFILEEDGES
 10
48.95662673247856
 20
94.133594433728
 30
0.0
 40
25.4
 41
25.4
  0
SEQEND
  5
EA6
  8
PROFILEEDGES
  0
POLYLINE
  5
387
  8
PROFILEEDGES
 66
     1
 10
0.0
 20
0.0
 30
0.0
  0
VERTEX
  5
A5A
  8
PROFILEEDGES
 10
48.95662673247856
 20
94.133594433728
 30
0.0
 40
25.4
 41
25.4
  0
VERTEX
  5
A5B
  8
PROFILEEDGES
 10
49.31002263269959
 20
94.14516341763512
 30
0.0
 40
25.4
 41
25.4
  0
SEQEND
  5
EA7
  8
PROFILEEDGES
  0
POLYLINE
  5
388
  8
PROFILEEDGES
 66
     1
 10
0.0
 20
0.0
 30
0.0
  0
VERTEX
  5
A5C
  8
PROFILEEDGES
 10
49.31002263269959
 20
94.14516341763512
 30
0.0
 40
25.4
 41
25.4
  0
VERTEX
  5
A5D
  8
PROFILEEDGES
 10
49.66341853292057
 20
94.13359443372806
 30
0.0
 40
25.4
 41
25.4
  0
SEQEND
  5
EA8
  8
PROFILEEDGES
  0
POLYLINE
  5
389
  8
PROFILEEDGES
 66
     1
 10
0.0
 20
0.0
 30
0.0
  0
VERTEX
  5
A5E
  8
PROFILEEDGES
 10
49.66341853292057
 20
94.13359443372806
 30
0.0
 40
25.4
 41
25.4
  0
VERTEX
  5
A5F
  8
PROFILEEDGES
 10
50.01530113764251
 20
94.09893702217205
 30
0.0
 40
25.4
 41
25.4
  0
SEQEND
  5
EA9
  8
PROFILEEDGES
  0
POLYLINE
  5
38A
  8
PROFILEEDGES
 66
     1
 10
0.0
 20
0.0
 30
0.0
  0
VERTEX
  5
A60
  8
PROFILEEDGES
 10
50.01530113764251
 20
94.09893702217205
 30
0.0
 40
25.4
 41
25.4
  0
VERTEX
  5
A61
  8
PROFILEEDGES
 10
50.36416363152997
 20
94.04133959132405
 30
0.0
 40
25.4
 41
25.4
  0
SEQEND
  5
EAA
  8
PROFILEEDGES
  0
POLYLINE
  5
38B
  8
PROFILEEDGES
 66
     1
 10
0.0
 20
0.0
 30
0.0
  0
VERTEX
  5
A62
  8
PROFILEEDGES
 10
50.36416363152997
 20
94.04133959132405
 30
0.0
 40
25.4
 41
25.4
  0
VERTEX
  5
A63
  8
PROFILEEDGES
 10
50.70851213182571
 20
93.9610487822255
 30
0.0
 40
25.4
 41
25.4
  0
SEQEND
  5
EAB
  8
PROFILEEDGES
  0
POLYLINE
  5
38C
  8
PROFILEEDGES
 66
     1
 10
0.0
 20
0.0
 30
0.0
  0
VERTEX
  5
A64
  8
PROFILEEDGES
 10
50.70851213182571
 20
93.9610487822255
 30
0.0
 40
25.4
 41
25.4
  0
VERTEX
  5
A65
  8
PROFILEEDGES
 10
51.04687208538621
 20
93.8584084124473
 30
0.0
 40
25.4
 41
25.4
  0
SEQEND
  5
EAC
  8
PROFILEEDGES
  0
POLYLINE
  5
38D
  8
PROFILEEDGES
 66
     1
 10
0.0
 20
0.0
 30
0.0
  0
VERTEX
  5
A66
  8
PROFILEEDGES
 10
51.04687208538621
 20
93.8584084124473
 30
0.0
 40
25.4
 41
25.4
  0
VERTEX
  5
A67
  8
PROFILEEDGES
 10
51.37779458294437
 20
93.73385800381078
 30
0.0
 40
25.4
 41
25.4
  0
SEQEND
  5
EAD
  8
PROFILEEDGES
  0
POLYLINE
  5
38E
  8
PROFILEEDGES
 66
     1
 10
0.0
 20
0.0
 30
0.0
  0
VERTEX
  5
A68
  8
PROFILEEDGES
 10
51.37779458294437
 20
93.73385800381078
 30
0.0
 40
25.4
 41
25.4
  0
VERTEX
  5
A69
  8
PROFILEEDGES
 10
51.69986256356143
 20
93.58793090028672
 30
0.0
 40
25.4
 41
25.4
  0
SEQEND
  5
EAE
  8
PROFILEEDGES
  0
POLYLINE
  5
38F
  8
PROFILEEDGES
 66
     1
 10
0.0
 20
0.0
 30
0.0
  0
VERTEX
  5
A6A
  8
PROFILEEDGES
 10
51.69986256356143
 20
93.58793090028672
 30
0.0
 40
25.4
 41
25.4
  0
VERTEX
  5
A6B
  8
PROFILEEDGES
 10
52.01169688269965
 20
93.42125198413571
 30
0.0
 40
25.4
 41
25.4
  0
SEQEND
  5
EAF
  8
PROFILEEDGES
  0
POLYLINE
  5
390
  8
PROFILEEDGES
 66
     1
 10
0.0
 20
0.0
 30
0.0
  0
VERTEX
  5
A6C
  8
PROFILEEDGES
 10
52.01169688269965
 20
93.42125198413571
 30
0.0
 40
25.4
 41
25.4
  0
VERTEX
  5
A6D
  8
PROFILEEDGES
 10
52.31196221793076
 20
93.23453500006575
 30
0.0
 40
25.4
 41
25.4
  0
SEQEND
  5
EB0
  8
PROFILEEDGES
  0
POLYLINE
  5
391
  8
PROFILEEDGES
 66
     1
 10
0.0
 20
0.0
 30
0.0
  0
VERTEX
  5
A6E
  8
PROFILEEDGES
 10
52.31196221793076
 20
93.23453500006575
 30
0.0
 40
25.4
 41
25.4
  0
VERTEX
  5
A6F
  8
PROFILEEDGES
 10
52.5993727869918
 20
93.02857949886787
 30
0.0
 40
25.4
 41
25.4
  0
SEQEND
  5
EB1
  8
PROFILEEDGES
  0
POLYLINE
  5
392
  8
PROFILEEDGES
 66
     1
 10
0.0
 20
0.0
 30
0.0
  0
VERTEX
  5
A70
  8
PROFILEEDGES
 10
52.5993727869918
 20
93.02857949886787
 30
0.0
 40
25.4
 41
25.4
  0
VERTEX
  5
A71
  8
PROFILEEDGES
 10
52.87269785370194
 20
92.80426741361704
 30
0.0
 40
25.4
 41
25.4
  0
SEQEND
  5
EB2
  8
PROFILEEDGES
  0
POLYLINE
  5
393
  8
PROFILEEDGES
 66
     1
 10
0.0
 20
0.0
 30
0.0
  0
VERTEX
  5
A72
  8
PROFILEEDGES
 10
27.80559226723737
 20
60.36039555216967
 30
0.0
 40
25.4
 41
25.4
  0
VERTEX
  5
A73
  8
PROFILEEDGES
 10
27.56388413671976
 20
60.61846469663159
 30
0.0
 40
25.4
 41
25.4
  0
SEQEND
  5
EB3
  8
PROFILEEDGES
  0
POLYLINE
  5
394
  8
PROFILEEDGES
 66
     1
 10
0.0
 20
0.0
 30
0.0
  0
VERTEX
  5
A74
  8
PROFILEEDGES
 10
27.56388413671976
 20
60.61846469663159
 30
0.0
 40
25.4
 41
25.4
  0
VERTEX
  5
A75
  8
PROFILEEDGES
 10
27.33957205146888
 20
60.89178976334169
 30
0.0
 40
25.4
 41
25.4
  0
SEQEND
  5
EB4
  8
PROFILEEDGES
  0
POLYLINE
  5
395
  8
PROFILEEDGES
 66
     1
 10
0.0
 20
0.0
 30
0.0
  0
VERTEX
  5
A76
  8
PROFILEEDGES
 10
27.33957205146888
 20
60.89178976334169
 30
0.0
 40
25.4
 41
25.4
  0
VERTEX
  5
A77
  8
PROFILEEDGES
 10
27.13361655027099
 20
61.1792003324027
 30
0.0
 40
25.4
 41
25.4
  0
SEQEND
  5
EB5
  8
PROFILEEDGES
  0
POLYLINE
  5
396
  8
PROFILEEDGES
 66
     1
 10
0.0
 20
0.0
 30
0.0
  0
VERTEX
  5
A78
  8
PROFILEEDGES
 10
27.13361655027099
 20
61.1792003324027
 30
0.0
 40
25.4
 41
25.4
  0
VERTEX
  5
A79
  8
PROFILEEDGES
 10
26.94689956620095
 20
61.47946566763381
 30
0.0
 40
25.4
 41
25.4
  0
SEQEND
  5
EB6
  8
PROFILEEDGES
  0
POLYLINE
  5
397
  8
PROFILEEDGES
 66
     1
 10
0.0
 20
0.0
 30
0.0
  0
VERTEX
  5
A7A
  8
PROFILEEDGES
 10
26.94689956620095
 20
61.47946566763381
 30
0.0
 40
25.4
 41
25.4
  0
VERTEX
  5
A7B
  8
PROFILEEDGES
 10
26.78022065004992
 20
61.79129998677198
 30
0.0
 40
25.4
 41
25.4
  0
SEQEND
  5
EB7
  8
PROFILEEDGES
  0
POLYLINE
  5
398
  8
PROFILEEDGES
 66
     1
 10
0.0
 20
0.0
 30
0.0
  0
VERTEX
  5
A7C
  8
PROFILEEDGES
 10
26.78022065004992
 20
61.79129998677198
 30
0.0
 40
25.4
 41
25.4
  0
VERTEX
  5
A7D
  8
PROFILEEDGES
 10
26.63429354652596
 20
62.11336796738903
 30
0.0
 40
25.4
 41
25.4
  0
SEQEND
  5
EB8
  8
PROFILEEDGES
  0
POLYLINE
  5
399
  8
PROFILEEDGES
 66
     1
 10
0.0
 20
0.0
 30
0.0
  0
VERTEX
  5
A7E
  8
PROFILEEDGES
 10
26.63429354652596
 20
62.11336796738903
 30
0.0
 40
25.4
 41
25.4
  0
VERTEX
  5
A7F
  8
PROFILEEDGES
 10
26.5097431378893
 20
62.44429046494713
 30
0.0
 40
25.4
 41
25.4
  0
SEQEND
  5
EB9
  8
PROFILEEDGES
  0
POLYLINE
  5
39A
  8
PROFILEEDGES
 66
     1
 10
0.0
 20
0.0
 30
0.0
  0
VERTEX
  5
A80
  8
PROFILEEDGES
 10
26.5097431378893
 20
62.44429046494713
 30
0.0
 40
25.4
 41
25.4
  0
VERTEX
  5
A81
  8
PROFILEEDGES
 10
26.40710276811115
 20
62.78265041850762
 30
0.0
 40
25.4
 41
25.4
  0
SEQEND
  5
EBA
  8
PROFILEEDGES
  0
POLYLINE
  5
39B
  8
PROFILEEDGES
 66
     1
 10
0.0
 20
0.0
 30
0.0
  0
VERTEX
  5
A82
  8
PROFILEEDGES
 10
26.40710276811115
 20
62.78265041850762
 30
0.0
 40
25.4
 41
25.4
  0
VERTEX
  5
A83
  8
PROFILEEDGES
 10
26.32681195901253
 20
63.12699891880344
 30
0.0
 40
25.4
 41
25.4
  0
SEQEND
  5
EBB
  8
PROFILEEDGES
  0
POLYLINE
  5
39C
  8
PROFILEEDGES
 66
     1
 10
0.0
 20
0.0
 30
0.0
  0
VERTEX
  5
A84
  8
PROFILEEDGES
 10
26.32681195901253
 20
63.12699891880344
 30
0.0
 40
25.4
 41
25.4
  0
VERTEX
  5
A85
  8
PROFILEEDGES
 10
26.26921452816454
 20
63.47586141269082
 30
0.0
 40
25.4
 41
25.4
  0
SEQEND
  5
EBC
  8
PROFILEEDGES
  0
POLYLINE
  5
39D
  8
PROFILEEDGES
 66
     1
 10
0.0
 20
0.0
 30
0.0
  0
VERTEX
  5
A86
  8
PROFILEEDGES
 10
26.26921452816454
 20
63.47586141269082
 30
0.0
 40
25.4
 41
25.4
  0
VERTEX
  5
A87
  8
PROFILEEDGES
 10
26.23455711660844
 20
63.82774401741277
 30
0.0
 40
25.4
 41
25.4
  0
SEQEND
  5
EBD
  8
PROFILEEDGES
  0
POLYLINE
  5
39E
  8
PROFILEEDGES
 66
     1
 10
0.0
 20
0.0
 30
0.0
  0
VERTEX
  5
A88
  8
PROFILEEDGES
 10
26.23455711660844
 20
63.82774401741277
 30
0.0
 40
25.4
 41
25.4
  0
VERTEX
  5
A89
  8
PROFILEEDGES
 10
26.22298813270138
 20
64.1811399176337
 30
0.0
 40
25.4
 41
25.4
  0
SEQEND
  5
EBE
  8
PROFILEEDGES
  0
POLYLINE
  5
39F
  8
PROFILEEDGES
 66
     1
 10
0.0
 20
0.0
 30
0.0
  0
VERTEX
  5
A8A
  8
PROFILEEDGES
 10
26.22298813270138
 20
64.1811399176337
 30
0.0
 40
25.4
 41
25.4
  0
VERTEX
  5
A8B
  8
PROFILEEDGES
 10
26.23455711660844
 20
64.53453581785467
 30
0.0
 40
25.4
 41
25.4
  0
SEQEND
  5
EBF
  8
PROFILEEDGES
  0
POLYLINE
  5
3A0
  8
PROFILEEDGES
 66
     1
 10
0.0
 20
0.0
 30
0.0
  0
VERTEX
  5
A8C
  8
PROFILEEDGES
 10
26.23455711660844
 20
64.53453581785467
 30
0.0
 40
25.4
 41
25.4
  0
VERTEX
  5
A8D
  8
PROFILEEDGES
 10
26.26921452816445
 20
64.88641842257663
 30
0.0
 40
25.4
 41
25.4
  0
SEQEND
  5
EC0
  8
PROFILEEDGES
  0
POLYLINE
  5
3A1
  8
PROFILEEDGES
 66
     1
 10
0.0
 20
0.0
 30
0.0
  0
VERTEX
  5
A8E
  8
PROFILEEDGES
 10
26.26921452816445
 20
64.88641842257663
 30
0.0
 40
25.4
 41
25.4
  0
VERTEX
  5
A8F
  8
PROFILEEDGES
 10
26.32681195901247
 20
65.23528091646405
 30
0.0
 40
25.4
 41
25.4
  0
SEQEND
  5
EC1
  8
PROFILEEDGES
  0
POLYLINE
  5
3A2
  8
PROFILEEDGES
 66
     1
 10
0.0
 20
0.0
 30
0.0
  0
VERTEX
  5
A90
  8
PROFILEEDGES
 10
26.32681195901247
 20
65.23528091646405
 30
0.0
 40
25.4
 41
25.4
  0
VERTEX
  5
A91
  8
PROFILEEDGES
 10
26.40710276811099
 20
65.57962941675983
 30
0.0
 40
25.4
 41
25.4
  0
SEQEND
  5
EC2
  8
PROFILEEDGES
  0
POLYLINE
  5
3A3
  8
PROFILEEDGES
 66
     1
 10
0.0
 20
0.0
 30
0.0
  0
VERTEX
  5
A92
  8
PROFILEEDGES
 10
26.40710276811099
 20
65.57962941675983
 30
0.0
 40
25.4
 41
25.4
  0
VERTEX
  5
A93
  8
PROFILEEDGES
 10
26.50974313788913
 20
65.91798937032034
 30
0.0
 40
25.4
 41
25.4
  0
SEQEND
  5
EC3
  8
PROFILEEDGES
  0
POLYLINE
  5
3A4
  8
PROFILEEDGES
 66
     1
 10
0.0
 20
0.0
 30
0.0
  0
VERTEX
  5
A94
  8
PROFILEEDGES
 10
26.50974313788913
 20
65.91798937032034
 30
0.0
 40
25.4
 41
25.4
  0
VERTEX
  5
A95
  8
PROFILEEDGES
 10
26.63429354652569
 20
66.24891186787845
 30
0.0
 40
25.4
 41
25.4
  0
SEQEND
  5
EC4
  8
PROFILEEDGES
  0
POLYLINE
  5
3A5
  8
PROFILEEDGES
 66
     1
 10
0.0
 20
0.0
 30
0.0
  0
VERTEX
  5
A96
  8
PROFILEEDGES
 10
26.63429354652569
 20
66.24891186787845
 30
0.0
 40
25.4
 41
25.4
  0
VERTEX
  5
A97
  8
PROFILEEDGES
 10
26.78022065004971
 20
66.5709798484955
 30
0.0
 40
25.4
 41
25.4
  0
SEQEND
  5
EC5
  8
PROFILEEDGES
  0
POLYLINE
  5
3A6
  8
PROFILEEDGES
 66
     1
 10
0.0
 20
0.0
 30
0.0
  0
VERTEX
  5
A98
  8
PROFILEEDGES
 10
26.78022065004971
 20
66.5709798484955
 30
0.0
 40
25.4
 41
25.4
  0
VERTEX
  5
A99
  8
PROFILEEDGES
 10
26.94689956620065
 20
66.88281416763371
 30
0.0
 40
25.4
 41
25.4
  0
SEQEND
  5
EC6
  8
PROFILEEDGES
  0
POLYLINE
  5
3A7
  8
PROFILEEDGES
 66
     1
 10
0.0
 20
0.0
 30
0.0
  0
VERTEX
  5
A9A
  8
PROFILEEDGES
 10
26.94689956620065
 20
66.88281416763371
 30
0.0
 40
25.4
 41
25.4
  0
VERTEX
  5
A9B
  8
PROFILEEDGES
 10
27.13361655027062
 20
67.18307950286487
 30
0.0
 40
25.4
 41
25.4
  0
SEQEND
  5
EC7
  8
PROFILEEDGES
  0
POLYLINE
  5
3A8
  8
PROFILEEDGES
 66
     1
 10
0.0
 20
0.0
 30
0.0
  0
VERTEX
  5
A9C
  8
PROFILEEDGES
 10
27.13361655027062
 20
67.18307950286487
 30
0.0
 40
25.4
 41
25.4
  0
VERTEX
  5
A9D
  8
PROFILEEDGES
 10
27.33957205146859
 20
67.47049007192585
 30
0.0
 40
25.4
 41
25.4
  0
SEQEND
  5
EC8
  8
PROFILEEDGES
  0
POLYLINE
  5
3A9
  8
PROFILEEDGES
 66
     1
 10
0.0
 20
0.0
 30
0.0
  0
VERTEX
  5
A9E
  8
PROFILEEDGES
 10
27.33957205146859
 20
67.47049007192585
 30
0.0
 40
25.4
 41
25.4
  0
VERTEX
  5
A9F
  8
PROFILEEDGES
 10
27.56388413671933
 20
67.74381513863595
 30
0.0
 40
25.4
 41
25.4
  0
SEQEND
  5
EC9
  8
PROFILEEDGES
  0
POLYLINE
  5
3AA
  8
PROFILEEDGES
 66
     1
 10
0.0
 20
0.0
 30
0.0
  0
VERTEX
  5
AA0
  8
PROFILEEDGES
 10
27.56388413671933
 20
67.74381513863595
 30
0.0
 40
25.4
 41
25.4
  0
VERTEX
  5
AA1
  8
PROFILEEDGES
 10
27.80559226723696
 20
68.00188428309791
 30
0.0
 40
25.4
 41
25.4
  0
SEQEND
  5
ECA
  8
PROFILEEDGES
  0
POLYLINE
  5
3AB
  8
PROFILEEDGES
 66
     1
 10
0.0
 20
0.0
 30
0.0
  0
VERTEX
  5
AA2
  8
PROFILEEDGES
 10
27.80559226723696
 20
68.00188428309791
 30
0.0
 40
25.4
 41
25.4
  0
VERTEX
  5
AA3
  8
PROFILEEDGES
 10
28.06366141169889
 20
68.24359241361559
 30
0.0
 40
25.4
 41
25.4
  0
SEQEND
  5
ECB
  8
PROFILEEDGES
  0
POLYLINE
  5
3AC
  8
PROFILEEDGES
 66
     1
 10
0.0
 20
0.0
 30
0.0
  0
VERTEX
  5
AA4
  8
PROFILEEDGES
 10
28.06366141169889
 20
68.24359241361559
 30
0.0
 40
25.4
 41
25.4
  0
VERTEX
  5
AA5
  8
PROFILEEDGES
 10
28.33698647840897
 20
68.46790449886639
 30
0.0
 40
25.4
 41
25.4
  0
SEQEND
  5
ECC
  8
PROFILEEDGES
  0
POLYLINE
  5
3AD
  8
PROFILEEDGES
 66
     1
 10
0.0
 20
0.0
 30
0.0
  0
VERTEX
  5
AA6
  8
PROFILEEDGES
 10
28.33698647840897
 20
68.46790449886639
 30
0.0
 40
25.4
 41
25.4
  0
VERTEX
  5
AA7
  8
PROFILEEDGES
 10
28.62439704746998
 20
68.67386000006438
 30
0.0
 40
25.4
 41
25.4
  0
SEQEND
  5
ECD
  8
PROFILEEDGES
  0
POLYLINE
  5
3AE
  8
PROFILEEDGES
 66
     1
 10
0.0
 20
0.0
 30
0.0
  0
VERTEX
  5
AA8
  8
PROFILEEDGES
 10
28.62439704746998
 20
68.67386000006438
 30
0.0
 40
25.4
 41
25.4
  0
VERTEX
  5
AA9
  8
PROFILEEDGES
 10
28.92466238270107
 20
68.86057698413435
 30
0.0
 40
25.4
 41
25.4
  0
SEQEND
  5
ECE
  8
PROFILEEDGES
  0
POLYLINE
  5
3AF
  8
PROFILEEDGES
 66
     1
 10
0.0
 20
0.0
 30
0.0
  0
VERTEX
  5
AAA
  8
PROFILEEDGES
 10
28.92466238270107
 20
68.86057698413435
 30
0.0
 40
25.4
 41
25.4
  0
VERTEX
  5
AAB
  8
PROFILEEDGES
 10
29.23649670183926
 20
69.02725590028535
 30
0.0
 40
25.4
 41
25.4
  0
SEQEND
  5
ECF
  8
PROFILEEDGES
  0
POLYLINE
  5
3B0
  8
PROFILEEDGES
 66
     1
 10
0.0
 20
0.0
 30
0.0
  0
VERTEX
  5
AAC
  8
PROFILEEDGES
 10
29.23649670183926
 20
69.02725590028535
 30
0.0
 40
25.4
 41
25.4
  0
VERTEX
  5
AAD
  8
PROFILEEDGES
 10
29.55856468245627
 20
69.17318300380938
 30
0.0
 40
25.4
 41
25.4
  0
SEQEND
  5
ED0
  8
PROFILEEDGES
  0
POLYLINE
  5
3B1
  8
PROFILEEDGES
 66
     1
 10
0.0
 20
0.0
 30
0.0
  0
VERTEX
  5
AAE
  8
PROFILEEDGES
 10
29.55856468245627
 20
69.17318300380938
 30
0.0
 40
25.4
 41
25.4
  0
VERTEX
  5
AAF
  8
PROFILEEDGES
 10
29.88948718001438
 20
69.29773341244604
 30
0.0
 40
25.4
 41
25.4
  0
SEQEND
  5
ED1
  8
PROFILEEDGES
  0
POLYLINE
  5
3B2
  8
PROFILEEDGES
 66
     1
 10
0.0
 20
0.0
 30
0.0
  0
VERTEX
  5
AB0
  8
PROFILEEDGES
 10
29.88948718001438
 20
69.29773341244604
 30
0.0
 40
25.4
 41
25.4
  0
VERTEX
  5
AB1
  8
PROFILEEDGES
 10
30.22784713357488
 20
69.40037378222416
 30
0.0
 40
25.4
 41
25.4
  0
SEQEND
  5
ED2
  8
PROFILEEDGES
  0
POLYLINE
  5
3B3
  8
PROFILEEDGES
 66
     1
 10
0.0
 20
0.0
 30
0.0
  0
VERTEX
  5
AB2
  8
PROFILEEDGES
 10
30.22784713357488
 20
69.40037378222416
 30
0.0
 40
25.4
 41
25.4
  0
VERTEX
  5
AB3
  8
PROFILEEDGES
 10
30.57219563387066
 20
69.48066459132276
 30
0.0
 40
25.4
 41
25.4
  0
SEQEND
  5
ED3
  8
PROFILEEDGES
  0
POLYLINE
  5
3B4
  8
PROFILEEDGES
 66
     1
 10
0.0
 20
0.0
 30
0.0
  0
VERTEX
  5
AB4
  8
PROFILEEDGES
 10
30.57219563387066
 20
69.48066459132276
 30
0.0
 40
25.4
 41
25.4
  0
VERTEX
  5
AB5
  8
PROFILEEDGES
 10
30.92105812775803
 20
69.53826202217078
 30
0.0
 40
25.4
 41
25.4
  0
SEQEND
  5
ED4
  8
PROFILEEDGES
  0
POLYLINE
  5
3B5
  8
PROFILEEDGES
 66
     1
 10
0.0
 20
0.0
 30
0.0
  0
VERTEX
  5
AB6
  8
PROFILEEDGES
 10
30.92105812775803
 20
69.53826202217078
 30
0.0
 40
25.4
 41
25.4
  0
VERTEX
  5
AB7
  8
PROFILEEDGES
 10
31.27294073248003
 20
69.57291943372685
 30
0.0
 40
25.4
 41
25.4
  0
SEQEND
  5
ED5
  8
PROFILEEDGES
  0
POLYLINE
  5
3B6
  8
PROFILEEDGES
 66
     1
 10
0.0
 20
0.0
 30
0.0
  0
VERTEX
  5
AB8
  8
PROFILEEDGES
 10
31.27294073248003
 20
69.57291943372685
 30
0.0
 40
25.4
 41
25.4
  0
VERTEX
  5
AB9
  8
PROFILEEDGES
 10
31.62633663270097
 20
69.58448841763398
 30
0.0
 40
25.4
 41
25.4
  0
SEQEND
  5
ED6
  8
PROFILEEDGES
  0
POLYLINE
  5
3B7
  8
PROFILEEDGES
 66
     1
 10
0.0
 20
0.0
 30
0.0
  0
VERTEX
  5
ABA
  8
PROFILEEDGES
 10
31.62633663270097
 20
69.58448841763398
 30
0.0
 40
25.4
 41
25.4
  0
VERTEX
  5
ABB
  8
PROFILEEDGES
 10
31.97973253292197
 20
69.5729194337269
 30
0.0
 40
25.4
 41
25.4
  0
SEQEND
  5
ED7
  8
PROFILEEDGES
  0
POLYLINE
  5
3B8
  8
PROFILEEDGES
 66
     1
 10
0.0
 20
0.0
 30
0.0
  0
VERTEX
  5
ABC
  8
PROFILEEDGES
 10
31.97973253292197
 20
69.5729194337269
 30
0.0
 40
25.4
 41
25.4
  0
VERTEX
  5
ABD
  8
PROFILEEDGES
 10
32.33161513764389
 20
69.53826202217088
 30
0.0
 40
25.4
 41
25.4
  0
SEQEND
  5
ED8
  8
PROFILEEDGES
  0
POLYLINE
  5
3B9
  8
PROFILEEDGES
 66
     1
 10
0.0
 20
0.0
 30
0.0
  0
VERTEX
  5
ABE
  8
PROFILEEDGES
 10
32.33161513764389
 20
69.53826202217088
 30
0.0
 40
25.4
 41
25.4
  0
VERTEX
  5
ABF
  8
PROFILEEDGES
 10
32.68047763153135
 20
69.48066459132289
 30
0.0
 40
25.4
 41
25.4
  0
SEQEND
  5
ED9
  8
PROFILEEDGES
  0
POLYLINE
  5
3BA
  8
PROFILEEDGES
 66
     1
 10
0.0
 20
0.0
 30
0.0
  0
VERTEX
  5
AC0
  8
PROFILEEDGES
 10
32.68047763153135
 20
69.48066459132289
 30
0.0
 40
25.4
 41
25.4
  0
VERTEX
  5
AC1
  8
PROFILEEDGES
 10
33.02482613182711
 20
69.40037378222435
 30
0.0
 40
25.4
 41
25.4
  0
SEQEND
  5
EDA
  8
PROFILEEDGES
  0
POLYLINE
  5
3BB
  8
PROFILEEDGES
 66
     1
 10
0.0
 20
0.0
 30
0.0
  0
VERTEX
  5
AC2
  8
PROFILEEDGES
 10
33.02482613182711
 20
69.40037378222435
 30
0.0
 40
25.4
 41
25.4
  0
VERTEX
  5
AC3
  8
PROFILEEDGES
 10
33.36318608538764
 20
69.29773341244623
 30
0.0
 40
25.4
 41
25.4
  0
SEQEND
  5
EDB
  8
PROFILEEDGES
  0
POLYLINE
  5
3BC
  8
PROFILEEDGES
 66
     1
 10
0.0
 20
0.0
 30
0.0
  0
VERTEX
  5
AC4
  8
PROFILEEDGES
 10
33.36318608538764
 20
69.29773341244623
 30
0.0
 40
25.4
 41
25.4
  0
VERTEX
  5
AC5
  8
PROFILEEDGES
 10
33.69410858294574
 20
69.17318300380964
 30
0.0
 40
25.4
 41
25.4
  0
SEQEND
  5
EDC
  8
PROFILEEDGES
  0
POLYLINE
  5
3BD
  8
PROFILEEDGES
 66
     1
 10
0.0
 20
0.0
 30
0.0
  0
VERTEX
  5
AC6
  8
PROFILEEDGES
 10
33.69410858294574
 20
69.17318300380964
 30
0.0
 40
25.4
 41
25.4
  0
VERTEX
  5
AC7
  8
PROFILEEDGES
 10
34.01617656356275
 20
69.02725590028567
 30
0.0
 40
25.4
 41
25.4
  0
SEQEND
  5
EDD
  8
PROFILEEDGES
  0
POLYLINE
  5
3BE
  8
PROFILEEDGES
 66
     1
 10
0.0
 20
0.0
 30
0.0
  0
VERTEX
  5
AC8
  8
PROFILEEDGES
 10
34.01617656356275
 20
69.02725590028567
 30
0.0
 40
25.4
 41
25.4
  0
VERTEX
  5
AC9
  8
PROFILEEDGES
 10
34.32801088270102
 20
68.86057698413465
 30
0.0
 40
25.4
 41
25.4
  0
SEQEND
  5
EDE
  8
PROFILEEDGES
  0
POLYLINE
  5
3BF
  8
PROFILEEDGES
 66
     1
 10
0.0
 20
0.0
 30
0.0
  0
VERTEX
  5
ACA
  8
PROFILEEDGES
 10
34.32801088270102
 20
68.86057698413465
 30
0.0
 40
25.4
 41
25.4
  0
VERTEX
  5
ACB
  8
PROFILEEDGES
 10
34.62827621793213
 20
68.6738600000647
 30
0.0
 40
25.4
 41
25.4
  0
SEQEND
  5
EDF
  8
PROFILEEDGES
  0
POLYLINE
  5
3C0
  8
PROFILEEDGES
 66
     1
 10
0.0
 20
0.0
 30
0.0
  0
VERTEX
  5
ACC
  8
PROFILEEDGES
 10
34.62827621793213
 20
68.6738600000647
 30
0.0
 40
25.4
 41
25.4
  0
VERTEX
  5
ACD
  8
PROFILEEDGES
 10
34.91568678699311
 20
68.46790449886679
 30
0.0
 40
25.4
 41
25.4
  0
SEQEND
  5
EE0
  8
PROFILEEDGES
  0
POLYLINE
  5
3C1
  8
PROFILEEDGES
 66
     1
 10
0.0
 20
0.0
 30
0.0
  0
VERTEX
  5
ACE
  8
PROFILEEDGES
 10
34.91568678699311
 20
68.46790449886679
 30
0.0
 40
25.4
 41
25.4
  0
VERTEX
  5
ACF
  8
PROFILEEDGES
 10
35.18901185370323
 20
68.24359241361601
 30
0.0
 40
25.4
 41
25.4
  0
SEQEND
  5
EE1
  8
PROFILEEDGES
  0
POLYLINE
  5
3C2
  8
PROFILEEDGES
 66
     1
 10
0.0
 20
0.0
 30
0.0
  0
VERTEX
  5
AD0
  8
PROFILEEDGES
 10
35.18901185370323
 20
68.24359241361601
 30
0.0
 40
25.4
 41
25.4
  0
VERTEX
  5
AD1
  8
PROFILEEDGES
 10
35.4470809981652
 20
68.00188428309835
 30
0.0
 40
25.4
 41
25.4
  0
SEQEND
  5
EE2
  8
PROFILEEDGES
  0
POLYLINE
  5
3C3
  8
PROFILEEDGES
 66
     1
 10
0.0
 20
0.0
 30
0.0
  0
VERTEX
  5
AD2
  8
PROFILEEDGES
 10
35.4470809981652
 20
68.00188428309835
 30
0.0
 40
25.4
 41
25.4
  0
VERTEX
  5
AD3
  8
PROFILEEDGES
 10
35.68878912868287
 20
67.74381513863644
 30
0.0
 40
25.4
 41
25.4
  0
SEQEND
  5
EE3
  8
PROFILEEDGES
  0
POLYLINE
  5
3C4
  8
PROFILEEDGES
 66
     1
 10
0.0
 20
0.0
 30
0.0
  0
VERTEX
  5
AD4
  8
PROFILEEDGES
 10
35.68878912868287
 20
67.74381513863644
 30
0.0
 40
25.4
 41
25.4
  0
VERTEX
  5
AD5
  8
PROFILEEDGES
 10
35.91310121393366
 20
67.47049007192635
 30
0.0
 40
25.4
 41
25.4
  0
SEQEND
  5
EE4
  8
PROFILEEDGES
  0
POLYLINE
  5
3C5
  8
PROFILEEDGES
 66
     1
 10
0.0
 20
0.0
 30
0.0
  0
VERTEX
  5
AD6
  8
PROFILEEDGES
 10
35.91310121393366
 20
67.47049007192635
 30
0.0
 40
25.4
 41
25.4
  0
VERTEX
  5
AD7
  8
PROFILEEDGES
 10
36.11905671513159
 20
67.18307950286538
 30
0.0
 40
25.4
 41
25.4
  0
SEQEND
  5
EE5
  8
PROFILEEDGES
  0
POLYLINE
  5
3C6
  8
PROFILEEDGES
 66
     1
 10
0.0
 20
0.0
 30
0.0
  0
VERTEX
  5
AD8
  8
PROFILEEDGES
 10
36.11905671513159
 20
67.18307950286538
 30
0.0
 40
25.4
 41
25.4
  0
VERTEX
  5
AD9
  8
PROFILEEDGES
 10
36.30577369920162
 20
66.88281416763427
 30
0.0
 40
25.4
 41
25.4
  0
SEQEND
  5
EE6
  8
PROFILEEDGES
  0
POLYLINE
  5
3C7
  8
PROFILEEDGES
 66
     1
 10
0.0
 20
0.0
 30
0.0
  0
VERTEX
  5
ADA
  8
PROFILEEDGES
 10
36.30577369920162
 20
66.88281416763427
 30
0.0
 40
25.4
 41
25.4
  0
VERTEX
  5
ADB
  8
PROFILEEDGES
 10
36.47245261535264
 20
66.57097984849611
 30
0.0
 40
25.4
 41
25.4
  0
SEQEND
  5
EE7
  8
PROFILEEDGES
  0
POLYLINE
  5
3C8
  8
PROFILEEDGES
 66
     1
 10
0.0
 20
0.0
 30
0.0
  0
VERTEX
  5
ADC
  8
PROFILEEDGES
 10
36.47245261535264
 20
66.57097984849611
 30
0.0
 40
25.4
 41
25.4
  0
VERTEX
  5
ADD
  8
PROFILEEDGES
 10
36.61837971887667
 20
66.24891186787904
 30
0.0
 40
25.4
 41
25.4
  0
SEQEND
  5
EE8
  8
PROFILEEDGES
  0
POLYLINE
  5
3C9
  8
PROFILEEDGES
 66
     1
 10
0.0
 20
0.0
 30
0.0
  0
VERTEX
  5
ADE
  8
PROFILEEDGES
 10
36.61837971887667
 20
66.24891186787904
 30
0.0
 40
25.4
 41
25.4
  0
VERTEX
  5
ADF
  8
PROFILEEDGES
 10
36.74293012751333
 20
65.91798937032095
 30
0.0
 40
25.4
 41
25.4
  0
SEQEND
  5
EE9
  8
PROFILEEDGES
  0
POLYLINE
  5
3CA
  8
PROFILEEDGES
 66
     1
 10
0.0
 20
0.0
 30
0.0
  0
VERTEX
  5
AE0
  8
PROFILEEDGES
 10
36.74293012751333
 20
65.91798937032095
 30
0.0
 40
25.4
 41
25.4
  0
VERTEX
  5
AE1
  8
PROFILEEDGES
 10
36.84557049729143
 20
65.57962941676045
 30
0.0
 40
25.4
 41
25.4
  0
SEQEND
  5
EEA
  8
PROFILEEDGES
  0
POLYLINE
  5
3CB
  8
PROFILEEDGES
 66
     1
 10
0.0
 20
0.0
 30
0.0
  0
VERTEX
  5
AE2
  8
PROFILEEDGES
 10
36.84557049729143
 20
65.57962941676045
 30
0.0
 40
25.4
 41
25.4
  0
VERTEX
  5
AE3
  8
PROFILEEDGES
 10
36.92586130639005
 20
65.23528091646475
 30
0.0
 40
25.4
 41
25.4
  0
SEQEND
  5
EEB
  8
PROFILEEDGES
  0
POLYLINE
  5
3CC
  8
PROFILEEDGES
 66
     1
 10
0.0
 20
0.0
 30
0.0
  0
VERTEX
  5
AE4
  8
PROFILEEDGES
 10
36.92586130639005
 20
65.23528091646475
 30
0.0
 40
25.4
 41
25.4
  0
VERTEX
  5
AE5
  8
PROFILEEDGES
 10
36.98345873723807
 20
64.88641842257726
 30
0.0
 40
25.4
 41
25.4
  0
SEQEND
  5
EEC
  8
PROFILEEDGES
  0
POLYLINE
  5
3CD
  8
PROFILEEDGES
 66
     1
 10
0.0
 20
0.0
 30
0.0
  0
VERTEX
  5
AE6
  8
PROFILEEDGES
 10
36.98345873723807
 20
64.88641842257726
 30
0.0
 40
25.4
 41
25.4
  0
VERTEX
  5
AE7
  8
PROFILEEDGES
 10
37.01811614879414
 20
64.53453581785537
 30
0.0
 40
25.4
 41
25.4
  0
SEQEND
  5
EED
  8
PROFILEEDGES
  0
POLYLINE
  5
3CE
  8
PROFILEEDGES
 66
     1
 10
0.0
 20
0.0
 30
0.0
  0
VERTEX
  5
AE8
  8
PROFILEEDGES
 10
37.01811614879414
 20
64.53453581785537
 30
0.0
 40
25.4
 41
25.4
  0
VERTEX
  5
AE9
  8
PROFILEEDGES
 10
37.02968513270122
 20
64.18113991763437
 30
0.0
 40
25.4
 41
25.4
  0
SEQEND
  5
EEE
  8
PROFILEEDGES
  0
POLYLINE
  5
3CF
  8
PROFILEEDGES
 66
     1
 10
0.0
 20
0.0
 30
0.0
  0
VERTEX
  5
AEA
  8
PROFILEEDGES
 10
37.02968513270122
 20
64.18113991763437
 30
0.0
 40
25.4
 41
25.4
  0
VERTEX
  5
AEB
  8
PROFILEEDGES
 10
37.01811614879414
 20
63.82774401741337
 30
0.0
 40
25.4
 41
25.4
  0
SEQEND
  5
EEF
  8
PROFILEEDGES
  0
POLYLINE
  5
3D0
  8
PROFILEEDGES
 66
     1
 10
0.0
 20
0.0
 30
0.0
  0
VERTEX
  5
AEC
  8
PROFILEEDGES
 10
37.01811614879414
 20
63.82774401741337
 30
0.0
 40
25.4
 41
25.4
  0
VERTEX
  5
AED
  8
PROFILEEDGES
 10
36.98345873723817
 20
63.47586141269143
 30
0.0
 40
25.4
 41
25.4
  0
SEQEND
  5
EF0
  8
PROFILEEDGES
  0
POLYLINE
  5
3D1
  8
PROFILEEDGES
 66
     1
 10
0.0
 20
0.0
 30
0.0
  0
VERTEX
  5
AEE
  8
PROFILEEDGES
 10
36.98345873723817
 20
63.47586141269143
 30
0.0
 40
25.4
 41
25.4
  0
VERTEX
  5
AEF
  8
PROFILEEDGES
 10
36.92586130639015
 20
63.12699891880402
 30
0.0
 40
25.4
 41
25.4
  0
SEQEND
  5
EF1
  8
PROFILEEDGES
  0
POLYLINE
  5
3D2
  8
PROFILEEDGES
 66
     1
 10
0.0
 20
0.0
 30
0.0
  0
VERTEX
  5
AF0
  8
PROFILEEDGES
 10
36.92586130639015
 20
63.12699891880402
 30
0.0
 40
25.4
 41
25.4
  0
VERTEX
  5
AF1
  8
PROFILEEDGES
 10
36.84557049729162
 20
62.78265041850821
 30
0.0
 40
25.4
 41
25.4
  0
SEQEND
  5
EF2
  8
PROFILEEDGES
  0
POLYLINE
  5
3D3
  8
PROFILEEDGES
 66
     1
 10
0.0
 20
0.0
 30
0.0
  0
VERTEX
  5
AF2
  8
PROFILEEDGES
 10
36.84557049729162
 20
62.78265041850821
 30
0.0
 40
25.4
 41
25.4
  0
VERTEX
  5
AF3
  8
PROFILEEDGES
 10
36.7429301275135
 20
62.44429046494774
 30
0.0
 40
25.4
 41
25.4
  0
SEQEND
  5
EF3
  8
PROFILEEDGES
  0
POLYLINE
  5
3D4
  8
PROFILEEDGES
 66
     1
 10
0.0
 20
0.0
 30
0.0
  0
VERTEX
  5
AF4
  8
PROFILEEDGES
 10
36.7429301275135
 20
62.44429046494774
 30
0.0
 40
25.4
 41
25.4
  0
VERTEX
  5
AF5
  8
PROFILEEDGES
 10
36.61837971887693
 20
62.11336796738963
 30
0.0
 40
25.4
 41
25.4
  0
SEQEND
  5
EF4
  8
PROFILEEDGES
  0
POLYLINE
  5
3D5
  8
PROFILEEDGES
 66
     1
 10
0.0
 20
0.0
 30
0.0
  0
VERTEX
  5
AF6
  8
PROFILEEDGES
 10
36.61837971887693
 20
62.11336796738963
 30
0.0
 40
25.4
 41
25.4
  0
VERTEX
  5
AF7
  8
PROFILEEDGES
 10
36.4724526153529
 20
61.79129998677256
 30
0.0
 40
25.4
 41
25.4
  0
SEQEND
  5
EF5
  8
PROFILEEDGES
  0
POLYLINE
  5
3D6
  8
PROFILEEDGES
 66
     1
 10
0.0
 20
0.0
 30
0.0
  0
VERTEX
  5
AF8
  8
PROFILEEDGES
 10
36.4724526153529
 20
61.79129998677256
 30
0.0
 40
25.4
 41
25.4
  0
VERTEX
  5
AF9
  8
PROFILEEDGES
 10
36.30577369920196
 20
61.47946566763433
 30
0.0
 40
25.4
 41
25.4
  0
SEQEND
  5
EF6
  8
PROFILEEDGES
  0
POLYLINE
  5
3D7
  8
PROFILEEDGES
 66
     1
 10
0.0
 20
0.0
 30
0.0
  0
VERTEX
  5
AFA
  8
PROFILEEDGES
 10
36.30577369920196
 20
61.47946566763433
 30
0.0
 40
25.4
 41
25.4
  0
VERTEX
  5
AFB
  8
PROFILEEDGES
 10
36.11905671513197
 20
61.17920033240323
 30
0.0
 40
25.4
 41
25.4
  0
SEQEND
  5
EF7
  8
PROFILEEDGES
  0
POLYLINE
  5
3D8
  8
PROFILEEDGES
 66
     1
 10
0.0
 20
0.0
 30
0.0
  0
VERTEX
  5
AFC
  8
PROFILEEDGES
 10
36.11905671513197
 20
61.17920033240323
 30
0.0
 40
25.4
 41
25.4
  0
VERTEX
  5
AFD
  8
PROFILEEDGES
 10
35.91310121393408
 20
60.89178976334219
 30
0.0
 40
25.4
 41
25.4
  0
SEQEND
  5
EF8
  8
PROFILEEDGES
  0
POLYLINE
  5
3D9
  8
PROFILEEDGES
 66
     1
 10
0.0
 20
0.0
 30
0.0
  0
VERTEX
  5
AFE
  8
PROFILEEDGES
 10
35.91310121393408
 20
60.89178976334219
 30
0.0
 40
25.4
 41
25.4
  0
VERTEX
  5
AFF
  8
PROFILEEDGES
 10
35.68878912868328
 20
60.61846469663211
 30
0.0
 40
25.4
 41
25.4
  0
SEQEND
  5
EF9
  8
PROFILEEDGES
  0
POLYLINE
  5
3DA
  8
PROFILEEDGES
 66
     1
 10
0.0
 20
0.0
 30
0.0
  0
VERTEX
  5
B00
  8
PROFILEEDGES
 10
35.68878912868328
 20
60.61846469663211
 30
0.0
 40
25.4
 41
25.4
  0
VERTEX
  5
B01
  8
PROFILEEDGES
 10
35.44708099816561
 20
60.36039555217015
 30
0.0
 40
25.4
 41
25.4
  0
SEQEND
  5
EFA
  8
PROFILEEDGES
  0
POLYLINE
  5
3DB
  8
PROFILEEDGES
 66
     1
 10
0.0
 20
0.0
 30
0.0
  0
VERTEX
  5
B02
  8
PROFILEEDGES
 10
35.44708099816561
 20
60.36039555217015
 30
0.0
 40
25.4
 41
25.4
  0
VERTEX
  5
B03
  8
PROFILEEDGES
 10
35.18901185370378
 20
60.11868742165245
 30
0.0
 40
25.4
 41
25.4
  0
SEQEND
  5
EFB
  8
PROFILEEDGES
  0
POLYLINE
  5
3DC
  8
PROFILEEDGES
 66
     1
 10
0.0
 20
0.0
 30
0.0
  0
VERTEX
  5
B04
  8
PROFILEEDGES
 10
35.18901185370378
 20
60.11868742165245
 30
0.0
 40
25.4
 41
25.4
  0
VERTEX
  5
B05
  8
PROFILEEDGES
 10
34.91568678699364
 20
59.89437533640164
 30
0.0
 40
25.4
 41
25.4
  0
SEQEND
  5
EFC
  8
PROFILEEDGES
  0
POLYLINE
  5
3DD
  8
PROFILEEDGES
 66
     1
 10
0.0
 20
0.0
 30
0.0
  0
VERTEX
  5
B06
  8
PROFILEEDGES
 10
34.91568678699364
 20
59.89437533640164
 30
0.0
 40
25.4
 41
25.4
  0
VERTEX
  5
B07
  8
PROFILEEDGES
 10
34.62827621793265
 20
59.68841983520377
 30
0.0
 40
25.4
 41
25.4
  0
SEQEND
  5
EFD
  8
PROFILEEDGES
  0
POLYLINE
  5
3DE
  8
PROFILEEDGES
 66
     1
 10
0.0
 20
0.0
 30
0.0
  0
VERTEX
  5
B08
  8
PROFILEEDGES
 10
34.62827621793265
 20
59.68841983520377
 30
0.0
 40
25.4
 41
25.4
  0
VERTEX
  5
B09
  8
PROFILEEDGES
 10
34.32801088270151
 20
59.50170285113371
 30
0.0
 40
25.4
 41
25.4
  0
SEQEND
  5
EFE
  8
PROFILEEDGES
  0
POLYLINE
  5
3DF
  8
PROFILEEDGES
 66
     1
 10
0.0
 20
0.0
 30
0.0
  0
VERTEX
  5
B0A
  8
PROFILEEDGES
 10
34.32801088270151
 20
59.50170285113371
 30
0.0
 40
25.4
 41
25.4
  0
VERTEX
  5
B0B
  8
PROFILEEDGES
 10
34.01617656356339
 20
59.33502393498266
 30
0.0
 40
25.4
 41
25.4
  0
SEQEND
  5
EFF
  8
PROFILEEDGES
  0
POLYLINE
  5
3E0
  8
PROFILEEDGES
 66
     1
 10
0.0
 20
0.0
 30
0.0
  0
VERTEX
  5
B0C
  8
PROFILEEDGES
 10
34.01617656356339
 20
59.33502393498266
 30
0.0
 40
25.4
 41
25.4
  0
VERTEX
  5
B0D
  8
PROFILEEDGES
 10
33.69410858294634
 20
59.18909683145866
 30
0.0
 40
25.4
 41
25.4
  0
SEQEND
  5
F00
  8
PROFILEEDGES
  0
POLYLINE
  5
3E1
  8
PROFILEEDGES
 66
     1
 10
0.0
 20
0.0
 30
0.0
  0
VERTEX
  5
B0E
  8
PROFILEEDGES
 10
33.69410858294634
 20
59.18909683145866
 30
0.0
 40
25.4
 41
25.4
  0
VERTEX
  5
B0F
  8
PROFILEEDGES
 10
33.36318608538824
 20
59.06454642282204
 30
0.0
 40
25.4
 41
25.4
  0
SEQEND
  5
F01
  8
PROFILEEDGES
  0
POLYLINE
  5
3E2
  8
PROFILEEDGES
 66
     1
 10
0.0
 20
0.0
 30
0.0
  0
VERTEX
  5
B10
  8
PROFILEEDGES
 10
33.36318608538824
 20
59.06454642282204
 30
0.0
 40
25.4
 41
25.4
  0
VERTEX
  5
B11
  8
PROFILEEDGES
 10
33.02482613182771
 20
58.96190605304387
 30
0.0
 40
25.4
 41
25.4
  0
SEQEND
  5
F02
  8
PROFILEEDGES
  0
POLYLINE
  5
3E3
  8
PROFILEEDGES
 66
     1
 10
0.0
 20
0.0
 30
0.0
  0
VERTEX
  5
B12
  8
PROFILEEDGES
 10
33.02482613182771
 20
58.96190605304387
 30
0.0
 40
25.4
 41
25.4
  0
VERTEX
  5
B13
  8
PROFILEEDGES
 10
32.68047763153195
 20
58.88161524394528
 30
0.0
 40
25.4
 41
25.4
  0
SEQEND
  5
F03
  8
PROFILEEDGES
  0
POLYLINE
  5
3E4
  8
PROFILEEDGES
 66
     1
 10
0.0
 20
0.0
 30
0.0
  0
VERTEX
  5
B14
  8
PROFILEEDGES
 10
32.68047763153195
 20
58.88161524394528
 30
0.0
 40
25.4
 41
25.4
  0
VERTEX
  5
B15
  8
PROFILEEDGES
 10
32.33161513764458
 20
58.82401781309725
 30
0.0
 40
25.4
 41
25.4
  0
SEQEND
  5
F04
  8
PROFILEEDGES
  0
POLYLINE
  5
3E5
  8
PROFILEEDGES
 66
     1
 10
0.0
 20
0.0
 30
0.0
  0
VERTEX
  5
B16
  8
PROFILEEDGES
 10
32.33161513764458
 20
58.82401781309725
 30
0.0
 40
25.4
 41
25.4
  0
VERTEX
  5
B17
  8
PROFILEEDGES
 10
31.97973253292257
 20
58.7893604015412
 30
0.0
 40
25.4
 41
25.4
  0
SEQEND
  5
F05
  8
PROFILEEDGES
  0
POLYLINE
  5
3E6
  8
PROFILEEDGES
 66
     1
 10
0.0
 20
0.0
 30
0.0
  0
VERTEX
  5
B18
  8
PROFILEEDGES
 10
31.97973253292257
 20
58.7893604015412
 30
0.0
 40
25.4
 41
25.4
  0
VERTEX
  5
B19
  8
PROFILEEDGES
 10
31.62633663270163
 20
58.7777914176341
 30
0.0
 40
25.4
 41
25.4
  0
SEQEND
  5
F06
  8
PROFILEEDGES
  0
POLYLINE
  5
3E7
  8
PROFILEEDGES
 66
     1
 10
0.0
 20
0.0
 30
0.0
  0
VERTEX
  5
B1A
  8
PROFILEEDGES
 10
31.62633663270163
 20
58.7777914176341
 30
0.0
 40
25.4
 41
25.4
  0
VERTEX
  5
B1B
  8
PROFILEEDGES
 10
31.27294073248063
 20
58.78936040154114
 30
0.0
 40
25.4
 41
25.4
  0
SEQEND
  5
F07
  8
PROFILEEDGES
  0
POLYLINE
  5
3E8
  8
PROFILEEDGES
 66
     1
 10
0.0
 20
0.0
 30
0.0
  0
VERTEX
  5
B1C
  8
PROFILEEDGES
 10
31.27294073248063
 20
58.78936040154114
 30
0.0
 40
25.4
 41
25.4
  0
VERTEX
  5
B1D
  8
PROFILEEDGES
 10
30.92105812775872
 20
58.82401781309716
 30
0.0
 40
25.4
 41
25.4
  0
SEQEND
  5
F08
  8
PROFILEEDGES
  0
POLYLINE
  5
3E9
  8
PROFILEEDGES
 66
     1
 10
0.0
 20
0.0
 30
0.0
  0
VERTEX
  5
B1E
  8
PROFILEEDGES
 10
30.92105812775872
 20
58.82401781309716
 30
0.0
 40
25.4
 41
25.4
  0
VERTEX
  5
B1F
  8
PROFILEEDGES
 10
30.57219563387126
 20
58.88161524394518
 30
0.0
 40
25.4
 41
25.4
  0
SEQEND
  5
F09
  8
PROFILEEDGES
  0
POLYLINE
  5
3EA
  8
PROFILEEDGES
 66
     1
 10
0.0
 20
0.0
 30
0.0
  0
VERTEX
  5
B20
  8
PROFILEEDGES
 10
30.57219563387126
 20
58.88161524394518
 30
0.0
 40
25.4
 41
25.4
  0
VERTEX
  5
B21
  8
PROFILEEDGES
 10
30.22784713357548
 20
58.96190605304373
 30
0.0
 40
25.4
 41
25.4
  0
SEQEND
  5
F0A
  8
PROFILEEDGES
  0
POLYLINE
  5
3EB
  8
PROFILEEDGES
 66
     1
 10
0.0
 20
0.0
 30
0.0
  0
VERTEX
  5
B22
  8
PROFILEEDGES
 10
30.22784713357548
 20
58.96190605304373
 30
0.0
 40
25.4
 41
25.4
  0
VERTEX
  5
B23
  8
PROFILEEDGES
 10
29.88948718001499
 20
59.0645464228218
 30
0.0
 40
25.4
 41
25.4
  0
SEQEND
  5
F0B
  8
PROFILEEDGES
  0
POLYLINE
  5
3EC
  8
PROFILEEDGES
 66
     1
 10
0.0
 20
0.0
 30
0.0
  0
VERTEX
  5
B24
  8
PROFILEEDGES
 10
29.88948718001499
 20
59.0645464228218
 30
0.0
 40
25.4
 41
25.4
  0
VERTEX
  5
B25
  8
PROFILEEDGES
 10
29.55856468245687
 20
59.18909683145843
 30
0.0
 40
25.4
 41
25.4
  0
SEQEND
  5
F0C
  8
PROFILEEDGES
  0
POLYLINE
  5
3ED
  8
PROFILEEDGES
 66
     1
 10
0.0
 20
0.0
 30
0.0
  0
VERTEX
  5
B26
  8
PROFILEEDGES
 10
29.55856468245687
 20
59.18909683145843
 30
0.0
 40
25.4
 41
25.4
  0
VERTEX
  5
B27
  8
PROFILEEDGES
 10
29.23649670183981
 20
59.33502393498239
 30
0.0
 40
25.4
 41
25.4
  0
SEQEND
  5
F0D
  8
PROFILEEDGES
  0
POLYLINE
  5
3EE
  8
PROFILEEDGES
 66
     1
 10
0.0
 20
0.0
 30
0.0
  0
VERTEX
  5
B28
  8
PROFILEEDGES
 10
29.23649670183981
 20
59.33502393498239
 30
0.0
 40
25.4
 41
25.4
  0
VERTEX
  5
B29
  8
PROFILEEDGES
 10
28.92466238270159
 20
59.50170285113341
 30
0.0
 40
25.4
 41
25.4
  0
SEQEND
  5
F0E
  8
PROFILEEDGES
  0
POLYLINE
  5
3EF
  8
PROFILEEDGES
 66
     1
 10
0.0
 20
0.0
 30
0.0
  0
VERTEX
  5
B2A
  8
PROFILEEDGES
 10
28.92466238270159
 20
59.50170285113341
 30
0.0
 40
25.4
 41
25.4
  0
VERTEX
  5
B2B
  8
PROFILEEDGES
 10
28.62439704747048
 20
59.68841983520338
 30
0.0
 40
25.4
 41
25.4
  0
SEQEND
  5
F0F
  8
PROFILEEDGES
  0
POLYLINE
  5
3F0
  8
PROFILEEDGES
 66
     1
 10
0.0
 20
0.0
 30
0.0
  0
VERTEX
  5
B2C
  8
PROFILEEDGES
 10
28.62439704747048
 20
59.68841983520338
 30
0.0
 40
25.4
 41
25.4
  0
VERTEX
  5
B2D
  8
PROFILEEDGES
 10
28.33698647840945
 20
59.89437533640126
 30
0.0
 40
25.4
 41
25.4
  0
SEQEND
  5
F10
  8
PROFILEEDGES
  0
POLYLINE
  5
3F1
  8
PROFILEEDGES
 66
     1
 10
0.0
 20
0.0
 30
0.0
  0
VERTEX
  5
B2E
  8
PROFILEEDGES
 10
28.33698647840945
 20
59.89437533640126
 30
0.0
 40
25.4
 41
25.4
  0
VERTEX
  5
B2F
  8
PROFILEEDGES
 10
28.06366141169935
 20
60.11868742165208
 30
0.0
 40
25.4
 41
25.4
  0
SEQEND
  5
F11
  8
PROFILEEDGES
  0
POLYLINE
  5
3F2
  8
PROFILEEDGES
 66
     1
 10
0.0
 20
0.0
 30
0.0
  0
VERTEX
  5
B30
  8
PROFILEEDGES
 10
28.06366141169935
 20
60.11868742165208
 30
0.0
 40
25.4
 41
25.4
  0
VERTEX
  5
B31
  8
PROFILEEDGES
 10
27.80559226723737
 20
60.36039555216967
 30
0.0
 40
25.4
 41
25.4
  0
SEQEND
  5
F12
  8
PROFILEEDGES
  0
POLYLINE
  5
3F3
  8
PROFILEEDGES
 66
     1
 10
0.0
 20
0.0
 30
0.0
  0
VERTEX
  5
B32
  8
PROFILEEDGES
 10
74.35034214880055
 20
-19.32515508237057
 30
0.0
 40
25.4
 41
25.4
  0
VERTEX
  5
B33
  8
PROFILEEDGES
 10
78.78283263271128
 20
-19.30622401779705
 30
0.0
 40
25.4
 41
25.4
  0
SEQEND
  5
F13
  8
PROFILEEDGES
  0
POLYLINE
  5
3F4
  8
PROFILEEDGES
 66
     1
 10
0.0
 20
0.0
 30
0.0
  0
VERTEX
  5
B34
  8
PROFILEEDGES
 10
-43.02464787626784
 20
-52.77032008236993
 30
0.0
 40
25.4
 41
25.4
  0
VERTEX
  5
B35
  8
PROFILEEDGES
 10
-111.067539879548
 20
-52.77032008237021
 30
0.0
 40
25.4
 41
25.4
  0
SEQEND
  5
F14
  8
PROFILEEDGES
  0
POLYLINE
  5
3F5
  8
PROFILEEDGES
 66
     1
 10
0.0
 20
0.0
 30
0.0
  0
VERTEX
  5
B36
  8
PROFILEEDGES
 10
-32.62433612539289
 20
-52.77032008236981
 30
0.0
 40
25.4
 41
25.4
  0
VERTEX
  5
B37
  8
PROFILEEDGES
 10
-32.61381886729458
 20
-59.16766456627998
 30
0.0
 40
25.4
 41
25.4
  0
SEQEND
  5
F15
  8
PROFILEEDGES
  0
POLYLINE
  5
3F6
  8
PROFILEEDGES
 66
     1
 10
0.0
 20
0.0
 30
0.0
  0
VERTEX
  5
B38
  8
PROFILEEDGES
 10
-111.067539879548
 20
-52.77032008237021
 30
0.0
 40
25.4
 41
25.4
  0
VERTEX
  5
B39
  8
PROFILEEDGES
 10
-111.9666376407234
 20
-52.77032008236977
 30
0.0
 40
25.4
 41
25.4
  0
SEQEND
  5
F16
  8
PROFILEEDGES
  0
POLYLINE
  5
3F7
  8
PROFILEEDGES
 66
     1
 10
0.0
 20
0.0
 30
0.0
  0
VERTEX
  5
B3A
  8
PROFILEEDGES
 10
-126.2797124041777
 20
-52.77032008236991
 30
0.0
 40
25.4
 41
25.4
  0
VERTEX
  5
B3B
  8
PROFILEEDGES
 10
-126.2958438672946
 20
-59.16766456627972
 30
0.0
 40
25.4
 41
25.4
  0
SEQEND
  5
F17
  8
PROFILEEDGES
  0
POLYLINE
  5
3F8
  8
PROFILEEDGES
 66
     1
 10
0.0
 20
0.0
 30
0.0
  0
VERTEX
  5
B3C
  8
PROFILEEDGES
 10
-28.68411086729558
 20
-105.3185955984629
 30
0.0
 40
25.4
 41
25.4
  0
VERTEX
  5
B3D
  8
PROFILEEDGES
 10
-28.70304193187085
 20
-111.7159400823704
 30
0.0
 40
25.4
 41
25.4
  0
SEQEND
  5
F18
  8
PROFILEEDGES
  0
POLYLINE
  5
3F9
  8
PROFILEEDGES
 66
     1
 10
0.0
 20
0.0
 30
0.0
  0
VERTEX
  5
B3E
  8
PROFILEEDGES
 10
19.83721263269991
 20
-19.30770772493378
 30
0.0
 40
25.4
 41
25.4
  0
VERTEX
  5
B3F
  8
PROFILEEDGES
 10
24.26970311661051
 20
-19.32515508236848
 30
0.0
 40
25.4
 41
25.4
  0
SEQEND
  5
F19
  8
PROFILEEDGES
  0
POLYLINE
  5
3FA
  8
PROFILEEDGES
 66
     1
 10
0.0
 20
0.0
 30
0.0
  0
VERTEX
  5
B40
  8
PROFILEEDGES
 10
-43.02464787626784
 20
-52.77032008236993
 30
0.0
 40
25.4
 41
25.4
  0
VERTEX
  5
B41
  8
PROFILEEDGES
 10
-41.01381781124967
 20
-52.77032008236991
 30
0.0
 40
25.4
 41
25.4
  0
SEQEND
  5
F1A
  8
PROFILEEDGES
  0
POLYLINE
  5
3FB
  8
PROFILEEDGES
 66
     1
 10
0.0
 20
0.0
 30
0.0
  0
VERTEX
  5
B42
  8
PROFILEEDGES
 10
-32.62433612539289
 20
-52.77032008236981
 30
0.0
 40
25.4
 41
25.4
  0
VERTEX
  5
B43
  8
PROFILEEDGES
 10
-28.68411086729546
 20
-52.77032008236887
 30
0.0
 40
25.4
 41
25.4
  0
SEQEND
  5
F1B
  8
PROFILEEDGES
  0
POLYLINE
  5
3FC
  8
PROFILEEDGES
 66
     1
 10
0.0
 20
0.0
 30
0.0
  0
VERTEX
  5
B44
  8
PROFILEEDGES
 10
-41.01381781124967
 20
-52.77032008236991
 30
0.0
 40
25.4
 41
25.4
  0
VERTEX
  5
B45
  8
PROFILEEDGES
 10
-34.05254989869211
 20
-52.77032008236986
 30
0.0
 40
25.4
 41
25.4
  0
SEQEND
  5
F1C
  8
PROFILEEDGES
  0
POLYLINE
  5
3FD
  8
PROFILEEDGES
 66
     1
 10
0.0
 20
0.0
 30
0.0
  0
VERTEX
  5
B46
  8
PROFILEEDGES
 10
-34.05254989869211
 20
-52.77032008236986
 30
0.0
 40
25.4
 41
25.4
  0
VERTEX
  5
B47
  8
PROFILEEDGES
 10
-32.62433612539289
 20
-52.77032008236981
 30
0.0
 40
25.4
 41
25.4
  0
SEQEND
  5
F1D
  8
PROFILEEDGES
  0
POLYLINE
  5
3FE
  8
PROFILEEDGES
 66
     1
 10
0.0
 20
0.0
 30
0.0
  0
VERTEX
  5
B48
  8
PROFILEEDGES
 10
-126.2797124041777
 20
-52.77032008236991
 30
0.0
 40
25.4
 41
25.4
  0
VERTEX
  5
B49
  8
PROFILEEDGES
 10
-122.3661358672968
 20
-52.77032008236865
 30
0.0
 40
25.4
 41
25.4
  0
SEQEND
  5
F1E
  8
PROFILEEDGES
  0
POLYLINE
  5
3FF
  8
PROFILEEDGES
 66
     1
 10
0.0
 20
0.0
 30
0.0
  0
VERTEX
  5
B4A
  8
PROFILEEDGES
 10
-32.61368909146328
 20
-111.7159400823705
 30
0.0
 40
25.4
 41
25.4
  0
VERTEX
  5
B4B
  8
PROFILEEDGES
 10
-34.05254989869224
 20
-111.7159400823702
 30
0.0
 40
25.4
 41
25.4
  0
SEQEND
  5
F1F
  8
PROFILEEDGES
  0
POLYLINE
  5
400
  8
PROFILEEDGES
 66
     1
 10
0.0
 20
0.0
 30
0.0
  0
VERTEX
  5
B4C
  8
PROFILEEDGES
 10
-41.01381781124981
 20
-111.71594008237
 30
0.0
 40
25.4
 41
25.4
  0
VERTEX
  5
B4D
  8
PROFILEEDGES
 10
-43.02464787626798
 20
-111.71594008237
 30
0.0
 40
25.4
 41
25.4
  0
SEQEND
  5
F20
  8
PROFILEEDGES
  0
POLYLINE
  5
401
  8
PROFILEEDGES
 66
     1
 10
0.0
 20
0.0
 30
0.0
  0
VERTEX
  5
B4E
  8
PROFILEEDGES
 10
-28.70304193187085
 20
-111.7159400823704
 30
0.0
 40
25.4
 41
25.4
  0
VERTEX
  5
B4F
  8
PROFILEEDGES
 10
-32.61368909146328
 20
-111.7159400823705
 30
0.0
 40
25.4
 41
25.4
  0
SEQEND
  5
F21
  8
PROFILEEDGES
  0
POLYLINE
  5
402
  8
PROFILEEDGES
 66
     1
 10
0.0
 20
0.0
 30
0.0
  0
VERTEX
  5
B50
  8
PROFILEEDGES
 10
-122.366135867297
 20
-111.7159400823687
 30
0.0
 40
25.4
 41
25.4
  0
VERTEX
  5
B51
  8
PROFILEEDGES
 10
-126.2958438672961
 20
-111.7159400823696
 30
0.0
 40
25.4
 41
25.4
  0
SEQEND
  5
F22
  8
PROFILEEDGES
  0
POLYLINE
  5
403
  8
PROFILEEDGES
 66
     1
 10
0.0
 20
0.0
 30
0.0
  0
VERTEX
  5
B52
  8
PROFILEEDGES
 10
-41.01381781124981
 20
-111.71594008237
 30
0.0
 40
25.4
 41
25.4
  0
VERTEX
  5
B53
  8
PROFILEEDGES
 10
-34.05254989869224
 20
-111.7159400823702
 30
0.0
 40
25.4
 41
25.4
  0
SEQEND
  5
F23
  8
PROFILEEDGES
  0
POLYLINE
  5
404
  8
PROFILEEDGES
 66
     1
 10
0.0
 20
0.0
 30
0.0
  0
VERTEX
  5
B54
  8
PROFILEEDGES
 10
-113.9661369233433
 20
-111.7159400823699
 30
0.0
 40
25.4
 41
25.4
  0
VERTEX
  5
B55
  8
PROFILEEDGES
 10
-120.9274048359008
 20
-111.71594008237
 30
0.0
 40
25.4
 41
25.4
  0
SEQEND
  5
F24
  8
PROFILEEDGES
  0
POLYLINE
  5
405
  8
PROFILEEDGES
 66
     1
 10
0.0
 20
0.0
 30
0.0
  0
VERTEX
  5
B56
  8
PROFILEEDGES
 10
-120.9274048359007
 20
-52.77032008236966
 30
0.0
 40
25.4
 41
25.4
  0
VERTEX
  5
B57
  8
PROFILEEDGES
 10
-122.3661358672968
 20
-52.77032008236865
 30
0.0
 40
25.4
 41
25.4
  0
SEQEND
  5
F25
  8
PROFILEEDGES
  0
POLYLINE
  5
406
  8
PROFILEEDGES
 66
     1
 10
0.0
 20
0.0
 30
0.0
  0
VERTEX
  5
B58
  8
PROFILEEDGES
 10
-111.9666376407234
 20
-52.77032008236977
 30
0.0
 40
25.4
 41
25.4
  0
VERTEX
  5
B59
  8
PROFILEEDGES
 10
-113.9661369233431
 20
-52.77032008236974
 30
0.0
 40
25.4
 41
25.4
  0
SEQEND
  5
F26
  8
PROFILEEDGES
  0
POLYLINE
  5
407
  8
PROFILEEDGES
 66
     1
 10
0.0
 20
0.0
 30
0.0
  0
VERTEX
  5
B5A
  8
PROFILEEDGES
 10
-111.9666376407235
 20
-111.7159400823699
 30
0.0
 40
25.4
 41
25.4
  0
VERTEX
  5
B5B
  8
PROFILEEDGES
 10
-113.9661369233433
 20
-111.7159400823699
 30
0.0
 40
25.4
 41
25.4
  0
SEQEND
  5
F27
  8
PROFILEEDGES
  0
POLYLINE
  5
408
  8
PROFILEEDGES
 66
     1
 10
0.0
 20
0.0
 30
0.0
  0
VERTEX
  5
B5C
  8
PROFILEEDGES
 10
-120.9274048359008
 20
-111.71594008237
 30
0.0
 40
25.4
 41
25.4
  0
VERTEX
  5
B5D
  8
PROFILEEDGES
 10
-122.366135867297
 20
-111.7159400823687
 30
0.0
 40
25.4
 41
25.4
  0
SEQEND
  5
F28
  8
PROFILEEDGES
  0
POLYLINE
  5
409
  8
PROFILEEDGES
 66
     1
 10
0.0
 20
0.0
 30
0.0
  0
VERTEX
  5
B5E
  8
PROFILEEDGES
 10
-126.2958438672961
 20
-111.7159400823696
 30
0.0
 40
25.4
 41
25.4
  0
VERTEX
  5
B5F
  8
PROFILEEDGES
 10
-126.2958438672946
 20
-59.16766456627972
 30
0.0
 40
25.4
 41
25.4
  0
SEQEND
  5
F29
  8
PROFILEEDGES
  0
POLYLINE
  5
40A
  8
PROFILEEDGES
 66
     1
 10
0.0
 20
0.0
 30
0.0
  0
VERTEX
  5
B60
  8
PROFILEEDGES
 10
-28.68411086729558
 20
-105.3185955984629
 30
0.0
 40
25.4
 41
25.4
  0
VERTEX
  5
B61
  8
PROFILEEDGES
 10
-28.68411086729546
 20
-52.77032008236887
 30
0.0
 40
25.4
 41
25.4
  0
SEQEND
  5
F2A
  8
PROFILEEDGES
  0
POLYLINE
  5
40B
  8
PROFILEEDGES
 66
     1
 10
0.0
 20
0.0
 30
0.0
  0
VERTEX
  5
B62
  8
PROFILEEDGES
 10
-32.61368909146328
 20
-111.7159400823705
 30
0.0
 40
25.4
 41
25.4
  0
VERTEX
  5
B63
  8
PROFILEEDGES
 10
-32.61381886729458
 20
-59.16766456627998
 30
0.0
 40
25.4
 41
25.4
  0
SEQEND
  5
F2B
  8
PROFILEEDGES
  0
POLYLINE
  5
40C
  8
PROFILEEDGES
 66
     1
 10
0.0
 20
0.0
 30
0.0
  0
VERTEX
  5
B64
  8
PROFILEEDGES
 10
-122.366135867297
 20
-111.7159400823687
 30
0.0
 40
25.4
 41
25.4
  0
VERTEX
  5
B65
  8
PROFILEEDGES
 10
-122.3661358672968
 20
-52.77032008236865
 30
0.0
 40
25.4
 41
25.4
  0
SEQEND
  5
F2C
  8
PROFILEEDGES
  0
POLYLINE
  5
40D
  8
PROFILEEDGES
 66
     1
 10
0.0
 20
0.0
 30
0.0
  0
VERTEX
  5
B66
  8
PROFILEEDGES
 10
-120.9274048359007
 20
-52.77032008236966
 30
0.0
 40
25.4
 41
25.4
  0
VERTEX
  5
B67
  8
PROFILEEDGES
 10
-113.9661369233431
 20
-52.77032008236974
 30
0.0
 40
25.4
 41
25.4
  0
SEQEND
  5
F2D
  8
PROFILEEDGES
  0
POLYLINE
  5
40E
  8
PROFILEEDGES
 66
     1
 10
0.0
 20
0.0
 30
0.0
  0
VERTEX
  5
B68
  8
PROFILEEDGES
 10
-126.2958438672961
 20
39.19907035483575
 30
0.0
 40
25.4
 41
25.4
  0
VERTEX
  5
B69
  8
PROFILEEDGES
 10
-126.2958438672959
 20
128.0388949176329
 30
0.0
 40
25.4
 41
25.4
  0
SEQEND
  5
F2E
  8
PROFILEEDGES
  0
POLYLINE
  5
40F
  8
PROFILEEDGES
 66
     1
 10
0.0
 20
0.0
 30
0.0
  0
VERTEX
  5
B6A
  8
PROFILEEDGES
 10
-111.0675398795482
 20
-19.32515508236741
 30
0.0
 40
25.4
 41
25.4
  0
VERTEX
  5
B6B
  8
PROFILEEDGES
 10
-42.82379950190397
 20
-19.32515508236755
 30
0.0
 40
25.4
 41
25.4
  0
SEQEND
  5
F2F
  8
PROFILEEDGES
  0
POLYLINE
  5
410
  8
PROFILEEDGES
 66
     1
 10
0.0
 20
0.0
 30
0.0
  0
VERTEX
  5
B6C
  8
PROFILEEDGES
 10
-111.0675398795482
 20
-15.39544708237198
 30
0.0
 40
25.4
 41
25.4
  0
VERTEX
  5
B6D
  8
PROFILEEDGES
 10
-42.82379950190396
 20
-15.39544708237214
 30
0.0
 40
25.4
 41
25.4
  0
SEQEND
  5
F30
  8
PROFILEEDGES
  0
POLYLINE
  5
411
  8
PROFILEEDGES
 66
     1
 10
0.0
 20
0.0
 30
0.0
  0
VERTEX
  5
B6E
  8
PROFILEEDGES
 10
-28.68411086729418
 20
39.19907035483553
 30
0.0
 40
25.4
 41
25.4
  0
VERTEX
  5
B6F
  8
PROFILEEDGES
 10
-28.68411086729539
 20
128.0388949176327
 30
0.0
 40
25.4
 41
25.4
  0
SEQEND
  5
F31
  8
PROFILEEDGES
  0
POLYLINE
  5
412
  8
PROFILEEDGES
 66
     1
 10
0.0
 20
0.0
 30
0.0
  0
VERTEX
  5
B70
  8
PROFILEEDGES
 10
-32.61381886729613
 20
39.1990703548401
 30
0.0
 40
25.4
 41
25.4
  0
VERTEX
  5
B71
  8
PROFILEEDGES
 10
-32.61381886729593
 20
128.0388949176281
 30
0.0
 40
25.4
 41
25.4
  0
SEQEND
  5
F32
  8
PROFILEEDGES
  0
POLYLINE
  5
413
  8
PROFILEEDGES
 66
     1
 10
0.0
 20
0.0
 30
0.0
  0
VERTEX
  5
B72
  8
PROFILEEDGES
 10
-122.366135867297
 20
39.1990703548403
 30
0.0
 40
25.4
 41
25.4
  0
VERTEX
  5
B73
  8
PROFILEEDGES
 10
-122.3661358672968
 20
128.0388949176329
 30
0.0
 40
25.4
 41
25.4
  0
SEQEND
  5
F33
  8
PROFILEEDGES
  0
POLYLINE
  5
414
  8
PROFILEEDGES
 66
     1
 10
0.0
 20
0.0
 30
0.0
  0
VERTEX
  5
B74
  8
PROFILEEDGES
 10
19.83721263271065
 20
25.98567529878966
 30
0.0
 40
25.4
 41
25.4
  0
VERTEX
  5
B75
  8
PROFILEEDGES
 10
19.83721263271157
 20
32.94694321134779
 30
0.0
 40
25.4
 41
25.4
  0
SEQEND
  5
F34
  8
PROFILEEDGES
  0
POLYLINE
  5
415
  8
PROFILEEDGES
 66
     1
 10
0.0
 20
0.0
 30
0.0
  0
VERTEX
  5
B76
  8
PROFILEEDGES
 10
19.83721263271066
 20
21.8175905364651
 30
0.0
 40
25.4
 41
25.4
  0
VERTEX
  5
B77
  8
PROFILEEDGES
 10
19.83721263271168
 20
14.85632262390614
 30
0.0
 40
25.4
 41
25.4
  0
SEQEND
  5
F35
  8
PROFILEEDGES
  0
POLYLINE
  5
416
  8
PROFILEEDGES
 66
     1
 10
0.0
 20
0.0
 30
0.0
  0
VERTEX
  5
B78
  8
PROFILEEDGES
 10
19.83721263271065
 20
25.98567529878966
 30
0.0
 40
25.4
 41
25.4
  0
VERTEX
  5
B79
  8
PROFILEEDGES
 10
19.83721263271066
 20
21.8175905364651
 30
0.0
 40
25.4
 41
25.4
  0
SEQEND
  5
F36
  8
PROFILEEDGES
  0
POLYLINE
  5
417
  8
PROFILEEDGES
 66
     1
 10
0.0
 20
0.0
 30
0.0
  0
VERTEX
  5
B7A
  8
PROFILEEDGES
 10
78.78283263271219
 20
8.604195480419627
 30
0.0
 40
25.4
 41
25.4
  0
VERTEX
  5
B7B
  8
PROFILEEDGES
 10
78.78283263269888
 20
14.85632262391281
 30
0.0
 40
25.4
 41
25.4
  0
SEQEND
  5
F37
  8
PROFILEEDGES
  0
POLYLINE
  5
418
  8
PROFILEEDGES
 66
     1
 10
0.0
 20
0.0
 30
0.0
  0
VERTEX
  5
B7C
  8
PROFILEEDGES
 10
78.78283263271194
 20
39.19907035483483
 30
0.0
 40
25.4
 41
25.4
  0
VERTEX
  5
B7D
  8
PROFILEEDGES
 10
78.78283263271163
 20
32.94694321134827
 30
0.0
 40
25.4
 41
25.4
  0
SEQEND
  5
F38
  8
PROFILEEDGES
  0
POLYLINE
  5
419
  8
PROFILEEDGES
 66
     1
 10
0.0
 20
0.0
 30
0.0
  0
VERTEX
  5
B7E
  8
PROFILEEDGES
 10
78.78283263269874
 20
-10.48331208236629
 30
0.0
 40
25.4
 41
25.4
  0
VERTEX
  5
B7F
  8
PROFILEEDGES
 10
78.78283263271128
 20
-19.30622401779705
 30
0.0
 40
25.4
 41
25.4
  0
SEQEND
  5
F39
  8
PROFILEEDGES
  0
POLYLINE
  5
41A
  8
PROFILEEDGES
 66
     1
 10
0.0
 20
0.0
 30
0.0
  0
VERTEX
  5
B80
  8
PROFILEEDGES
 10
19.8372126327123
 20
-10.4833120823733
 30
0.0
 40
25.4
 41
25.4
  0
VERTEX
  5
B81
  8
PROFILEEDGES
 10
19.83721263269991
 20
-19.30770772493378
 30
0.0
 40
25.4
 41
25.4
  0
SEQEND
  5
F3A
  8
PROFILEEDGES
  0
POLYLINE
  5
41B
  8
PROFILEEDGES
 66
     1
 10
0.0
 20
0.0
 30
0.0
  0
VERTEX
  5
B82
  8
PROFILEEDGES
 10
19.83721263271157
 20
32.94694321134779
 30
0.0
 40
25.4
 41
25.4
  0
VERTEX
  5
B83
  8
PROFILEEDGES
 10
19.83721263271187
 20
39.19907035483435
 30
0.0
 40
25.4
 41
25.4
  0
SEQEND
  5
F3B
  8
PROFILEEDGES
  0
POLYLINE
  5
41C
  8
PROFILEEDGES
 66
     1
 10
0.0
 20
0.0
 30
0.0
  0
VERTEX
  5
B84
  8
PROFILEEDGES
 10
19.83721263271212
 20
8.604195480419131
 30
0.0
 40
25.4
 41
25.4
  0
VERTEX
  5
B85
  8
PROFILEEDGES
 10
19.83721263271168
 20
14.85632262390614
 30
0.0
 40
25.4
 41
25.4
  0
SEQEND
  5
F3C
  8
PROFILEEDGES
  0
POLYLINE
  5
41D
  8
PROFILEEDGES
 66
     1
 10
0.0
 20
0.0
 30
0.0
  0
VERTEX
  5
B86
  8
PROFILEEDGES
 10
78.7828326326998
 20
21.81759053647088
 30
0.0
 40
25.4
 41
25.4
  0
VERTEX
  5
B87
  8
PROFILEEDGES
 10
78.78283263269888
 20
14.85632262391281
 30
0.0
 40
25.4
 41
25.4
  0
SEQEND
  5
F3D
  8
PROFILEEDGES
  0
POLYLINE
  5
41E
  8
PROFILEEDGES
 66
     1
 10
0.0
 20
0.0
 30
0.0
  0
VERTEX
  5
B88
  8
PROFILEEDGES
 10
78.7828326326998
 20
21.81759053647088
 30
0.0
 40
25.4
 41
25.4
  0
VERTEX
  5
B89
  8
PROFILEEDGES
 10
78.78283263269977
 20
25.98567529879539
 30
0.0
 40
25.4
 41
25.4
  0
SEQEND
  5
F3E
  8
PROFILEEDGES
  0
POLYLINE
  5
41F
  8
PROFILEEDGES
 66
     1
 10
0.0
 20
0.0
 30
0.0
  0
VERTEX
  5
B8A
  8
PROFILEEDGES
 10
78.78283263271163
 20
32.94694321134827
 30
0.0
 40
25.4
 41
25.4
  0
VERTEX
  5
B8B
  8
PROFILEEDGES
 10
78.78283263269977
 20
25.98567529879539
 30
0.0
 40
25.4
 41
25.4
  0
SEQEND
  5
F3F
  8
PROFILEEDGES
  0
POLYLINE
  5
420
  8
PROFILEEDGES
 66
     1
 10
0.0
 20
0.0
 30
0.0
  0
VERTEX
  5
B8C
  8
PROFILEEDGES
 10
24.26970311661051
 20
-19.32515508236848
 30
0.0
 40
25.4
 41
25.4
  0
VERTEX
  5
B8D
  8
PROFILEEDGES
 10
74.35034214880055
 20
-19.32515508237057
 30
0.0
 40
25.4
 41
25.4
  0
SEQEND
  5
F40
  8
PROFILEEDGES
  0
ENDSEC
  0
EOF
