  0
SECTION
  2
HEADER
  9
$ACADVER
  1
AC1009
  9
$DWGCODEPAGE
  3
ansi_1252
  9
$INSBASE
 10
0.0
 20
0.0
 30
0.0
  9
$EXTMIN
 10
1.000000000000000E+20
 20
1.000000000000000E+20
 30
1.000000000000000E+20
  9
$EXTMAX
 10
-1.000000000000000E+20
 20
-1.000000000000000E+20
 30
-1.000000000000000E+20
  9
$LIMMIN
 10
0.0
 20
0.0
  9
$LIMMAX
 10
12.0
 20
9.0
  9
$ORTHOMODE
 70
     0
  9
$REGENMODE
 70
     1
  9
$FILLMODE
 70
     1
  9
$QTEXTMODE
 70
     0
  9
$MIRRTEXT
 70
     1
  9
$DRAGMODE
 70
     2
  9
$LTSCALE
 40
1.0
  9
$OSMODE
 70
    37
  9
$ATTMODE
 70
     1
  9
$TEXTSIZE
 40
0.2
  9
$TRACEWID
 40
0.05
  9
$TEXTSTYLE
  7
STANDARD
  9
$CLAYER
  8
0
  9
$CELTYPE
  6
BYLAYER
  9
$CECOLOR
 62
   256
  9
$DIMSCALE
 40
1.0
  9
$DIMASZ
 40
0.18
  9
$DIMEXO
 40
0.0625
  9
$DIMDLI
 40
0.38
  9
$DIMRND
 40
0.0
  9
$DIMDLE
 40
0.0
  9
$DIMEXE
 40
0.18
  9
$DIMTP
 40
0.0
  9
$DIMTM
 40
0.0
  9
$DIMTXT
 40
0.18
  9
$DIMCEN
 40
0.09
  9
$DIMTSZ
 40
0.0
  9
$DIMTOL
 70
     0
  9
$DIMLIM
 70
     0
  9
$DIMTIH
 70
     1
  9
$DIMTOH
 70
     1
  9
$DIMSE1
 70
     0
  9
$DIMSE2
 70
     0
  9
$DIMTAD
 70
     0
  9
$DIMZIN
 70
     0
  9
$DIMBLK
  1

  9
$DIMASO
 70
     1
  9
$DIMSHO
 70
     1
  9
$DIMPOST
  1

  9
$DIMAPOST
  1

  9
$DIMALT
 70
     0
  9
$DIMALTD
 70
     2
  9
$DIMALTF
 40
25.4
  9
$DIMLFAC
 40
1.0
  9
$DIMTOFL
 70
     0
  9
$DIMTVP
 40
0.0
  9
$DIMTIX
 70
     0
  9
$DIMSOXD
 70
     0
  9
$DIMSAH
 70
     0
  9
$DIMBLK1
  1

  9
$DIMBLK2
  1

  9
$DIMSTYLE
  2
STANDARD
  9
$DIMCLRD
 70
     0
  9
$DIMCLRE
 70
     0
  9
$DIMCLRT
 70
     0
  9
$DIMTFAC
 40
1.0
  9
$DIMGAP
 40
0.09
  9
$LUNITS
 70
     2
  9
$LUPREC
 70
     4
  9
$SKETCHINC
 40
0.1
  9
$FILLETRAD
 40
0.0
  9
$AUNITS
 70
     0
  9
$AUPREC
 70
     0
  9
$MENU
  1
.
  9
$ELEVATION
 40
0.0
  9
$PELEVATION
 40
0.0
  9
$THICKNESS
 40
0.0
  9
$LIMCHECK
 70
     0
  9
$CHAMFERA
 40
0.0
  9
$CHAMFERB
 40
0.0
  9
$SKPOLY
 70
     0
  9
$TDCREATE
 40
2460273.393863056
  9
$TDUPDATE
 40
2460273.393863172
  9
$TDINDWG
 40
0.0000000116
  9
$TDUSRTIMER
 40
0.0000000116
  9
$USRTIMER
 70
     1
  9
$ANGBASE
 50
0.0
  9
$ANGDIR
 70
     0
  9
$PDMODE
 70
     0
  9
$PDSIZE
 40
0.0
  9
$PLINEWID
 40
0.0
  9
$COORDS
 70
     1
  9
$SPLFRAME
 70
     0
  9
$SPLINETYPE
 70
     6
  9
$SPLINESEGS
 70
     8
  9
$ATTDIA
 70
     0
  9
$ATTREQ
 70
     1
  9
$HANDLING
 70
     1
  9
$HANDSEED
  5
20C
  9
$SURFTAB1
 70
     6
  9
$SURFTAB2
 70
     6
  9
$SURFTYPE
 70
     6
  9
$SURFU
 70
     6
  9
$SURFV
 70
     6
  9
$UCSNAME
  2

  9
$UCSORG
 10
0.0
 20
0.0
 30
0.0
  9
$UCSXDIR
 10
1.0
 20
0.0
 30
0.0
  9
$UCSYDIR
 10
0.0
 20
1.0
 30
0.0
  9
$PUCSNAME
  2

  9
$PUCSORG
 10
0.0
 20
0.0
 30
0.0
  9
$PUCSXDIR
 10
1.0
 20
0.0
 30
0.0
  9
$PUCSYDIR
 10
0.0
 20
1.0
 30
0.0
  9
$USERI1
 70
     0
  9
$USERI2
 70
     0
  9
$USERI3
 70
     0
  9
$USERI4
 70
     0
  9
$USERI5
 70
     0
  9
$USERR1
 40
0.0
  9
$USERR2
 40
0.0
  9
$USERR3
 40
0.0
  9
$USERR4
 40
0.0
  9
$USERR5
 40
0.0
  9
$WORLDVIEW
 70
     1
  9
$SHADEDGE
 70
     3
  9
$SHADEDIF
 70
    70
  9
$TILEMODE
 70
     1
  9
$MAXACTVP
 70
    64
  9
$PLIMCHECK
 70
     0
  9
$PEXTMIN
 10
1.000000000000000E+20
 20
1.000000000000000E+20
 30
1.000000000000000E+20
  9
$PEXTMAX
 10
-1.000000000000000E+20
 20
-1.000000000000000E+20
 30
-1.000000000000000E+20
  9
$PLIMMIN
 10
0.0
 20
0.0
  9
$PLIMMAX
 10
12.0
 20
9.0
  9
$UNITMODE
 70
     0
  9
$VISRETAIN
 70
     1
  9
$PLINEGEN
 70
     0
  9
$PSLTSCALE
 70
     1
  0
ENDSEC
  0
SECTION
  2
TABLES
  0
TABLE
  2
VPORT
 70
     1
  0
VPORT
  2
*ACTIVE
 70
     0
 10
0.0
 20
0.0
 11
1.0
 21
1.0
 12
0.0
 22
0.0
 13
0.0
 23
0.0
 14
0.5
 24
0.5
 15
0.5
 25
0.5
 16
0.0
 26
0.0
 36
1.0
 17
0.0
 27
0.0
 37
-1000.0
 40
373.4256863002454
 41
1.658454647256439
 42
50.0
 43
508.9991051432556
 44
735.9270365053251
 50
0.0
 51
0.0
 71
     0
 72
   100
 73
     1
 74
     3
 75
     0
 76
     0
 77
     0
 78
     0
  0
ENDTAB
  0
TABLE
  2
LTYPE
 70
     1
  0
LTYPE
  2
CONTINUOUS
 70
     0
  3
Solid line
 72
    65
 73
     0
 40
0.0
  0
ENDTAB
  0
TABLE
  2
LAYER
 70
     3
  0
LAYER
  2
0
 70
     0
 62
     7
  6
CONTINUOUS
  0
LAYER
  2
PROFILEEDGES
 70
     0
 62
     7
  6
CONTINUOUS
  0
LAYER
  2
SECTIONCUTEDGES
 70
     0
 62
     7
  6
CONTINUOUS
  0
ENDTAB
  0
TABLE
  2
STYLE
 70
     1
  0
STYLE
  2
STANDARD
 70
     0
 40
0.0
 41
1.0
 50
0.0
 71
     0
 42
0.2
  3
txt
  4

  0
ENDTAB
  0
TABLE
  2
VIEW
 70
     0
  0
ENDTAB
  0
TABLE
  2
UCS
 70
     0
  0
ENDTAB
  0
TABLE
  2
APPID
 70
     1
  0
APPID
  2
ACAD
 70
     0
  0
ENDTAB
  0
TABLE
  2
DIMSTYLE
 70
     1
  0
DIMSTYLE
  2
STANDARD
 70
     0
  3

  4

  5

  6

  7

 40
1.0
 41
0.18
 42
0.0625
 43
0.38
 44
0.18
 45
0.0
 46
0.0
 47
0.0
 48
0.0
140
0.18
141
0.09
142
0.0
143
25.4
144
1.0
145
0.0
146
1.0
147
0.09
 71
     0
 72
     0
 73
     1
 74
     1
 75
     0
 76
     0
 77
     0
 78
     0
170
     0
171
     2
172
     0
173
     0
174
     0
175
     0
176
     0
177
     0
178
     0
  0
ENDTAB
  0
ENDSEC
  0
SECTION
  2
BLOCKS
  0
BLOCK
  8
0
  2
$MODEL_SPACE
 70
     0
 10
0.0
 20
0.0
 30
0.0
  3
$MODEL_SPACE
  1

  0
ENDBLK
  5
21
  8
0
  0
BLOCK
 67
     1
  8
0
  2
$PAPER_SPACE
 70
     0
 10
0.0
 20
0.0
 30
0.0
  3
$PAPER_SPACE
  1

  0
ENDBLK
  5
1D
 67
     1
  8
0
  0
ENDSEC
  0
SECTION
  2
ENTITIES
  0
POLYLINE
  5
60
  8
PROFILEEDGES
 66
     1
 10
0.0
 20
0.0
 30
0.0
  0
VERTEX
  5
F2
  8
PROFILEEDGES
 10
-143.527438939417
 20
8.81745538637017
 30
0.0
 40
0.8363397229568765
 41
0.8363397229568765
  0
VERTEX
  5
F3
  8
PROFILEEDGES
 10
-144.3874083488466
 20
-2.109491996689966
 30
0.0
 40
0.8363397229568765
 41
0.8363397229568765
  0
SEQEND
  5
1AE
  8
PROFILEEDGES
  0
LINE
  5
61
  8
0
 10
-147.0079148905373
 20
21.43760297468102
 30
0.0
 11
-142.4321054920003
 21
32.4845840834635
 31
0.0
  0
POLYLINE
  5
62
  8
PROFILEEDGES
 66
     1
 10
0.0
 20
0.0
 30
0.0
  0
VERTEX
  5
F4
  8
PROFILEEDGES
 10
-74.53740834884664
 20
67.74050800331004
 30
0.0
 40
0.8363397229568765
 41
0.8363397229568765
  0
VERTEX
  5
F5
  8
PROFILEEDGES
 10
-85.46435573190676
 20
66.88053859388042
 30
0.0
 40
0.8363397229568765
 41
0.8363397229568765
  0
SEQEND
  5
1AF
  8
PROFILEEDGES
  0
LINE
  5
63
  8
0
 10
-119.3266445735331
 20
59.53760297468104
 30
0.0
 11
-109.1314844290001
 21
65.78520514646365
 31
0.0
  0
POLYLINE
  5
64
  8
PROFILEEDGES
 66
     1
 10
0.0
 20
0.0
 30
0.0
  0
VERTEX
  5
F6
  8
PROFILEEDGES
 10
-42.82617194203928
 20
60.12731371786755
 30
0.0
 40
0.8363397229568765
 41
0.8363397229568765
  0
VERTEX
  5
F7
  8
PROFILEEDGES
 10
-52.95257129175654
 20
64.32180566652653
 30
0.0
 40
0.8363397229568765
 41
0.8363397229568765
  0
SEQEND
  5
1B0
  8
PROFILEEDGES
  0
LINE
  5
65
  8
0
 10
-29.74817212416018
 20
59.53760297468106
 30
0.0
 11
-20.65587162243172
 21
51.77204472972497
 31
0.0
  0
POLYLINE
  5
66
  8
PROFILEEDGES
 66
     1
 10
0.0
 20
0.0
 30
0.0
  0
VERTEX
  5
F8
  8
PROFILEEDGES
 10
-25.14599968296629
 20
47.28191666919038
 30
0.0
 40
0.8363397229568765
 41
0.8363397229568765
  0
VERTEX
  5
F9
  8
PROFILEEDGES
 10
-33.48060847621738
 20
54.40034506040013
 30
0.0
 40
0.8363397229568765
 41
0.8363397229568765
  0
SEQEND
  5
1B1
  8
PROFILEEDGES
  0
LINE
  5
67
  8
0
 10
-109.1314844290001
 20
65.78520514646365
 30
0.0
 11
-98.08450332021762
 21
70.36101454500074
 31
0.0
  0
POLYLINE
  5
68
  8
PROFILEEDGES
 66
     1
 10
0.0
 20
0.0
 30
0.0
  0
VERTEX
  5
FA
  8
PROFILEEDGES
 10
-106.248644755654
 20
60.12731371786755
 30
0.0
 40
0.8363397229568765
 41
0.8363397229568765
  0
VERTEX
  5
FB
  8
PROFILEEDGES
 10
-115.5942082214759
 20
54.40034506040013
 30
0.0
 40
0.8363397229568765
 41
0.8363397229568765
  0
SEQEND
  5
1B2
  8
PROFILEEDGES
  0
LINE
  5
69
  8
0
 10
-128.4189450752616
 20
51.77204472972495
 30
0.0
 11
-119.3266445735331
 21
59.53760297468104
 31
0.0
  0
POLYLINE
  5
6A
  8
PROFILEEDGES
 66
     1
 10
0.0
 20
0.0
 30
0.0
  0
VERTEX
  5
FC
  8
PROFILEEDGES
 10
-115.5942082214759
 20
54.40034506040013
 30
0.0
 40
0.8363397229568765
 41
0.8363397229568765
  0
VERTEX
  5
FD
  8
PROFILEEDGES
 10
-123.928817014727
 20
47.28191666919038
 30
0.0
 40
0.8363397229568765
 41
0.8363397229568765
  0
SEQEND
  5
1B3
  8
PROFILEEDGES
  0
LINE
  5
6B
  8
0
 10
-98.08450332021762
 20
70.36101454500074
 30
0.0
 11
-86.45771458491224
 21
73.15235955665953
 31
0.0
  0
LINE
  5
6C
  8
0
 10
-86.45771458491224
 20
73.15235955665953
 30
0.0
 11
-74.53740834884663
 21
74.09050800331003
 31
0.0
  0
POLYLINE
  5
6D
  8
PROFILEEDGES
 66
     1
 10
0.0
 20
0.0
 30
0.0
  0
VERTEX
  5
FE
  8
PROFILEEDGES
 10
-85.46435573190676
 20
66.88053859388042
 30
0.0
 40
0.8363397229568765
 41
0.8363397229568765
  0
VERTEX
  5
FF
  8
PROFILEEDGES
 10
-96.12224540593671
 20
64.32180566652653
 30
0.0
 40
0.8363397229568765
 41
0.8363397229568765
  0
SEQEND
  5
1B4
  8
PROFILEEDGES
  0
POLYLINE
  5
6E
  8
PROFILEEDGES
 66
     1
 10
0.0
 20
0.0
 30
0.0
  0
VERTEX
  5
100
  8
PROFILEEDGES
 10
-52.95257129175654
 20
64.32180566652653
 30
0.0
 40
0.8363397229568765
 41
0.8363397229568765
  0
VERTEX
  5
101
  8
PROFILEEDGES
 10
-63.61046096578649
 20
66.88053859388042
 30
0.0
 40
0.8363397229568765
 41
0.8363397229568765
  0
SEQEND
  5
1B5
  8
PROFILEEDGES
  0
LINE
  5
6F
  8
0
 10
-62.61710211278103
 20
73.15235955665953
 30
0.0
 11
-50.99031337747563
 21
70.36101454500074
 31
0.0
  0
LINE
  5
70
  8
0
 10
-74.53740834884663
 20
74.09050800331003
 30
0.0
 11
-62.61710211278103
 21
73.15235955665953
 31
0.0
  0
LINE
  5
71
  8
0
 10
-136.1845033202176
 20
42.67974422799647
 30
0.0
 11
-128.4189450752616
 21
51.77204472972495
 31
0.0
  0
POLYLINE
  5
72
  8
PROFILEEDGES
 66
     1
 10
0.0
 20
0.0
 30
0.0
  0
VERTEX
  5
102
  8
PROFILEEDGES
 10
-136.7742140634041
 20
29.60174441011738
 30
0.0
 40
0.8363397229568765
 41
0.8363397229568765
  0
VERTEX
  5
103
  8
PROFILEEDGES
 10
-140.9687060120631
 20
19.47534506040011
 30
0.0
 40
0.8363397229568765
 41
0.8363397229568765
  0
SEQEND
  5
1B6
  8
PROFILEEDGES
  0
POLYLINE
  5
73
  8
PROFILEEDGES
 66
     1
 10
0.0
 20
0.0
 30
0.0
  0
VERTEX
  5
104
  8
PROFILEEDGES
 10
-131.0472454059367
 20
38.94730787593929
 30
0.0
 40
0.8363397229568765
 41
0.8363397229568765
  0
VERTEX
  5
105
  8
PROFILEEDGES
 10
-136.7742140634041
 20
29.60174441011738
 30
0.0
 40
0.8363397229568765
 41
0.8363397229568765
  0
SEQEND
  5
1B7
  8
PROFILEEDGES
  0
POLYLINE
  5
74
  8
PROFILEEDGES
 66
     1
 10
0.0
 20
0.0
 30
0.0
  0
VERTEX
  5
106
  8
PROFILEEDGES
 10
-96.12224540593671
 20
64.32180566652653
 30
0.0
 40
0.8363397229568765
 41
0.8363397229568765
  0
VERTEX
  5
107
  8
PROFILEEDGES
 10
-106.248644755654
 20
60.12731371786755
 30
0.0
 40
0.8363397229568765
 41
0.8363397229568765
  0
SEQEND
  5
1B8
  8
PROFILEEDGES
  0
POLYLINE
  5
75
  8
PROFILEEDGES
 66
     1
 10
0.0
 20
0.0
 30
0.0
  0
VERTEX
  5
108
  8
PROFILEEDGES
 10
-63.61046096578649
 20
66.88053859388042
 30
0.0
 40
0.8363397229568765
 41
0.8363397229568765
  0
VERTEX
  5
109
  8
PROFILEEDGES
 10
-74.53740834884664
 20
67.74050800331004
 30
0.0
 40
0.8363397229568765
 41
0.8363397229568765
  0
SEQEND
  5
1B9
  8
PROFILEEDGES
  0
LINE
  5
76
  8
0
 10
-142.4321054920003
 20
32.4845840834635
 30
0.0
 11
-136.1845033202176
 21
42.67974422799647
 31
0.0
  0
LINE
  5
77
  8
0
 10
-50.99031337747563
 20
70.36101454500074
 30
0.0
 11
-39.94333226869316
 21
65.78520514646368
 31
0.0
  0
LINE
  5
78
  8
0
 10
-39.94333226869316
 20
65.78520514646368
 30
0.0
 11
-29.74817212416018
 21
59.53760297468106
 31
0.0
  0
POLYLINE
  5
79
  8
PROFILEEDGES
 66
     1
 10
0.0
 20
0.0
 30
0.0
  0
VERTEX
  5
10A
  8
PROFILEEDGES
 10
-123.928817014727
 20
47.28191666919038
 30
0.0
 40
0.8363397229568765
 41
0.8363397229568765
  0
VERTEX
  5
10B
  8
PROFILEEDGES
 10
-131.0472454059367
 20
38.94730787593929
 30
0.0
 40
0.8363397229568765
 41
0.8363397229568765
  0
SEQEND
  5
1BA
  8
PROFILEEDGES
  0
POLYLINE
  5
7A
  8
PROFILEEDGES
 66
     1
 10
0.0
 20
0.0
 30
0.0
  0
VERTEX
  5
10C
  8
PROFILEEDGES
 10
-4.687408348846626
 20
-2.109491996689954
 30
0.0
 40
0.8363397229568765
 41
0.8363397229568765
  0
VERTEX
  5
10D
  8
PROFILEEDGES
 10
-5.547377758276244
 20
8.817455386370172
 30
0.0
 40
0.8363397229568765
 41
0.8363397229568765
  0
SEQEND
  5
1BB
  8
PROFILEEDGES
  0
POLYLINE
  5
7B
  8
PROFILEEDGES
 66
     1
 10
0.0
 20
0.0
 30
0.0
  0
VERTEX
  5
10E
  8
PROFILEEDGES
 10
-18.02757129175654
 20
38.94730787593931
 30
0.0
 40
0.8363397229568765
 41
0.8363397229568765
  0
VERTEX
  5
10F
  8
PROFILEEDGES
 10
-25.14599968296629
 20
47.28191666919038
 30
0.0
 40
0.8363397229568765
 41
0.8363397229568765
  0
SEQEND
  5
1BC
  8
PROFILEEDGES
  0
LINE
  5
7C
  8
0
 10
-6.642711205693011
 20
32.4845840834635
 30
0.0
 11
-2.06690180715592
 21
21.43760297468105
 31
0.0
  0
LINE
  5
7D
  8
0
 10
-2.06690180715592
 20
21.43760297468105
 30
0.0
 11
0.7244432045028606
 21
9.810814239375638
 31
0.0
  0
POLYLINE
  5
7E
  8
PROFILEEDGES
 66
     1
 10
0.0
 20
0.0
 30
0.0
  0
VERTEX
  5
110
  8
PROFILEEDGES
 10
-8.106110685630144
 20
19.47534506040013
 30
0.0
 40
0.8363397229568765
 41
0.8363397229568765
  0
VERTEX
  5
111
  8
PROFILEEDGES
 10
-12.30060263428912
 20
29.60174441011738
 30
0.0
 40
0.8363397229568765
 41
0.8363397229568765
  0
SEQEND
  5
1BD
  8
PROFILEEDGES
  0
LINE
  5
7F
  8
0
 10
0.7244432045028606
 20
9.810814239375638
 30
0.0
 11
1.662591651153374
 21
-2.109491996689954
 31
0.0
  0
LINE
  5
80
  8
0
 10
-12.89031337747563
 20
42.67974422799652
 30
0.0
 11
-6.642711205693011
 21
32.4845840834635
 31
0.0
  0
POLYLINE
  5
81
  8
PROFILEEDGES
 66
     1
 10
0.0
 20
0.0
 30
0.0
  0
VERTEX
  5
112
  8
PROFILEEDGES
 10
-33.48060847621738
 20
54.40034506040013
 30
0.0
 40
0.8363397229568765
 41
0.8363397229568765
  0
VERTEX
  5
113
  8
PROFILEEDGES
 10
-42.82617194203928
 20
60.12731371786755
 30
0.0
 40
0.8363397229568765
 41
0.8363397229568765
  0
SEQEND
  5
1BE
  8
PROFILEEDGES
  0
POLYLINE
  5
82
  8
PROFILEEDGES
 66
     1
 10
0.0
 20
0.0
 30
0.0
  0
VERTEX
  5
114
  8
PROFILEEDGES
 10
-5.547377758276244
 20
8.817455386370172
 30
0.0
 40
0.8363397229568765
 41
0.8363397229568765
  0
VERTEX
  5
115
  8
PROFILEEDGES
 10
-8.106110685630144
 20
19.47534506040013
 30
0.0
 40
0.8363397229568765
 41
0.8363397229568765
  0
SEQEND
  5
1BF
  8
PROFILEEDGES
  0
POLYLINE
  5
83
  8
PROFILEEDGES
 66
     1
 10
0.0
 20
0.0
 30
0.0
  0
VERTEX
  5
116
  8
PROFILEEDGES
 10
-12.30060263428912
 20
29.60174441011738
 30
0.0
 40
0.8363397229568765
 41
0.8363397229568765
  0
VERTEX
  5
117
  8
PROFILEEDGES
 10
-18.02757129175654
 20
38.94730787593931
 30
0.0
 40
0.8363397229568765
 41
0.8363397229568765
  0
SEQEND
  5
1C0
  8
PROFILEEDGES
  0
LINE
  5
84
  8
0
 10
-20.65587162243172
 20
51.77204472972497
 30
0.0
 11
-12.89031337747563
 21
42.67974422799652
 31
0.0
  0
LINE
  5
85
  8
0
 10
-3.047228551553324
 20
-28.48361174599492
 30
0.0
 11
-6.642711205692989
 21
-36.70356807684342
 31
0.0
  0
POLYLINE
  5
86
  8
PROFILEEDGES
 66
     1
 10
0.0
 20
0.0
 30
0.0
  0
VERTEX
  5
118
  8
PROFILEEDGES
 10
-33.48060847621736
 20
-58.61932905378003
 30
0.0
 40
0.8363397229568765
 41
0.8363397229568765
  0
VERTEX
  5
119
  8
PROFILEEDGES
 10
-27.12317627337064
 20
-53.4019192807726
 30
0.0
 40
0.8363397229568765
 41
0.8363397229568765
  0
SEQEND
  5
1C1
  8
PROFILEEDGES
  0
POLYLINE
  5
87
  8
PROFILEEDGES
 66
     1
 10
0.0
 20
0.0
 30
0.0
  0
VERTEX
  5
11A
  8
PROFILEEDGES
 10
-6.617369409068892
 20
-18.41565066202495
 30
0.0
 40
0.8363397229568765
 41
0.8363397229568765
  0
VERTEX
  5
11B
  8
PROFILEEDGES
 10
-5.171576630545016
 20
-10.31947920911991
 30
0.0
 40
0.8363397229568765
 41
0.8363397229568765
  0
SEQEND
  5
1C2
  8
PROFILEEDGES
  0
POLYLINE
  5
88
  8
PROFILEEDGES
 66
     1
 10
0.0
 20
0.0
 30
0.0
  0
VERTEX
  5
11C
  8
PROFILEEDGES
 10
-12.30060263428912
 20
-33.82072840349729
 30
0.0
 40
0.8363397229568765
 41
0.8363397229568765
  0
VERTEX
  5
11D
  8
PROFILEEDGES
 10
-9.004743534661088
 20
-26.28576843355283
 30
0.0
 40
0.8363397229568765
 41
0.8363397229568765
  0
SEQEND
  5
1C3
  8
PROFILEEDGES
  0
LINE
  5
89
  8
0
 10
-39.94333226869316
 20
-70.00418913984358
 30
0.0
 11
-50.99031337747563
 21
-74.57999853838066
 31
0.0
  0
POLYLINE
  5
8A
  8
PROFILEEDGES
 66
     1
 10
0.0
 20
0.0
 30
0.0
  0
VERTEX
  5
11E
  8
PROFILEEDGES
 10
-27.12317627337064
 20
-53.4019192807726
 30
0.0
 40
0.8363397229568765
 41
0.8363397229568765
  0
VERTEX
  5
11F
  8
PROFILEEDGES
 10
-21.42305165168445
 20
-47.47343817255329
 30
0.0
 40
0.8363397229568765
 41
0.8363397229568765
  0
SEQEND
  5
1C4
  8
PROFILEEDGES
  0
POLYLINE
  5
8B
  8
PROFILEEDGES
 66
     1
 10
0.0
 20
0.0
 30
0.0
  0
VERTEX
  5
120
  8
PROFILEEDGES
 10
-52.95257129175654
 20
-68.54078965990644
 30
0.0
 40
0.8363397229568765
 41
0.8363397229568765
  0
VERTEX
  5
121
  8
PROFILEEDGES
 10
-42.82617194203928
 20
-64.34629771124744
 30
0.0
 40
0.8363397229568765
 41
0.8363397229568765
  0
SEQEND
  5
1C5
  8
PROFILEEDGES
  0
LINE
  5
8C
  8
0
 10
-22.81279153923647
 20
-58.0648672156892
 30
0.0
 11
-29.74817212416016
 21
-63.75658696806094
 31
0.0
  0
POLYLINE
  5
8D
  8
PROFILEEDGES
 66
     1
 10
0.0
 20
0.0
 30
0.0
  0
VERTEX
  5
122
  8
PROFILEEDGES
 10
-16.45925592951382
 20
-40.91607277310915
 30
0.0
 40
0.8363397229568765
 41
0.8363397229568765
  0
VERTEX
  5
123
  8
PROFILEEDGES
 10
-12.30060263428912
 20
-33.82072840349729
 30
0.0
 40
0.8363397229568765
 41
0.8363397229568765
  0
SEQEND
  5
1C6
  8
PROFILEEDGES
  0
POLYLINE
  5
8E
  8
PROFILEEDGES
 66
     1
 10
0.0
 20
0.0
 30
0.0
  0
VERTEX
  5
124
  8
PROFILEEDGES
 10
-5.171576630545016
 20
-10.31947920911991
 30
0.0
 40
0.8363397229568765
 41
0.8363397229568765
  0
VERTEX
  5
125
  8
PROFILEEDGES
 10
-4.687408348846626
 20
-2.109491996689954
 30
0.0
 40
0.8363397229568765
 41
0.8363397229568765
  0
SEQEND
  5
1C7
  8
PROFILEEDGES
  0
LINE
  5
8F
  8
0
 10
1.134408071118766
 20
-11.06584168297718
 30
0.0
 11
-0.4428204145436552
 21
-19.89802872250995
 31
0.0
  0
LINE
  5
90
  8
0
 10
-6.642711205692989
 20
-36.70356807684342
 30
0.0
 11
-11.17942389139266
 21
-44.44394375278362
 31
0.0
  0
POLYLINE
  5
91
  8
PROFILEEDGES
 66
     1
 10
0.0
 20
0.0
 30
0.0
  0
VERTEX
  5
126
  8
PROFILEEDGES
 10
-21.42305165168445
 20
-47.47343817255329
 30
0.0
 40
0.8363397229568765
 41
0.8363397229568765
  0
VERTEX
  5
127
  8
PROFILEEDGES
 10
-16.45925592951382
 20
-40.91607277310915
 30
0.0
 40
0.8363397229568765
 41
0.8363397229568765
  0
SEQEND
  5
1C8
  8
PROFILEEDGES
  0
LINE
  5
92
  8
0
 10
-29.74817212416016
 20
-63.75658696806094
 30
0.0
 11
-39.94333226869316
 21
-70.00418913984358
 31
0.0
  0
LINE
  5
93
  8
0
 10
-0.4428204145436552
 20
-19.89802872250995
 30
0.0
 11
-3.047228551553324
 21
-28.48361174599492
 31
0.0
  0
LINE
  5
94
  8
0
 10
1.662591651153374
 20
-2.109491996689954
 30
0.0
 11
1.134408071118766
 21
-11.06584168297718
 31
0.0
  0
POLYLINE
  5
95
  8
PROFILEEDGES
 66
     1
 10
0.0
 20
0.0
 30
0.0
  0
VERTEX
  5
128
  8
PROFILEEDGES
 10
-9.004743534661088
 20
-26.28576843355283
 30
0.0
 40
0.8363397229568765
 41
0.8363397229568765
  0
VERTEX
  5
129
  8
PROFILEEDGES
 10
-6.617369409068892
 20
-18.41565066202495
 30
0.0
 40
0.8363397229568765
 41
0.8363397229568765
  0
SEQEND
  5
1C9
  8
PROFILEEDGES
  0
LINE
  5
96
  8
0
 10
-16.59447377012425
 20
-51.59743327944994
 30
0.0
 11
-22.81279153923647
 21
-58.0648672156892
 31
0.0
  0
LINE
  5
97
  8
0
 10
-11.17942389139266
 20
-44.44394375278362
 30
0.0
 11
-16.59447377012425
 21
-51.59743327944994
 31
0.0
  0
POLYLINE
  5
98
  8
PROFILEEDGES
 66
     1
 10
0.0
 20
0.0
 30
0.0
  0
VERTEX
  5
12A
  8
PROFILEEDGES
 10
-42.82617194203928
 20
-64.34629771124744
 30
0.0
 40
0.8363397229568765
 41
0.8363397229568765
  0
VERTEX
  5
12B
  8
PROFILEEDGES
 10
-33.48060847621736
 20
-58.61932905378003
 30
0.0
 40
0.8363397229568765
 41
0.8363397229568765
  0
SEQEND
  5
1CA
  8
PROFILEEDGES
  0
POLYLINE
  5
99
  8
PROFILEEDGES
 66
     1
 10
0.0
 20
0.0
 30
0.0
  0
VERTEX
  5
12C
  8
PROFILEEDGES
 10
-131.0472454059367
 20
-43.16629186931922
 30
0.0
 40
0.8363397229568765
 41
0.8363397229568765
  0
VERTEX
  5
12D
  8
PROFILEEDGES
 10
-123.928817014727
 20
-51.50090066257031
 30
0.0
 40
0.8363397229568765
 41
0.8363397229568765
  0
SEQEND
  5
1CB
  8
PROFILEEDGES
  0
LINE
  5
9A
  8
0
 10
-128.4189450752615
 20
-55.99102872310489
 30
0.0
 11
-136.1845033202176
 21
-46.89872822137642
 31
0.0
  0
LINE
  5
9B
  8
0
 10
-150.7374083488466
 20
-2.109491996689966
 30
0.0
 11
-149.7992599021961
 21
9.810814239375617
 31
0.0
  0
LINE
  5
9C
  8
0
 10
-119.3266445735331
 20
-63.75658696806096
 30
0.0
 11
-128.4189450752615
 21
-55.99102872310489
 31
0.0
  0
LINE
  5
9D
  8
0
 10
-149.7992599021961
 20
-14.02979823275556
 30
0.0
 11
-150.7374083488466
 21
-2.109491996689966
 31
0.0
  0
POLYLINE
  5
9E
  8
PROFILEEDGES
 66
     1
 10
0.0
 20
0.0
 30
0.0
  0
VERTEX
  5
12E
  8
PROFILEEDGES
 10
-123.928817014727
 20
-51.50090066257031
 30
0.0
 40
0.8363397229568765
 41
0.8363397229568765
  0
VERTEX
  5
12F
  8
PROFILEEDGES
 10
-115.5942082214759
 20
-58.61932905378003
 30
0.0
 40
0.8363397229568765
 41
0.8363397229568765
  0
SEQEND
  5
1CC
  8
PROFILEEDGES
  0
LINE
  5
9F
  8
0
 10
-86.4577145849122
 20
-77.37134355003946
 30
0.0
 11
-98.0845033202176
 21
-74.57999853838066
 31
0.0
  0
LINE
  5
A0
  8
0
 10
-136.1845033202176
 20
-46.89872822137642
 30
0.0
 11
-142.4321054920002
 21
-36.70356807684344
 31
0.0
  0
LINE
  5
A1
  8
0
 10
-142.4321054920002
 20
-36.70356807684344
 30
0.0
 11
-147.0079148905373
 21
-25.65658696806096
 31
0.0
  0
LINE
  5
A2
  8
0
 10
-74.53740834884661
 20
-78.30949199668996
 30
0.0
 11
-86.4577145849122
 21
-77.37134355003946
 31
0.0
  0
POLYLINE
  5
A3
  8
PROFILEEDGES
 66
     1
 10
0.0
 20
0.0
 30
0.0
  0
VERTEX
  5
130
  8
PROFILEEDGES
 10
-140.9687060120631
 20
-23.69432905378004
 30
0.0
 40
0.8363397229568765
 41
0.8363397229568765
  0
VERTEX
  5
131
  8
PROFILEEDGES
 10
-136.7742140634041
 20
-33.82072840349731
 30
0.0
 40
0.8363397229568765
 41
0.8363397229568765
  0
SEQEND
  5
1CD
  8
PROFILEEDGES
  0
POLYLINE
  5
A4
  8
PROFILEEDGES
 66
     1
 10
0.0
 20
0.0
 30
0.0
  0
VERTEX
  5
132
  8
PROFILEEDGES
 10
-85.46435573190675
 20
-71.09952258726034
 30
0.0
 40
0.8363397229568765
 41
0.8363397229568765
  0
VERTEX
  5
133
  8
PROFILEEDGES
 10
-74.53740834884661
 20
-71.95949199668995
 30
0.0
 40
0.8363397229568765
 41
0.8363397229568765
  0
SEQEND
  5
1CE
  8
PROFILEEDGES
  0
LINE
  5
A5
  8
0
 10
-98.0845033202176
 20
-74.57999853838066
 30
0.0
 11
-109.1314844290001
 21
-70.00418913984359
 31
0.0
  0
LINE
  5
A6
  8
0
 10
-149.7992599021961
 20
9.810814239375617
 30
0.0
 11
-147.0079148905373
 21
21.43760297468102
 31
0.0
  0
POLYLINE
  5
A7
  8
PROFILEEDGES
 66
     1
 10
0.0
 20
0.0
 30
0.0
  0
VERTEX
  5
134
  8
PROFILEEDGES
 10
-136.7742140634041
 20
-33.82072840349731
 30
0.0
 40
0.8363397229568765
 41
0.8363397229568765
  0
VERTEX
  5
135
  8
PROFILEEDGES
 10
-131.0472454059367
 20
-43.16629186931922
 30
0.0
 40
0.8363397229568765
 41
0.8363397229568765
  0
SEQEND
  5
1CF
  8
PROFILEEDGES
  0
POLYLINE
  5
A8
  8
PROFILEEDGES
 66
     1
 10
0.0
 20
0.0
 30
0.0
  0
VERTEX
  5
136
  8
PROFILEEDGES
 10
-63.61046096578649
 20
-71.09952258726032
 30
0.0
 40
0.8363397229568765
 41
0.8363397229568765
  0
VERTEX
  5
137
  8
PROFILEEDGES
 10
-52.95257129175654
 20
-68.54078965990644
 30
0.0
 40
0.8363397229568765
 41
0.8363397229568765
  0
SEQEND
  5
1D0
  8
PROFILEEDGES
  0
LINE
  5
A9
  8
0
 10
-62.61710211278102
 20
-77.37134355003944
 30
0.0
 11
-74.53740834884661
 21
-78.30949199668996
 31
0.0
  0
POLYLINE
  5
AA
  8
PROFILEEDGES
 66
     1
 10
0.0
 20
0.0
 30
0.0
  0
VERTEX
  5
138
  8
PROFILEEDGES
 10
-74.53740834884661
 20
-71.95949199668995
 30
0.0
 40
0.8363397229568765
 41
0.8363397229568765
  0
VERTEX
  5
139
  8
PROFILEEDGES
 10
-63.61046096578649
 20
-71.09952258726032
 30
0.0
 40
0.8363397229568765
 41
0.8363397229568765
  0
SEQEND
  5
1D1
  8
PROFILEEDGES
  0
LINE
  5
AB
  8
0
 10
-147.0079148905373
 20
-25.65658696806096
 30
0.0
 11
-149.7992599021961
 21
-14.02979823275556
 31
0.0
  0
LINE
  5
AC
  8
0
 10
-50.99031337747563
 20
-74.57999853838066
 30
0.0
 11
-62.61710211278102
 21
-77.37134355003944
 31
0.0
  0
POLYLINE
  5
AD
  8
PROFILEEDGES
 66
     1
 10
0.0
 20
0.0
 30
0.0
  0
VERTEX
  5
13A
  8
PROFILEEDGES
 10
-96.12224540593668
 20
-68.54078965990644
 30
0.0
 40
0.8363397229568765
 41
0.8363397229568765
  0
VERTEX
  5
13B
  8
PROFILEEDGES
 10
-85.46435573190675
 20
-71.09952258726034
 30
0.0
 40
0.8363397229568765
 41
0.8363397229568765
  0
SEQEND
  5
1D2
  8
PROFILEEDGES
  0
POLYLINE
  5
AE
  8
PROFILEEDGES
 66
     1
 10
0.0
 20
0.0
 30
0.0
  0
VERTEX
  5
13C
  8
PROFILEEDGES
 10
-106.248644755654
 20
-64.34629771124746
 30
0.0
 40
0.8363397229568765
 41
0.8363397229568765
  0
VERTEX
  5
13D
  8
PROFILEEDGES
 10
-96.12224540593668
 20
-68.54078965990644
 30
0.0
 40
0.8363397229568765
 41
0.8363397229568765
  0
SEQEND
  5
1D3
  8
PROFILEEDGES
  0
LINE
  5
AF
  8
0
 10
-109.1314844290001
 20
-70.00418913984359
 30
0.0
 11
-119.3266445735331
 21
-63.75658696806096
 31
0.0
  0
POLYLINE
  5
B0
  8
PROFILEEDGES
 66
     1
 10
0.0
 20
0.0
 30
0.0
  0
VERTEX
  5
13E
  8
PROFILEEDGES
 10
-115.5942082214759
 20
-58.61932905378003
 30
0.0
 40
0.8363397229568765
 41
0.8363397229568765
  0
VERTEX
  5
13F
  8
PROFILEEDGES
 10
-106.248644755654
 20
-64.34629771124746
 30
0.0
 40
0.8363397229568765
 41
0.8363397229568765
  0
SEQEND
  5
1D4
  8
PROFILEEDGES
  0
POLYLINE
  5
B1
  8
PROFILEEDGES
 66
     1
 10
0.0
 20
0.0
 30
0.0
  0
VERTEX
  5
140
  8
PROFILEEDGES
 10
-144.3874083488466
 20
-2.109491996689966
 30
0.0
 40
0.8363397229568765
 41
0.8363397229568765
  0
VERTEX
  5
141
  8
PROFILEEDGES
 10
-143.527438939417
 20
-13.0364393797501
 30
0.0
 40
0.8363397229568765
 41
0.8363397229568765
  0
SEQEND
  5
1D5
  8
PROFILEEDGES
  0
POLYLINE
  5
B2
  8
PROFILEEDGES
 66
     1
 10
0.0
 20
0.0
 30
0.0
  0
VERTEX
  5
142
  8
PROFILEEDGES
 10
6.996264167282011
 20
10.80417309238111
 30
0.0
 40
0.8363397229568765
 41
0.8363397229568765
  0
VERTEX
  5
143
  8
PROFILEEDGES
 10
3.972307071318307
 20
23.39986088896195
 30
0.0
 40
0.8363397229568765
 41
0.8363397229568765
  0
SEQEND
  5
1D6
  8
PROFILEEDGES
  0
POLYLINE
  5
B3
  8
PROFILEEDGES
 66
     1
 10
0.0
 20
0.0
 30
0.0
  0
VERTEX
  5
144
  8
PROFILEEDGES
 10
-140.9687060120631
 20
19.47534506040011
 30
0.0
 40
0.8363397229568765
 41
0.8363397229568765
  0
VERTEX
  5
145
  8
PROFILEEDGES
 10
-143.527438939417
 20
8.81745538637017
 30
0.0
 40
0.8363397229568765
 41
0.8363397229568765
  0
SEQEND
  5
1D7
  8
PROFILEEDGES
  0
POLYLINE
  5
B4
  8
PROFILEEDGES
 66
     1
 10
0.0
 20
0.0
 30
0.0
  0
VERTEX
  5
146
  8
PROFILEEDGES
 10
-143.527438939417
 20
-13.0364393797501
 30
0.0
 40
0.8363397229568765
 41
0.8363397229568765
  0
VERTEX
  5
147
  8
PROFILEEDGES
 10
-140.9687060120631
 20
-23.69432905378004
 30
0.0
 40
0.8363397229568765
 41
0.8363397229568765
  0
SEQEND
  5
1D8
  8
PROFILEEDGES
  0
POLYLINE
  5
B5
  8
PROFILEEDGES
 66
     1
 10
0.0
 20
0.0
 30
0.0
  0
VERTEX
  5
148
  8
PROFILEEDGES
 10
-112.0143241023462
 20
-75.66208056843972
 30
0.0
 40
0.8363397229568765
 41
0.8363397229568765
  0
VERTEX
  5
149
  8
PROFILEEDGES
 10
-100.0467612344985
 20
-80.61920741685488
 30
0.0
 40
0.8363397229568765
 41
0.8363397229568765
  0
SEQEND
  5
1D9
  8
PROFILEEDGES
  0
POLYLINE
  5
B6
  8
PROFILEEDGES
 66
     1
 10
0.0
 20
0.0
 30
0.0
  0
VERTEX
  5
14A
  8
PROFILEEDGES
 10
-123.0590809255903
 20
-68.89384488234187
 30
0.0
 40
0.8363397229568765
 41
0.8363397229568765
  0
VERTEX
  5
14B
  8
PROFILEEDGES
 10
-112.0143241023462
 20
-75.66208056843972
 30
0.0
 40
0.8363397229568765
 41
0.8363397229568765
  0
SEQEND
  5
1DA
  8
PROFILEEDGES
  0
POLYLINE
  5
B7
  8
PROFILEEDGES
 66
     1
 10
0.0
 20
0.0
 30
0.0
  0
VERTEX
  5
14C
  8
PROFILEEDGES
 10
-37.06049259534704
 20
-75.66208056843972
 30
0.0
 40
0.8363397229568765
 41
0.8363397229568765
  0
VERTEX
  5
14D
  8
PROFILEEDGES
 10
-26.01573577210297
 20
-68.89384488234185
 30
0.0
 40
0.8363397229568765
 41
0.8363397229568765
  0
SEQEND
  5
1DB
  8
PROFILEEDGES
  0
POLYLINE
  5
B8
  8
PROFILEEDGES
 66
     1
 10
0.0
 20
0.0
 30
0.0
  0
VERTEX
  5
14E
  8
PROFILEEDGES
 10
-49.02805546319472
 20
-80.61920741685488
 30
0.0
 40
0.8363397229568765
 41
0.8363397229568765
  0
VERTEX
  5
14F
  8
PROFILEEDGES
 10
-37.06049259534704
 20
-75.66208056843972
 30
0.0
 40
0.8363397229568765
 41
0.8363397229568765
  0
SEQEND
  5
1DC
  8
PROFILEEDGES
  0
POLYLINE
  5
B9
  8
PROFILEEDGES
 66
     1
 10
0.0
 20
0.0
 30
0.0
  0
VERTEX
  5
150
  8
PROFILEEDGES
 10
-26.01573577210297
 20
-68.89384488234185
 30
0.0
 40
0.8363397229568765
 41
0.8363397229568765
  0
VERTEX
  5
151
  8
PROFILEEDGES
 10
-18.50240680510229
 20
-62.7278151506058
 30
0.0
 40
0.8363397229568765
 41
0.8363397229568765
  0
SEQEND
  5
1DD
  8
PROFILEEDGES
  0
POLYLINE
  5
BA
  8
PROFILEEDGES
 66
     1
 10
0.0
 20
0.0
 30
0.0
  0
VERTEX
  5
152
  8
PROFILEEDGES
 10
-61.62374325977555
 20
-83.64316451281856
 30
0.0
 40
0.8363397229568765
 41
0.8363397229568765
  0
VERTEX
  5
153
  8
PROFILEEDGES
 10
-49.02805546319472
 20
-80.61920741685488
 30
0.0
 40
0.8363397229568765
 41
0.8363397229568765
  0
SEQEND
  5
1DE
  8
PROFILEEDGES
  0
POLYLINE
  5
BB
  8
PROFILEEDGES
 66
     1
 10
0.0
 20
0.0
 30
0.0
  0
VERTEX
  5
154
  8
PROFILEEDGES
 10
-87.45107343791767
 20
-83.64316451281859
 30
0.0
 40
0.8363397229568765
 41
0.8363397229568765
  0
VERTEX
  5
155
  8
PROFILEEDGES
 10
-74.53740834884661
 20
-84.65949199668995
 30
0.0
 40
0.8363397229568765
 41
0.8363397229568765
  0
SEQEND
  5
1DF
  8
PROFILEEDGES
  0
POLYLINE
  5
BC
  8
PROFILEEDGES
 66
     1
 10
0.0
 20
0.0
 30
0.0
  0
VERTEX
  5
156
  8
PROFILEEDGES
 10
-74.53740834884661
 20
-84.65949199668995
 30
0.0
 40
0.8363397229568765
 41
0.8363397229568765
  0
VERTEX
  5
157
  8
PROFILEEDGES
 10
-61.62374325977555
 20
-83.64316451281856
 30
0.0
 40
0.8363397229568765
 41
0.8363397229568765
  0
SEQEND
  5
1E0
  8
PROFILEEDGES
  0
POLYLINE
  5
BD
  8
PROFILEEDGES
 66
     1
 10
0.0
 20
0.0
 30
0.0
  0
VERTEX
  5
158
  8
PROFILEEDGES
 10
-100.0467612344985
 20
-80.61920741685488
 30
0.0
 40
0.8363397229568765
 41
0.8363397229568765
  0
VERTEX
  5
159
  8
PROFILEEDGES
 10
-87.45107343791767
 20
-83.64316451281859
 30
0.0
 40
0.8363397229568765
 41
0.8363397229568765
  0
SEQEND
  5
1E1
  8
PROFILEEDGES
  0
POLYLINE
  5
BE
  8
PROFILEEDGES
 66
     1
 10
0.0
 20
0.0
 30
0.0
  0
VERTEX
  5
15A
  8
PROFILEEDGES
 10
-132.9090731357961
 20
-60.48115678363946
 30
0.0
 40
0.8363397229568765
 41
0.8363397229568765
  0
VERTEX
  5
15B
  8
PROFILEEDGES
 10
-123.0590809255903
 20
-68.89384488234187
 30
0.0
 40
0.8363397229568765
 41
0.8363397229568765
  0
SEQEND
  5
1E2
  8
PROFILEEDGES
  0
POLYLINE
  5
BF
  8
PROFILEEDGES
 66
     1
 10
0.0
 20
0.0
 30
0.0
  0
VERTEX
  5
15C
  8
PROFILEEDGES
 10
-153.0471237690116
 20
-27.61884488234188
 30
0.0
 40
0.8363397229568765
 41
0.8363397229568765
  0
VERTEX
  5
15D
  8
PROFILEEDGES
 10
-148.0899969205964
 20
-39.58640775018956
 30
0.0
 40
0.8363397229568765
 41
0.8363397229568765
  0
SEQEND
  5
1E3
  8
PROFILEEDGES
  0
POLYLINE
  5
C0
  8
PROFILEEDGES
 66
     1
 10
0.0
 20
0.0
 30
0.0
  0
VERTEX
  5
15E
  8
PROFILEEDGES
 10
-148.0899969205964
 20
35.36742375680963
 30
0.0
 40
0.8363397229568765
 41
0.8363397229568765
  0
VERTEX
  5
15F
  8
PROFILEEDGES
 10
-153.0471237690116
 20
23.39986088896195
 30
0.0
 40
0.8363397229568765
 41
0.8363397229568765
  0
SEQEND
  5
1E4
  8
PROFILEEDGES
  0
POLYLINE
  5
C1
  8
PROFILEEDGES
 66
     1
 10
0.0
 20
0.0
 30
0.0
  0
VERTEX
  5
160
  8
PROFILEEDGES
 10
-156.0710808649752
 20
-15.02315708576103
 30
0.0
 40
0.8363397229568765
 41
0.8363397229568765
  0
VERTEX
  5
161
  8
PROFILEEDGES
 10
-153.0471237690116
 20
-27.61884488234188
 30
0.0
 40
0.8363397229568765
 41
0.8363397229568765
  0
SEQEND
  5
1E5
  8
PROFILEEDGES
  0
POLYLINE
  5
C2
  8
PROFILEEDGES
 66
     1
 10
0.0
 20
0.0
 30
0.0
  0
VERTEX
  5
162
  8
PROFILEEDGES
 10
-153.0471237690116
 20
23.39986088896195
 30
0.0
 40
0.8363397229568765
 41
0.8363397229568765
  0
VERTEX
  5
163
  8
PROFILEEDGES
 10
-156.0710808649752
 20
10.80417309238108
 30
0.0
 40
0.8363397229568765
 41
0.8363397229568765
  0
SEQEND
  5
1E6
  8
PROFILEEDGES
  0
POLYLINE
  5
C3
  8
PROFILEEDGES
 66
     1
 10
0.0
 20
0.0
 30
0.0
  0
VERTEX
  5
164
  8
PROFILEEDGES
 10
-123.0590809255903
 20
64.67486088896194
 30
0.0
 40
0.8363397229568765
 41
0.8363397229568765
  0
VERTEX
  5
165
  8
PROFILEEDGES
 10
-132.9090731357961
 20
56.26217279025954
 30
0.0
 40
0.8363397229568765
 41
0.8363397229568765
  0
SEQEND
  5
1E7
  8
PROFILEEDGES
  0
POLYLINE
  5
C4
  8
PROFILEEDGES
 66
     1
 10
0.0
 20
0.0
 30
0.0
  0
VERTEX
  5
166
  8
PROFILEEDGES
 10
-112.0143241023462
 20
71.44309657505981
 30
0.0
 40
0.8363397229568765
 41
0.8363397229568765
  0
VERTEX
  5
167
  8
PROFILEEDGES
 10
-123.0590809255903
 20
64.67486088896194
 30
0.0
 40
0.8363397229568765
 41
0.8363397229568765
  0
SEQEND
  5
1E8
  8
PROFILEEDGES
  0
POLYLINE
  5
C5
  8
PROFILEEDGES
 66
     1
 10
0.0
 20
0.0
 30
0.0
  0
VERTEX
  5
168
  8
PROFILEEDGES
 10
-157.0874083488466
 20
-2.109491996689966
 30
0.0
 40
0.8363397229568765
 41
0.8363397229568765
  0
VERTEX
  5
169
  8
PROFILEEDGES
 10
-156.0710808649752
 20
-15.02315708576103
 30
0.0
 40
0.8363397229568765
 41
0.8363397229568765
  0
SEQEND
  5
1E9
  8
PROFILEEDGES
  0
POLYLINE
  5
C6
  8
PROFILEEDGES
 66
     1
 10
0.0
 20
0.0
 30
0.0
  0
VERTEX
  5
16A
  8
PROFILEEDGES
 10
-141.3217612344986
 20
46.41218058005367
 30
0.0
 40
0.8363397229568765
 41
0.8363397229568765
  0
VERTEX
  5
16B
  8
PROFILEEDGES
 10
-148.0899969205964
 20
35.36742375680963
 30
0.0
 40
0.8363397229568765
 41
0.8363397229568765
  0
SEQEND
  5
1EA
  8
PROFILEEDGES
  0
POLYLINE
  5
C7
  8
PROFILEEDGES
 66
     1
 10
0.0
 20
0.0
 30
0.0
  0
VERTEX
  5
16C
  8
PROFILEEDGES
 10
-100.0467612344985
 20
76.40022342347497
 30
0.0
 40
0.8363397229568765
 41
0.8363397229568765
  0
VERTEX
  5
16D
  8
PROFILEEDGES
 10
-112.0143241023462
 20
71.44309657505981
 30
0.0
 40
0.8363397229568765
 41
0.8363397229568765
  0
SEQEND
  5
1EB
  8
PROFILEEDGES
  0
POLYLINE
  5
C8
  8
PROFILEEDGES
 66
     1
 10
0.0
 20
0.0
 30
0.0
  0
VERTEX
  5
16E
  8
PROFILEEDGES
 10
-132.9090731357961
 20
56.26217279025954
 30
0.0
 40
0.8363397229568765
 41
0.8363397229568765
  0
VERTEX
  5
16F
  8
PROFILEEDGES
 10
-141.3217612344986
 20
46.41218058005367
 30
0.0
 40
0.8363397229568765
 41
0.8363397229568765
  0
SEQEND
  5
1EC
  8
PROFILEEDGES
  0
POLYLINE
  5
C9
  8
PROFILEEDGES
 66
     1
 10
0.0
 20
0.0
 30
0.0
  0
VERTEX
  5
170
  8
PROFILEEDGES
 10
-148.0899969205964
 20
-39.58640775018956
 30
0.0
 40
0.8363397229568765
 41
0.8363397229568765
  0
VERTEX
  5
171
  8
PROFILEEDGES
 10
-141.3217612344985
 20
-50.63116457343362
 30
0.0
 40
0.8363397229568765
 41
0.8363397229568765
  0
SEQEND
  5
1ED
  8
PROFILEEDGES
  0
POLYLINE
  5
CA
  8
PROFILEEDGES
 66
     1
 10
0.0
 20
0.0
 30
0.0
  0
VERTEX
  5
172
  8
PROFILEEDGES
 10
-156.0710808649752
 20
10.80417309238108
 30
0.0
 40
0.8363397229568765
 41
0.8363397229568765
  0
VERTEX
  5
173
  8
PROFILEEDGES
 10
-157.0874083488466
 20
-2.109491996689966
 30
0.0
 40
0.8363397229568765
 41
0.8363397229568765
  0
SEQEND
  5
1EE
  8
PROFILEEDGES
  0
POLYLINE
  5
CB
  8
PROFILEEDGES
 66
     1
 10
0.0
 20
0.0
 30
0.0
  0
VERTEX
  5
174
  8
PROFILEEDGES
 10
-74.53740834884664
 20
80.44050800331004
 30
0.0
 40
0.8363397229568765
 41
0.8363397229568765
  0
VERTEX
  5
175
  8
PROFILEEDGES
 10
-87.4510734379177
 20
79.42418051943865
 30
0.0
 40
0.8363397229568765
 41
0.8363397229568765
  0
SEQEND
  5
1EF
  8
PROFILEEDGES
  0
POLYLINE
  5
CC
  8
PROFILEEDGES
 66
     1
 10
0.0
 20
0.0
 30
0.0
  0
VERTEX
  5
176
  8
PROFILEEDGES
 10
-141.3217612344985
 20
-50.63116457343362
 30
0.0
 40
0.8363397229568765
 41
0.8363397229568765
  0
VERTEX
  5
177
  8
PROFILEEDGES
 10
-132.9090731357961
 20
-60.48115678363946
 30
0.0
 40
0.8363397229568765
 41
0.8363397229568765
  0
SEQEND
  5
1F0
  8
PROFILEEDGES
  0
POLYLINE
  5
CD
  8
PROFILEEDGES
 66
     1
 10
0.0
 20
0.0
 30
0.0
  0
VERTEX
  5
178
  8
PROFILEEDGES
 10
-49.02805546319472
 20
76.40022342347497
 30
0.0
 40
0.8363397229568765
 41
0.8363397229568765
  0
VERTEX
  5
179
  8
PROFILEEDGES
 10
-61.62374325977556
 20
79.42418051943868
 30
0.0
 40
0.8363397229568765
 41
0.8363397229568765
  0
SEQEND
  5
1F1
  8
PROFILEEDGES
  0
POLYLINE
  5
CE
  8
PROFILEEDGES
 66
     1
 10
0.0
 20
0.0
 30
0.0
  0
VERTEX
  5
17A
  8
PROFILEEDGES
 10
-16.16574356189713
 20
56.26217279025956
 30
0.0
 40
0.8363397229568765
 41
0.8363397229568765
  0
VERTEX
  5
17B
  8
PROFILEEDGES
 10
-26.01573577210297
 20
64.67486088896194
 30
0.0
 40
0.8363397229568765
 41
0.8363397229568765
  0
SEQEND
  5
1F2
  8
PROFILEEDGES
  0
POLYLINE
  5
CF
  8
PROFILEEDGES
 66
     1
 10
0.0
 20
0.0
 30
0.0
  0
VERTEX
  5
17C
  8
PROFILEEDGES
 10
8.012591651153373
 20
-2.109491996689954
 30
0.0
 40
0.8363397229568765
 41
0.8363397229568765
  0
VERTEX
  5
17D
  8
PROFILEEDGES
 10
6.996264167282011
 20
10.80417309238111
 30
0.0
 40
0.8363397229568765
 41
0.8363397229568765
  0
SEQEND
  5
1F3
  8
PROFILEEDGES
  0
POLYLINE
  5
D0
  8
PROFILEEDGES
 66
     1
 10
0.0
 20
0.0
 30
0.0
  0
VERTEX
  5
17E
  8
PROFILEEDGES
 10
-87.4510734379177
 20
79.42418051943865
 30
0.0
 40
0.8363397229568765
 41
0.8363397229568765
  0
VERTEX
  5
17F
  8
PROFILEEDGES
 10
-100.0467612344985
 20
76.40022342347497
 30
0.0
 40
0.8363397229568765
 41
0.8363397229568765
  0
SEQEND
  5
1F4
  8
PROFILEEDGES
  0
POLYLINE
  5
D1
  8
PROFILEEDGES
 66
     1
 10
0.0
 20
0.0
 30
0.0
  0
VERTEX
  5
180
  8
PROFILEEDGES
 10
-7.75305546319472
 20
46.41218058005369
 30
0.0
 40
0.8363397229568765
 41
0.8363397229568765
  0
VERTEX
  5
181
  8
PROFILEEDGES
 10
-16.16574356189713
 20
56.26217279025956
 30
0.0
 40
0.8363397229568765
 41
0.8363397229568765
  0
SEQEND
  5
1F5
  8
PROFILEEDGES
  0
POLYLINE
  5
D2
  8
PROFILEEDGES
 66
     1
 10
0.0
 20
0.0
 30
0.0
  0
VERTEX
  5
182
  8
PROFILEEDGES
 10
3.972307071318307
 20
23.39986088896195
 30
0.0
 40
0.8363397229568765
 41
0.8363397229568765
  0
VERTEX
  5
183
  8
PROFILEEDGES
 10
-0.9848197770968617
 20
35.36742375680963
 30
0.0
 40
0.8363397229568765
 41
0.8363397229568765
  0
SEQEND
  5
1F6
  8
PROFILEEDGES
  0
POLYLINE
  5
D3
  8
PROFILEEDGES
 66
     1
 10
0.0
 20
0.0
 30
0.0
  0
VERTEX
  5
184
  8
PROFILEEDGES
 10
-37.06049259534704
 20
71.44309657505981
 30
0.0
 40
0.8363397229568765
 41
0.8363397229568765
  0
VERTEX
  5
185
  8
PROFILEEDGES
 10
-49.02805546319472
 20
76.40022342347497
 30
0.0
 40
0.8363397229568765
 41
0.8363397229568765
  0
SEQEND
  5
1F7
  8
PROFILEEDGES
  0
POLYLINE
  5
D4
  8
PROFILEEDGES
 66
     1
 10
0.0
 20
0.0
 30
0.0
  0
VERTEX
  5
186
  8
PROFILEEDGES
 10
-61.62374325977556
 20
79.42418051943868
 30
0.0
 40
0.8363397229568765
 41
0.8363397229568765
  0
VERTEX
  5
187
  8
PROFILEEDGES
 10
-74.53740834884664
 20
80.44050800331004
 30
0.0
 40
0.8363397229568765
 41
0.8363397229568765
  0
SEQEND
  5
1F8
  8
PROFILEEDGES
  0
POLYLINE
  5
D5
  8
PROFILEEDGES
 66
     1
 10
0.0
 20
0.0
 30
0.0
  0
VERTEX
  5
188
  8
PROFILEEDGES
 10
-0.9848197770968617
 20
35.36742375680963
 30
0.0
 40
0.8363397229568765
 41
0.8363397229568765
  0
VERTEX
  5
189
  8
PROFILEEDGES
 10
-7.75305546319472
 20
46.41218058005369
 30
0.0
 40
0.8363397229568765
 41
0.8363397229568765
  0
SEQEND
  5
1F9
  8
PROFILEEDGES
  0
POLYLINE
  5
D6
  8
PROFILEEDGES
 66
     1
 10
0.0
 20
0.0
 30
0.0
  0
VERTEX
  5
18A
  8
PROFILEEDGES
 10
-26.01573577210297
 20
64.67486088896194
 30
0.0
 40
0.8363397229568765
 41
0.8363397229568765
  0
VERTEX
  5
18B
  8
PROFILEEDGES
 10
-37.06049259534704
 20
71.44309657505981
 30
0.0
 40
0.8363397229568765
 41
0.8363397229568765
  0
SEQEND
  5
1FA
  8
PROFILEEDGES
  0
POLYLINE
  5
D7
  8
PROFILEEDGES
 66
     1
 10
0.0
 20
0.0
 30
0.0
  0
VERTEX
  5
18C
  8
PROFILEEDGES
 10
-18.50240680510229
 20
-62.7278151506058
 30
0.0
 40
0.8363397229568765
 41
0.8363397229568765
  0
VERTEX
  5
18D
  8
PROFILEEDGES
 10
-11.76589588856407
 20
-55.72142838634661
 30
0.0
 40
0.8363397229568765
 41
0.8363397229568765
  0
SEQEND
  5
1FB
  8
PROFILEEDGES
  0
POLYLINE
  5
D8
  8
PROFILEEDGES
 66
     1
 10
0.0
 20
0.0
 30
0.0
  0
VERTEX
  5
18E
  8
PROFILEEDGES
 10
-0.9848197770968624
 20
-39.58640775018954
 30
0.0
 40
0.8363397229568765
 41
0.8363397229568765
  0
VERTEX
  5
18F
  8
PROFILEEDGES
 10
2.910286431554439
 20
-30.681455058437
 30
0.0
 40
0.8363397229568765
 41
0.8363397229568765
  0
SEQEND
  5
1FC
  8
PROFILEEDGES
  0
POLYLINE
  5
D9
  8
PROFILEEDGES
 66
     1
 10
0.0
 20
0.0
 30
0.0
  0
VERTEX
  5
190
  8
PROFILEEDGES
 10
7.440392772782525
 20
-11.81220415683445
 30
0.0
 40
0.8363397229568765
 41
0.8363397229568765
  0
VERTEX
  5
191
  8
PROFILEEDGES
 10
8.012591651153373
 20
-2.109491996689954
 30
0.0
 40
0.8363397229568765
 41
0.8363397229568765
  0
SEQEND
  5
1FD
  8
PROFILEEDGES
  0
POLYLINE
  5
DA
  8
PROFILEEDGES
 66
     1
 10
0.0
 20
0.0
 30
0.0
  0
VERTEX
  5
192
  8
PROFILEEDGES
 10
5.73172857998158
 20
-21.38040678299494
 30
0.0
 40
0.8363397229568765
 41
0.8363397229568765
  0
VERTEX
  5
193
  8
PROFILEEDGES
 10
7.440392772782525
 20
-11.81220415683445
 30
0.0
 40
0.8363397229568765
 41
0.8363397229568765
  0
SEQEND
  5
1FE
  8
PROFILEEDGES
  0
POLYLINE
  5
DB
  8
PROFILEEDGES
 66
     1
 10
0.0
 20
0.0
 30
0.0
  0
VERTEX
  5
194
  8
PROFILEEDGES
 10
-11.76589588856407
 20
-55.72142838634661
 30
0.0
 40
0.8363397229568765
 41
0.8363397229568765
  0
VERTEX
  5
195
  8
PROFILEEDGES
 10
-5.899591853271477
 20
-47.97181473245809
 30
0.0
 40
0.8363397229568765
 41
0.8363397229568765
  0
SEQEND
  5
1FF
  8
PROFILEEDGES
  0
POLYLINE
  5
DC
  8
PROFILEEDGES
 66
     1
 10
0.0
 20
0.0
 30
0.0
  0
VERTEX
  5
196
  8
PROFILEEDGES
 10
2.910286431554439
 20
-30.681455058437
 30
0.0
 40
0.8363397229568765
 41
0.8363397229568765
  0
VERTEX
  5
197
  8
PROFILEEDGES
 10
5.73172857998158
 20
-21.38040678299494
 30
0.0
 40
0.8363397229568765
 41
0.8363397229568765
  0
SEQEND
  5
200
  8
PROFILEEDGES
  0
POLYLINE
  5
DD
  8
PROFILEEDGES
 66
     1
 10
0.0
 20
0.0
 30
0.0
  0
VERTEX
  5
198
  8
PROFILEEDGES
 10
-5.899591853271477
 20
-47.97181473245809
 30
0.0
 40
0.8363397229568765
 41
0.8363397229568765
  0
VERTEX
  5
199
  8
PROFILEEDGES
 10
-0.9848197770968624
 20
-39.58640775018954
 30
0.0
 40
0.8363397229568765
 41
0.8363397229568765
  0
SEQEND
  5
201
  8
PROFILEEDGES
  0
POLYLINE
  5
DE
  8
PROFILEEDGES
 66
     1
 10
0.0
 20
0.0
 30
0.0
  0
VERTEX
  5
19A
  8
PROFILEEDGES
 10
57.46976998949096
 20
-82.941421966665
 30
0.0
 40
0.8363397229568765
 41
0.8363397229568765
  0
VERTEX
  5
19B
  8
PROFILEEDGES
 10
38.66259165115349
 20
-78.30949199668996
 30
0.0
 40
0.8363397229568765
 41
0.8363397229568765
  0
SEQEND
  5
202
  8
PROFILEEDGES
  0
POLYLINE
  5
DF
  8
PROFILEEDGES
 66
     1
 10
0.0
 20
0.0
 30
0.0
  0
VERTEX
  5
19C
  8
PROFILEEDGES
 10
76.76259165115346
 20
-84.65949199668995
 30
0.0
 40
0.8363397229568765
 41
0.8363397229568765
  0
VERTEX
  5
19D
  8
PROFILEEDGES
 10
57.46976998949096
 20
-82.941421966665
 30
0.0
 40
0.8363397229568765
 41
0.8363397229568765
  0
SEQEND
  5
203
  8
PROFILEEDGES
  0
POLYLINE
  5
E0
  8
PROFILEEDGES
 66
     1
 10
0.0
 20
0.0
 30
0.0
  0
VERTEX
  5
19E
  8
PROFILEEDGES
 10
57.46976998949096
 20
78.72243797328508
 30
0.0
 40
0.8363397229568765
 41
0.8363397229568765
  0
VERTEX
  5
19F
  8
PROFILEEDGES
 10
38.66259165115349
 20
74.09050800331003
 30
0.0
 40
0.8363397229568765
 41
0.8363397229568765
  0
SEQEND
  5
204
  8
PROFILEEDGES
  0
POLYLINE
  5
E1
  8
PROFILEEDGES
 66
     1
 10
0.0
 20
0.0
 30
0.0
  0
VERTEX
  5
1A0
  8
PROFILEEDGES
 10
76.76259165115346
 20
80.44050800331004
 30
0.0
 40
0.8363397229568765
 41
0.8363397229568765
  0
VERTEX
  5
1A1
  8
PROFILEEDGES
 10
57.46976998949096
 20
78.72243797328508
 30
0.0
 40
0.8363397229568765
 41
0.8363397229568765
  0
SEQEND
  5
205
  8
PROFILEEDGES
  0
POLYLINE
  5
E2
  8
PROFILEEDGES
 66
     1
 10
0.0
 20
0.0
 30
0.0
  0
VERTEX
  5
1A2
  8
PROFILEEDGES
 10
96.05541331281594
 20
78.72243797328508
 30
0.0
 40
0.8363397229568765
 41
0.8363397229568765
  0
VERTEX
  5
1A3
  8
PROFILEEDGES
 10
76.76259165115346
 20
80.44050800331004
 30
0.0
 40
0.8363397229568765
 41
0.8363397229568765
  0
SEQEND
  5
206
  8
PROFILEEDGES
  0
POLYLINE
  5
E3
  8
PROFILEEDGES
 66
     1
 10
0.0
 20
0.0
 30
0.0
  0
VERTEX
  5
1A4
  8
PROFILEEDGES
 10
114.8625916511535
 20
74.09050800331003
 30
0.0
 40
0.8363397229568765
 41
0.8363397229568765
  0
VERTEX
  5
1A5
  8
PROFILEEDGES
 10
96.05541331281594
 20
78.72243797328508
 30
0.0
 40
0.8363397229568765
 41
0.8363397229568765
  0
SEQEND
  5
207
  8
PROFILEEDGES
  0
POLYLINE
  5
E4
  8
PROFILEEDGES
 66
     1
 10
0.0
 20
0.0
 30
0.0
  0
VERTEX
  5
1A6
  8
PROFILEEDGES
 10
96.05541331281594
 20
-82.941421966665
 30
0.0
 40
0.8363397229568765
 41
0.8363397229568765
  0
VERTEX
  5
1A7
  8
PROFILEEDGES
 10
76.76259165115346
 20
-84.65949199668995
 30
0.0
 40
0.8363397229568765
 41
0.8363397229568765
  0
SEQEND
  5
208
  8
PROFILEEDGES
  0
POLYLINE
  5
E5
  8
PROFILEEDGES
 66
     1
 10
0.0
 20
0.0
 30
0.0
  0
VERTEX
  5
1A8
  8
PROFILEEDGES
 10
114.8625916511535
 20
-78.30949199668996
 30
0.0
 40
0.8363397229568765
 41
0.8363397229568765
  0
VERTEX
  5
1A9
  8
PROFILEEDGES
 10
96.05541331281594
 20
-82.941421966665
 30
0.0
 40
0.8363397229568765
 41
0.8363397229568765
  0
SEQEND
  5
209
  8
PROFILEEDGES
  0
LINE
  5
E6
  8
0
 10
1.662591651153374
 20
-2.109491996689954
 30
0.0
 11
-4.687408348846626
 21
-2.109491996689954
 31
0.0
  0
LINE
  5
E7
  8
0
 10
1.662591651153374
 20
-2.109491996689954
 30
0.0
 11
8.012591651153373
 21
-2.109491996689954
 31
0.0
  0
POLYLINE
  5
E8
  8
PROFILEEDGES
 66
     1
 10
0.0
 20
0.0
 30
0.0
  0
VERTEX
  5
1AA
  8
PROFILEEDGES
 10
114.8625916511535
 20
-78.30949199668996
 30
0.0
 40
0.8363397229568765
 41
0.8363397229568765
  0
VERTEX
  5
1AB
  8
PROFILEEDGES
 10
114.8625916511535
 20
74.09050800331003
 30
0.0
 40
0.8363397229568765
 41
0.8363397229568765
  0
SEQEND
  5
20A
  8
PROFILEEDGES
  0
POLYLINE
  5
E9
  8
PROFILEEDGES
 66
     1
 10
0.0
 20
0.0
 30
0.0
  0
VERTEX
  5
1AC
  8
PROFILEEDGES
 10
38.66259165115349
 20
74.09050800331003
 30
0.0
 40
0.8363397229568765
 41
0.8363397229568765
  0
VERTEX
  5
1AD
  8
PROFILEEDGES
 10
38.66259165115349
 20
-78.30949199668996
 30
0.0
 40
0.8363397229568765
 41
0.8363397229568765
  0
SEQEND
  5
20B
  8
PROFILEEDGES
  0
LINE
  5
EA
  8
0
 10
76.76259165115346
 20
80.44050800331004
 30
0.0
 11
76.76259165115346
 21
-84.65949199668995
 31
0.0
  0
ENDSEC
  0
EOF
