  0
SECTION
  2
HEADER
  9
$ACADVER
  1
AC1009
  9
$DWGCODEPAGE
  3
ansi_1252
  9
$INSBASE
 10
0.0
 20
0.0
 30
0.0
  9
$EXTMIN
 10
1.000000000000000E+20
 20
1.000000000000000E+20
 30
1.000000000000000E+20
  9
$EXTMAX
 10
-1.000000000000000E+20
 20
-1.000000000000000E+20
 30
-1.000000000000000E+20
  9
$LIMMIN
 10
0.0
 20
0.0
  9
$LIMMAX
 10
12.0
 20
9.0
  9
$ORTHOMODE
 70
     0
  9
$REGENMODE
 70
     1
  9
$FILLMODE
 70
     1
  9
$QTEXTMODE
 70
     0
  9
$MIRRTEXT
 70
     1
  9
$DRAGMODE
 70
     2
  9
$LTSCALE
 40
1.0
  9
$OSMODE
 70
    37
  9
$ATTMODE
 70
     1
  9
$TEXTSIZE
 40
0.2
  9
$TRACEWID
 40
0.05
  9
$TEXTSTYLE
  7
STANDARD
  9
$CLAYER
  8
0
  9
$CELTYPE
  6
BYLAYER
  9
$CECOLOR
 62
   256
  9
$DIMSCALE
 40
1.0
  9
$DIMASZ
 40
0.18
  9
$DIMEXO
 40
0.0625
  9
$DIMDLI
 40
0.38
  9
$DIMRND
 40
0.0
  9
$DIMDLE
 40
0.0
  9
$DIMEXE
 40
0.18
  9
$DIMTP
 40
0.0
  9
$DIMTM
 40
0.0
  9
$DIMTXT
 40
0.18
  9
$DIMCEN
 40
0.09
  9
$DIMTSZ
 40
0.0
  9
$DIMTOL
 70
     0
  9
$DIMLIM
 70
     0
  9
$DIMTIH
 70
     1
  9
$DIMTOH
 70
     1
  9
$DIMSE1
 70
     0
  9
$DIMSE2
 70
     0
  9
$DIMTAD
 70
     0
  9
$DIMZIN
 70
     0
  9
$DIMBLK
  1

  9
$DIMASO
 70
     1
  9
$DIMSHO
 70
     1
  9
$DIMPOST
  1

  9
$DIMAPOST
  1

  9
$DIMALT
 70
     0
  9
$DIMALTD
 70
     2
  9
$DIMALTF
 40
25.4
  9
$DIMLFAC
 40
1.0
  9
$DIMTOFL
 70
     0
  9
$DIMTVP
 40
0.0
  9
$DIMTIX
 70
     0
  9
$DIMSOXD
 70
     0
  9
$DIMSAH
 70
     0
  9
$DIMBLK1
  1

  9
$DIMBLK2
  1

  9
$DIMSTYLE
  2
STANDARD
  9
$DIMCLRD
 70
     0
  9
$DIMCLRE
 70
     0
  9
$DIMCLRT
 70
     0
  9
$DIMTFAC
 40
1.0
  9
$DIMGAP
 40
0.09
  9
$LUNITS
 70
     2
  9
$LUPREC
 70
     4
  9
$SKETCHINC
 40
0.1
  9
$FILLETRAD
 40
0.0
  9
$AUNITS
 70
     0
  9
$AUPREC
 70
     0
  9
$MENU
  1
.
  9
$ELEVATION
 40
0.0
  9
$PELEVATION
 40
0.0
  9
$THICKNESS
 40
0.0
  9
$LIMCHECK
 70
     0
  9
$CHAMFERA
 40
0.0
  9
$CHAMFERB
 40
0.0
  9
$SKPOLY
 70
     0
  9
$TDCREATE
 40
2460273.414441493
  9
$TDUPDATE
 40
2460273.414442998
  9
$TDINDWG
 40
0.0000000116
  9
$TDUSRTIMER
 40
0.0000000116
  9
$USRTIMER
 70
     1
  9
$ANGBASE
 50
0.0
  9
$ANGDIR
 70
     0
  9
$PDMODE
 70
     0
  9
$PDSIZE
 40
0.0
  9
$PLINEWID
 40
0.0
  9
$COORDS
 70
     1
  9
$SPLFRAME
 70
     0
  9
$SPLINETYPE
 70
     6
  9
$SPLINESEGS
 70
     8
  9
$ATTDIA
 70
     0
  9
$ATTREQ
 70
     1
  9
$HANDLING
 70
     1
  9
$HANDSEED
  5
A43
  9
$SURFTAB1
 70
     6
  9
$SURFTAB2
 70
     6
  9
$SURFTYPE
 70
     6
  9
$SURFU
 70
     6
  9
$SURFV
 70
     6
  9
$UCSNAME
  2

  9
$UCSORG
 10
0.0
 20
0.0
 30
0.0
  9
$UCSXDIR
 10
1.0
 20
0.0
 30
0.0
  9
$UCSYDIR
 10
0.0
 20
1.0
 30
0.0
  9
$PUCSNAME
  2

  9
$PUCSORG
 10
0.0
 20
0.0
 30
0.0
  9
$PUCSXDIR
 10
1.0
 20
0.0
 30
0.0
  9
$PUCSYDIR
 10
0.0
 20
1.0
 30
0.0
  9
$USERI1
 70
     0
  9
$USERI2
 70
     0
  9
$USERI3
 70
     0
  9
$USERI4
 70
     0
  9
$USERI5
 70
     0
  9
$USERR1
 40
0.0
  9
$USERR2
 40
0.0
  9
$USERR3
 40
0.0
  9
$USERR4
 40
0.0
  9
$USERR5
 40
0.0
  9
$WORLDVIEW
 70
     1
  9
$SHADEDGE
 70
     3
  9
$SHADEDIF
 70
    70
  9
$TILEMODE
 70
     1
  9
$MAXACTVP
 70
    64
  9
$PLIMCHECK
 70
     0
  9
$PEXTMIN
 10
1.000000000000000E+20
 20
1.000000000000000E+20
 30
1.000000000000000E+20
  9
$PEXTMAX
 10
-1.000000000000000E+20
 20
-1.000000000000000E+20
 30
-1.000000000000000E+20
  9
$PLIMMIN
 10
0.0
 20
0.0
  9
$PLIMMAX
 10
12.0
 20
9.0
  9
$UNITMODE
 70
     0
  9
$VISRETAIN
 70
     1
  9
$PLINEGEN
 70
     0
  9
$PSLTSCALE
 70
     1
  0
ENDSEC
  0
SECTION
  2
TABLES
  0
TABLE
  2
VPORT
 70
     1
  0
VPORT
  2
*ACTIVE
 70
     0
 10
0.0
 20
0.0
 11
1.0
 21
1.0
 12
0.0
 22
0.0
 13
0.0
 23
0.0
 14
0.5
 24
0.5
 15
0.5
 25
0.5
 16
0.0
 26
0.0
 36
1.0
 17
0.0
 27
0.0
 37
-1000.0
 40
336.4210485291095
 41
1.658454647256439
 42
50.0
 43
450.7884488813409
 44
671.5896199781148
 50
0.0
 51
0.0
 71
     0
 72
   100
 73
     1
 74
     3
 75
     0
 76
     0
 77
     0
 78
     0
  0
ENDTAB
  0
TABLE
  2
LTYPE
 70
     1
  0
LTYPE
  2
CONTINUOUS
 70
     0
  3
Solid line
 72
    65
 73
     0
 40
0.0
  0
ENDTAB
  0
TABLE
  2
LAYER
 70
     3
  0
LAYER
  2
0
 70
     0
 62
     7
  6
CONTINUOUS
  0
LAYER
  2
PROFILEEDGES
 70
     0
 62
     7
  6
CONTINUOUS
  0
LAYER
  2
SECTIONCUTEDGES
 70
     0
 62
     7
  6
CONTINUOUS
  0
ENDTAB
  0
TABLE
  2
STYLE
 70
     1
  0
STYLE
  2
STANDARD
 70
     0
 40
0.0
 41
1.0
 50
0.0
 71
     0
 42
0.2
  3
txt
  4

  0
ENDTAB
  0
TABLE
  2
VIEW
 70
     0
  0
ENDTAB
  0
TABLE
  2
UCS
 70
     0
  0
ENDTAB
  0
TABLE
  2
APPID
 70
     1
  0
APPID
  2
ACAD
 70
     0
  0
ENDTAB
  0
TABLE
  2
DIMSTYLE
 70
     1
  0
DIMSTYLE
  2
STANDARD
 70
     0
  3

  4

  5

  6

  7

 40
1.0
 41
0.18
 42
0.0625
 43
0.38
 44
0.18
 45
0.0
 46
0.0
 47
0.0
 48
0.0
140
0.18
141
0.09
142
0.0
143
25.4
144
1.0
145
0.0
146
1.0
147
0.09
 71
     0
 72
     0
 73
     1
 74
     1
 75
     0
 76
     0
 77
     0
 78
     0
170
     0
171
     2
172
     0
173
     0
174
     0
175
     0
176
     0
177
     0
178
     0
  0
ENDTAB
  0
ENDSEC
  0
SECTION
  2
BLOCKS
  0
BLOCK
  8
0
  2
$MODEL_SPACE
 70
     0
 10
0.0
 20
0.0
 30
0.0
  3
$MODEL_SPACE
  1

  0
ENDBLK
  5
21
  8
0
  0
BLOCK
 67
     1
  8
0
  2
$PAPER_SPACE
 70
     0
 10
0.0
 20
0.0
 30
0.0
  3
$PAPER_SPACE
  1

  0
ENDBLK
  5
1D
 67
     1
  8
0
  0
ENDSEC
  0
SECTION
  2
ENTITIES
  0
LINE
  5
60
  8
0
 10
-125.6261847846708
 20
31.0399220001831
 30
0.0
 11
-123.9010647547751
 21
31.32877874262067
 31
0.0
  0
LINE
  5
61
  8
0
 10
-123.9010647547751
 20
31.32877874262067
 30
0.0
 11
-122.1555263825405
 21
31.2166487900853
 31
0.0
  0
LINE
  5
62
  8
0
 10
-116.7246790352113
 20
27.17921202663441
 30
0.0
 11
-116.1144261527668
 21
25.53998392942909
 31
0.0
  0
LINE
  5
63
  8
0
 10
-115.8940415118494
 20
23.80478712639869
 30
0.0
 11
-116.0751374224789
 21
22.06505105263566
 31
0.0
  0
LINE
  5
64
  8
0
 10
-118.9673216215058
 20
29.83387892338168
 30
0.0
 11
-117.6926452611288
 21
28.63609867997512
 31
0.0
  0
LINE
  5
65
  8
0
 10
-122.1555263825405
 20
31.2166487900853
 30
0.0
 11
-120.481544011757
 21
30.70944039355999
 31
0.0
  0
LINE
  5
66
  8
0
 10
-116.1144261527668
 20
25.53998392942909
 30
0.0
 11
-115.8940415118494
 21
23.80478712639869
 31
0.0
  0
LINE
  5
67
  8
0
 10
-120.481544011757
 20
30.70944039355999
 30
0.0
 11
-118.9673216215058
 21
29.83387892338168
 31
0.0
  0
LINE
  5
68
  8
0
 10
-116.0751374224789
 20
22.06505105263566
 30
0.0
 11
-116.6481717412066
 21
20.41244432241835
 31
0.0
  0
LINE
  5
69
  8
0
 10
-116.6481717412066
 20
20.41244432241835
 30
0.0
 11
-117.5829506571872
 21
18.93404460872885
 31
0.0
  0
LINE
  5
6A
  8
0
 10
-117.6926452611288
 20
28.63609867997512
 30
0.0
 11
-116.7246790352113
 21
27.17921202663441
 31
0.0
  0
LINE
  5
6B
  8
0
 10
-125.6261847846708
 20
31.0399220001831
 30
0.0
 11
-130.5547679424639
 21
20.80561361823964
 31
0.0
  0
POLYLINE
  5
6C
  8
PROFILEEDGES
 66
     1
 10
0.0
 20
0.0
 30
0.0
  0
VERTEX
  5
69E
  8
PROFILEEDGES
 10
13.95950767270835
 20
-2.730914322112199
 30
0.0
 40
0.7534625946900548
 41
0.7534625946900548
  0
VERTEX
  5
69F
  8
PROFILEEDGES
 10
12.94318018883695
 20
10.18275076695886
 30
0.0
 40
0.7534625946900548
 41
0.7534625946900548
  0
SEQEND
  5
90C
  8
PROFILEEDGES
  0
POLYLINE
  5
6D
  8
PROFILEEDGES
 66
     1
 10
0.0
 20
0.0
 30
0.0
  0
VERTEX
  5
6A0
  8
PROFILEEDGES
 10
12.94318018883695
 20
10.18275076695886
 30
0.0
 40
0.7534625946900548
 41
0.7534625946900548
  0
VERTEX
  5
6A1
  8
PROFILEEDGES
 10
9.919223092873287
 20
22.77843856353971
 30
0.0
 40
0.7534625946900548
 41
0.7534625946900548
  0
SEQEND
  5
90D
  8
PROFILEEDGES
  0
POLYLINE
  5
6E
  8
PROFILEEDGES
 66
     1
 10
0.0
 20
0.0
 30
0.0
  0
VERTEX
  5
6A2
  8
PROFILEEDGES
 10
9.919223092873287
 20
22.77843856353971
 30
0.0
 40
0.7534625946900548
 41
0.7534625946900548
  0
VERTEX
  5
6A3
  8
PROFILEEDGES
 10
4.962096244458118
 20
34.74600143138738
 30
0.0
 40
0.7534625946900548
 41
0.7534625946900548
  0
SEQEND
  5
90E
  8
PROFILEEDGES
  0
POLYLINE
  5
6F
  8
PROFILEEDGES
 66
     1
 10
0.0
 20
0.0
 30
0.0
  0
VERTEX
  5
6A4
  8
PROFILEEDGES
 10
4.962096244458118
 20
34.74600143138738
 30
0.0
 40
0.7534625946900548
 41
0.7534625946900548
  0
VERTEX
  5
6A5
  8
PROFILEEDGES
 10
-1.806139441639739
 20
45.79075825463145
 30
0.0
 40
0.7534625946900548
 41
0.7534625946900548
  0
SEQEND
  5
90F
  8
PROFILEEDGES
  0
POLYLINE
  5
70
  8
PROFILEEDGES
 66
     1
 10
0.0
 20
0.0
 30
0.0
  0
VERTEX
  5
6A6
  8
PROFILEEDGES
 10
-1.806139441639739
 20
45.79075825463145
 30
0.0
 40
0.7534625946900548
 41
0.7534625946900548
  0
VERTEX
  5
6A7
  8
PROFILEEDGES
 10
-10.21882754034213
 20
55.6407504648373
 30
0.0
 40
0.7534625946900548
 41
0.7534625946900548
  0
SEQEND
  5
910
  8
PROFILEEDGES
  0
POLYLINE
  5
71
  8
PROFILEEDGES
 66
     1
 10
0.0
 20
0.0
 30
0.0
  0
VERTEX
  5
6A8
  8
PROFILEEDGES
 10
-10.21882754034213
 20
55.6407504648373
 30
0.0
 40
0.7534625946900548
 41
0.7534625946900548
  0
VERTEX
  5
6A9
  8
PROFILEEDGES
 10
-20.06881975054804
 20
64.05343856353973
 30
0.0
 40
0.7534625946900548
 41
0.7534625946900548
  0
SEQEND
  5
911
  8
PROFILEEDGES
  0
POLYLINE
  5
72
  8
PROFILEEDGES
 66
     1
 10
0.0
 20
0.0
 30
0.0
  0
VERTEX
  5
6AA
  8
PROFILEEDGES
 10
-20.06881975054804
 20
64.05343856353973
 30
0.0
 40
0.7534625946900548
 41
0.7534625946900548
  0
VERTEX
  5
6AB
  8
PROFILEEDGES
 10
-31.11357657379206
 20
70.82167424963758
 30
0.0
 40
0.7534625946900548
 41
0.7534625946900548
  0
SEQEND
  5
912
  8
PROFILEEDGES
  0
POLYLINE
  5
73
  8
PROFILEEDGES
 66
     1
 10
0.0
 20
0.0
 30
0.0
  0
VERTEX
  5
6AC
  8
PROFILEEDGES
 10
-31.11357657379206
 20
70.82167424963758
 30
0.0
 40
0.7534625946900548
 41
0.7534625946900548
  0
VERTEX
  5
6AD
  8
PROFILEEDGES
 10
-43.08113944163973
 20
75.77880109805272
 30
0.0
 40
0.7534625946900548
 41
0.7534625946900548
  0
SEQEND
  5
913
  8
PROFILEEDGES
  0
POLYLINE
  5
74
  8
PROFILEEDGES
 66
     1
 10
0.0
 20
0.0
 30
0.0
  0
VERTEX
  5
6AE
  8
PROFILEEDGES
 10
-43.08113944163973
 20
75.77880109805272
 30
0.0
 40
0.7534625946900548
 41
0.7534625946900548
  0
VERTEX
  5
6AF
  8
PROFILEEDGES
 10
-55.67682723822058
 20
78.80275819401643
 30
0.0
 40
0.7534625946900548
 41
0.7534625946900548
  0
SEQEND
  5
914
  8
PROFILEEDGES
  0
POLYLINE
  5
75
  8
PROFILEEDGES
 66
     1
 10
0.0
 20
0.0
 30
0.0
  0
VERTEX
  5
6B0
  8
PROFILEEDGES
 10
-55.67682723822058
 20
78.80275819401643
 30
0.0
 40
0.7534625946900548
 41
0.7534625946900548
  0
VERTEX
  5
6B1
  8
PROFILEEDGES
 10
-68.59049232729164
 20
79.8190856778878
 30
0.0
 40
0.7534625946900548
 41
0.7534625946900548
  0
SEQEND
  5
915
  8
PROFILEEDGES
  0
POLYLINE
  5
76
  8
PROFILEEDGES
 66
     1
 10
0.0
 20
0.0
 30
0.0
  0
VERTEX
  5
6B2
  8
PROFILEEDGES
 10
-68.59049232729164
 20
79.8190856778878
 30
0.0
 40
0.7534625946900548
 41
0.7534625946900548
  0
VERTEX
  5
6B3
  8
PROFILEEDGES
 10
-81.5041574163627
 20
78.80275819401643
 30
0.0
 40
0.7534625946900548
 41
0.7534625946900548
  0
SEQEND
  5
916
  8
PROFILEEDGES
  0
POLYLINE
  5
77
  8
PROFILEEDGES
 66
     1
 10
0.0
 20
0.0
 30
0.0
  0
VERTEX
  5
6B4
  8
PROFILEEDGES
 10
-81.5041574163627
 20
78.80275819401643
 30
0.0
 40
0.7534625946900548
 41
0.7534625946900548
  0
VERTEX
  5
6B5
  8
PROFILEEDGES
 10
-94.09984521294355
 20
75.77880109805272
 30
0.0
 40
0.7534625946900548
 41
0.7534625946900548
  0
SEQEND
  5
917
  8
PROFILEEDGES
  0
POLYLINE
  5
78
  8
PROFILEEDGES
 66
     1
 10
0.0
 20
0.0
 30
0.0
  0
VERTEX
  5
6B6
  8
PROFILEEDGES
 10
-94.09984521294355
 20
75.77880109805272
 30
0.0
 40
0.7534625946900548
 41
0.7534625946900548
  0
VERTEX
  5
6B7
  8
PROFILEEDGES
 10
-106.0674080807912
 20
70.82167424963755
 30
0.0
 40
0.7534625946900548
 41
0.7534625946900548
  0
SEQEND
  5
918
  8
PROFILEEDGES
  0
POLYLINE
  5
79
  8
PROFILEEDGES
 66
     1
 10
0.0
 20
0.0
 30
0.0
  0
VERTEX
  5
6B8
  8
PROFILEEDGES
 10
-106.0674080807912
 20
70.82167424963755
 30
0.0
 40
0.7534625946900548
 41
0.7534625946900548
  0
VERTEX
  5
6B9
  8
PROFILEEDGES
 10
-117.1121649040353
 20
64.0534385635397
 30
0.0
 40
0.7534625946900548
 41
0.7534625946900548
  0
SEQEND
  5
919
  8
PROFILEEDGES
  0
POLYLINE
  5
7A
  8
PROFILEEDGES
 66
     1
 10
0.0
 20
0.0
 30
0.0
  0
VERTEX
  5
6BA
  8
PROFILEEDGES
 10
-117.1121649040353
 20
64.0534385635397
 30
0.0
 40
0.7534625946900548
 41
0.7534625946900548
  0
VERTEX
  5
6BB
  8
PROFILEEDGES
 10
-126.9621571142412
 20
55.6407504648373
 30
0.0
 40
0.7534625946900548
 41
0.7534625946900548
  0
SEQEND
  5
91A
  8
PROFILEEDGES
  0
POLYLINE
  5
7B
  8
PROFILEEDGES
 66
     1
 10
0.0
 20
0.0
 30
0.0
  0
VERTEX
  5
6BC
  8
PROFILEEDGES
 10
-126.9621571142412
 20
55.6407504648373
 30
0.0
 40
0.7534625946900548
 41
0.7534625946900548
  0
VERTEX
  5
6BD
  8
PROFILEEDGES
 10
-135.3748452129435
 20
45.79075825463145
 30
0.0
 40
0.7534625946900548
 41
0.7534625946900548
  0
SEQEND
  5
91B
  8
PROFILEEDGES
  0
POLYLINE
  5
7C
  8
PROFILEEDGES
 66
     1
 10
0.0
 20
0.0
 30
0.0
  0
VERTEX
  5
6BE
  8
PROFILEEDGES
 10
-135.3748452129435
 20
45.79075825463145
 30
0.0
 40
0.7534625946900548
 41
0.7534625946900548
  0
VERTEX
  5
6BF
  8
PROFILEEDGES
 10
-142.1430808990414
 20
34.74600143138738
 30
0.0
 40
0.7534625946900548
 41
0.7534625946900548
  0
SEQEND
  5
91C
  8
PROFILEEDGES
  0
LINE
  5
7D
  8
0
 10
-113.382651235852
 20
-60.19283895124468
 30
0.0
 11
-113.3766243208985
 21
-60.37182447484377
 31
0.0
  0
LINE
  5
7E
  8
0
 10
-106.9089229507238
 20
-59.89009796356407
 30
0.0
 11
-107.0111837701385
 21
-61.63624230468017
 31
0.0
  0
LINE
  5
7F
  8
0
 10
-109.4154182128259
 20
-59.82624484205881
 30
0.0
 11
-106.9089229507238
 21
-59.89009796356407
 31
0.0
  0
LINE
  5
80
  8
0
 10
-107.0111837701385
 20
-61.63624230468017
 30
0.0
 11
-107.5089212195032
 21
-63.31306512379351
 31
0.0
  0
LINE
  5
81
  8
0
 10
-113.3986711119034
 20
-60.54954920685451
 30
0.0
 11
-113.4482487437029
 21
-60.72163697454017
 31
0.0
  0
LINE
  5
82
  8
0
 10
-113.5241364504636
 20
-60.88385040593384
 30
0.0
 11
-113.624465624988
 21
-61.03219526799907
 31
0.0
  0
LINE
  5
83
  8
0
 10
-107.5089212195032
 20
-63.31306512379351
 30
0.0
 11
-108.3759089631418
 21
-64.83221277546518
 31
0.0
  0
LINE
  5
84
  8
0
 10
-113.4482487437029
 20
-60.72163697454017
 30
0.0
 11
-113.5241364504636
 21
-60.88385040593384
 31
0.0
  0
LINE
  5
85
  8
0
 10
-113.7467658300259
 20
-61.16301881790342
 30
0.0
 11
-113.8880256286382
 21
-61.2730997456698
 31
0.0
  0
LINE
  5
86
  8
0
 10
-108.3759089631418
 20
-64.83221277546518
 30
0.0
 11
-109.5664644597459
 21
-66.11363969289162
 31
0.0
  0
LINE
  5
87
  8
0
 10
-113.624465624988
 20
-61.03219526799907
 30
0.0
 11
-113.7467658300259
 21
-61.16301881790342
 31
0.0
  0
LINE
  5
88
  8
0
 10
-109.5664644597459
 20
-66.11363969289162
 30
0.0
 11
-111.0178560259061
 21
-67.08982607718431
 31
0.0
  0
LINE
  5
89
  8
0
 10
-113.8880256286382
 20
-61.2730997456698
 30
0.0
 11
-114.0447667357686
 21
-61.35972749351897
 31
0.0
  0
LINE
  5
8A
  8
0
 10
-111.0178560259061
 20
-67.08982607718431
 30
0.0
 11
-112.6536082377624
 21
-67.70933559011065
 31
0.0
  0
LINE
  5
8B
  8
0
 10
-114.0447667357686
 20
-61.35972749351897
 30
0.0
 11
-114.2131296651658
 21
-61.42076899879783
 31
0.0
  0
LINE
  5
8C
  8
0
 10
-114.2131296651658
 20
-61.42076899879783
 30
0.0
 11
-114.3889687627433
 21
-61.45472121706129
 31
0.0
  0
LINE
  5
8D
  8
0
 10
-112.6536082377624
 20
-67.70933559011065
 30
0.0
 11
-114.3875315055116
 21
-67.93952559153766
 31
0.0
  0
LINE
  5
8E
  8
0
 10
-114.5679542863424
 20
-61.46074813201474
 30
0.0
 11
-114.7456790183531
 21
-61.43870134100986
 31
0.0
  0
LINE
  5
8F
  8
0
 10
-114.3875315055116
 20
-67.93952559153766
 30
0.0
 11
-116.1282634980412
 21
-67.76826711617585
 31
0.0
  0
LINE
  5
90
  8
0
 10
-114.3889687627433
 20
-61.45472121706129
 30
0.0
 11
-114.5679542863424
 21
-61.46074813201474
 31
0.0
  0
LINE
  5
91
  8
0
 10
-116.1282634980412
 20
-67.76826711617585
 30
0.0
 11
-117.7840831250134
 21
-67.20458396214985
 31
0.0
  0
LINE
  5
92
  8
0
 10
-114.7456790183531
 20
-61.43870134100986
 30
0.0
 11
-114.9177667860388
 21
-61.38912370921028
 31
0.0
  0
LINE
  5
93
  8
0
 10
-115.0799802174324
 20
-61.31323600244966
 30
0.0
 11
-115.2283250794976
 21
-61.21290682792527
 31
0.0
  0
LINE
  5
94
  8
0
 10
-117.7840831250134
 20
-67.20458396214985
 30
0.0
 11
-119.2677434223695
 21
-66.2781772171137
 31
0.0
  0
LINE
  5
95
  8
0
 10
-114.9177667860388
 20
-61.38912370921028
 30
0.0
 11
-115.0799802174324
 21
-61.31323600244966
 31
0.0
  0
LINE
  5
96
  8
0
 10
-115.3591486294021
 20
-61.09060662288736
 30
0.0
 11
-115.4692295571684
 21
-60.94934682427505
 31
0.0
  0
LINE
  5
97
  8
0
 10
-119.2677434223695
 20
-66.2781772171137
 30
0.0
 11
-120.5010686911803
 21
-65.03786027515416
 31
0.0
  0
LINE
  5
98
  8
0
 10
-115.2283250794976
 20
-61.21290682792527
 30
0.0
 11
-115.3591486294021
 21
-61.09060662288736
 31
0.0
  0
LINE
  5
99
  8
0
 10
-120.5010686911803
 20
-65.03786027515416
 30
0.0
 11
-121.419073661524
 21
-63.54898680516973
 31
0.0
  0
LINE
  5
9A
  8
0
 10
-115.4692295571684
 20
-60.94934682427505
 30
0.0
 11
-115.5558573050176
 21
-60.7926057171446
 31
0.0
  0
LINE
  5
9B
  8
0
 10
-115.6168988102964
 20
-60.62424278774749
 30
0.0
 11
-115.6508510285599
 21
-60.44840369016993
 31
0.0
  0
LINE
  5
9C
  8
0
 10
-121.419073661524
 20
-63.54898680516973
 30
0.0
 11
-121.9733876380973
 21
-61.89000719391023
 31
0.0
  0
LINE
  5
9D
  8
0
 10
-115.5558573050176
 20
-60.7926057171446
 30
0.0
 11
-115.6168988102964
 21
-60.62424278774749
 31
0.0
  0
LINE
  5
9E
  8
0
 10
-121.9733876380973
 20
-61.89000719391023
 30
0.0
 11
-122.134803205549
 21
-60.14833490849502
 31
0.0
  0
LINE
  5
9F
  8
0
 10
-115.6508510285599
 20
-60.44840369016993
 30
0.0
 11
-115.6568779435134
 21
-60.26941816657086
 31
0.0
  0
LINE
  5
A0
  8
0
 10
-115.6568779435134
 20
-60.26941816657086
 30
0.0
 11
-115.6348311525085
 21
-60.09169343456011
 31
0.0
  0
LINE
  5
A1
  8
0
 10
-122.134803205549
 20
-60.14833490849502
 30
0.0
 11
-121.8948151994384
 21
-58.41574058433193
 31
0.0
  0
LINE
  5
A2
  8
0
 10
-121.8948151994384
 20
-58.41574058433193
 30
0.0
 11
-121.2660688527379
 21
-56.7835165290289
 31
0.0
  0
LINE
  5
A3
  8
0
 10
-115.6348311525085
 20
-60.09169343456011
 30
0.0
 11
-115.5852535207089
 21
-59.91960566687444
 31
0.0
  0
LINE
  5
A4
  8
0
 10
-115.5093658139483
 20
-59.75739223548077
 30
0.0
 11
-115.4090366394239
 21
-59.60904737341555
 31
0.0
  0
LINE
  5
A5
  8
0
 10
-121.2660688527379
 20
-56.7835165290289
 30
0.0
 11
-120.2816935045488
 21
-55.33766642992559
 31
0.0
  0
LINE
  5
A6
  8
0
 10
-115.5852535207089
 20
-59.91960566687444
 30
0.0
 11
-115.5093658139483
 21
-59.75739223548077
 31
0.0
  0
LINE
  5
A7
  8
0
 10
-115.2867364343859
 20
-59.47822382351119
 30
0.0
 11
-115.1454766357737
 21
-59.36814289574481
 31
0.0
  0
LINE
  5
A8
  8
0
 10
-120.2816935045488
 20
-55.33766642992559
 30
0.0
 11
-118.9935569786519
 21
-54.15437372486522
 31
0.0
  0
LINE
  5
A9
  8
0
 10
-115.4090366394239
 20
-59.60904737341555
 30
0.0
 11
-115.2867364343859
 21
-59.47822382351119
 31
0.0
  0
LINE
  5
AA
  8
0
 10
-118.9935569786519
 20
-54.15437372486522
 30
0.0
 11
-117.4695326106124
 21
-53.29598741275313
 31
0.0
  0
LINE
  5
AB
  8
0
 10
-115.1454766357737
 20
-59.36814289574481
 30
0.0
 11
-114.9887355286432
 21
-59.28151514789565
 31
0.0
  0
LINE
  5
AC
  8
0
 10
-115.7899229268033
 20
-52.80773681597536
 30
0.0
 11
-115.4579214188418
 21
-54.11280175426376
 31
0.0
  0
LINE
  5
AD
  8
0
 10
-115.4579214188418
 20
-54.11280175426376
 30
0.0
 11
-115.1830874953243
 21
-55.18601909482425
 31
0.0
  0
LINE
  5
AE
  8
0
 10
-115.1830874953243
 20
-55.18601909482425
 30
0.0
 11
-114.9551729916815
 21
-56.06702099158283
 31
0.0
  0
LINE
  5
AF
  8
0
 10
-114.8203725992461
 20
-59.22047364261679
 30
0.0
 11
-114.6445335016685
 21
-59.18652142435333
 31
0.0
  0
LINE
  5
B0
  8
0
 10
-117.4695326106124
 20
-53.29598741275313
 30
0.0
 11
-115.7899229268033
 21
-52.80773681597536
 31
0.0
  0
LINE
  5
B1
  8
0
 10
-114.9887355286432
 20
-59.28151514789565
 30
0.0
 11
-114.8203725992461
 21
-59.22047364261679
 31
0.0
  0
LINE
  5
B2
  8
0
 10
-114.9551729916815
 20
-56.06702099158283
 30
0.0
 11
-114.7656135816828
 21
-56.78839091649435
 31
0.0
  0
LINE
  5
B3
  8
0
 10
-114.4655479780695
 20
-59.18049450939989
 30
0.0
 11
-114.2878232460588
 21
-59.20254130040475
 31
0.0
  0
LINE
  5
B4
  8
0
 10
-114.7656135816828
 20
-56.78839091649435
 30
0.0
 11
-114.6072004960223
 21
-57.37689411507273
 31
0.0
  0
LINE
  5
B5
  8
0
 10
-114.6072004960223
 20
-57.37689411507273
 30
0.0
 11
-114.4738084352074
 21
-57.85451114493671
 31
0.0
  0
LINE
  5
B6
  8
0
 10
-114.6445335016685
 20
-59.18652142435333
 30
0.0
 11
-114.4655479780695
 21
-59.18049450939989
 31
0.0
  0
LINE
  5
B7
  8
0
 10
-114.4738084352074
 20
-57.85451114493671
 30
0.0
 11
-114.1493351889429
 21
-58.8525372990745
 31
0.0
  0
LINE
  5
B8
  8
0
 10
-114.1493351889429
 20
-58.8525372990745
 30
0.0
 11
-113.9973846833828
 21
-59.16440391172694
 31
0.0
  0
LINE
  5
B9
  8
0
 10
-114.2878232460588
 20
-59.20254130040475
 30
0.0
 11
-114.1157354783731
 21
-59.25211893220433
 31
0.0
  0
LINE
  5
BA
  8
0
 10
-113.9973846833828
 20
-59.16440391172694
 30
0.0
 11
-113.9062552597429
 21
-59.2932850674727
 31
0.0
  0
LINE
  5
BB
  8
0
 10
-114.1157354783731
 20
-59.25211893220433
 30
0.0
 11
-113.9535220469793
 21
-59.32800663896496
 31
0.0
  0
LINE
  5
BC
  8
0
 10
-113.9535220469793
 20
-59.32800663896496
 30
0.0
 11
-113.8051771849142
 21
-59.42833581348935
 31
0.0
  0
LINE
  5
BD
  8
0
 10
-113.9062552597429
 20
-59.2932850674727
 30
0.0
 11
-113.8051771849142
 21
-59.42833581348935
 31
0.0
  0
LINE
  5
BE
  8
0
 10
-113.8051771849142
 20
-59.42833581348935
 30
0.0
 11
-113.6743536350098
 21
-59.55063601852726
 31
0.0
  0
LINE
  5
BF
  8
0
 10
-113.3766243208985
 20
-60.37182447484377
 30
0.0
 11
-113.3986711119034
 21
-60.54954920685451
 31
0.0
  0
LINE
  5
C0
  8
0
 10
-113.4166034541154
 20
-60.01699985366714
 30
0.0
 11
-113.382651235852
 21
-60.19283895124468
 31
0.0
  0
LINE
  5
C1
  8
0
 10
-113.4776449593943
 20
-59.84863692427
 30
0.0
 11
-113.4166034541154
 21
-60.01699985366714
 31
0.0
  0
LINE
  5
C2
  8
0
 10
-113.5642727072435
 20
-59.69189581713956
 30
0.0
 11
-113.4776449593943
 21
-59.84863692427
 31
0.0
  0
LINE
  5
C3
  8
0
 10
-113.6743536350098
 20
-59.55063601852726
 30
0.0
 11
-113.5642727072435
 21
-59.69189581713956
 31
0.0
  0
LINE
  5
C4
  8
0
 10
-124.481562625719
 20
-30.34374925440032
 30
0.0
 11
-124.483151448687
 21
-29.99683829194908
 31
0.0
  0
LINE
  5
C5
  8
0
 10
-124.483151448687
 20
-29.99683829194908
 30
0.0
 11
-124.5093367845797
 21
-29.84118080789037
 31
0.0
  0
LINE
  5
C6
  8
0
 10
-124.5093367845797
 20
-29.84118080789037
 30
0.0
 11
-124.5646118994186
 21
-29.68662961814627
 31
0.0
  0
LINE
  5
C7
  8
0
 10
-124.5646118994186
 20
-29.68662961814627
 30
0.0
 11
-124.6488265413365
 21
-29.54987920840957
 31
0.0
  0
LINE
  5
C8
  8
0
 10
-124.6488265413365
 20
-29.54987920840957
 30
0.0
 11
-124.7512145834584
 21
-29.43455846409782
 31
0.0
  0
LINE
  5
C9
  8
0
 10
-124.7512145834584
 20
-29.43455846409782
 30
0.0
 11
-125.0125278503172
 21
-29.22187754888665
 31
0.0
  0
LINE
  5
CA
  8
0
 10
-125.0125278503172
 20
-29.22187754888665
 30
0.0
 11
-125.8710778336583
 21
-28.70465631987679
 31
0.0
  0
LINE
  5
CB
  8
0
 10
-125.8710778336583
 20
-28.70465631987679
 30
0.0
 11
-126.37840579136
 21
-28.42918739758848
 31
0.0
  0
LINE
  5
CC
  8
0
 10
-126.37840579136
 20
-28.42918739758848
 30
0.0
 11
-127.0856664709218
 21
-28.05541260756221
 31
0.0
  0
LINE
  5
CD
  8
0
 10
-127.0856664709218
 20
-28.05541260756221
 30
0.0
 11
-128.324198574878
 21
-27.41249947346
 31
0.0
  0
LINE
  5
CE
  8
0
 10
-128.324198574878
 20
-27.41249947346
 30
0.0
 11
-130.5547679424639
 21
-26.26744226246404
 31
0.0
  0
LINE
  5
CF
  8
0
 10
-130.5547679424639
 20
-26.26744226246404
 30
0.0
 11
-125.6261847846708
 21
-36.50175064440749
 31
0.0
  0
LINE
  5
D0
  8
0
 10
-125.6261847846708
 20
-36.50175064440749
 30
0.0
 11
-125.359061352225
 21
-35.18187770875161
 31
0.0
  0
LINE
  5
D1
  8
0
 10
-125.359061352225
 20
-35.18187770875161
 30
0.0
 11
-125.1410266085495
 21
-34.09569632604147
 31
0.0
  0
LINE
  5
D2
  8
0
 10
-125.1410266085495
 20
-34.09569632604147
 30
0.0
 11
-124.9641180837398
 21
-33.20305264745932
 31
0.0
  0
LINE
  5
D3
  8
0
 10
-124.9641180837398
 20
-33.20305264745932
 30
0.0
 11
-124.8219145304591
 21
-32.4708740572778
 31
0.0
  0
LINE
  5
D4
  8
0
 10
-124.8219145304591
 20
-32.4708740572778
 30
0.0
 11
-124.7092978206258
 21
-31.87191813476617
 31
0.0
  0
LINE
  5
D5
  8
0
 10
-124.7092978206258
 20
-31.87191813476617
 30
0.0
 11
-124.6222496518617
 21
-31.38372341396374
 31
0.0
  0
LINE
  5
D6
  8
0
 10
-124.6222496518617
 20
-31.38372341396374
 30
0.0
 11
-124.481562625719
 21
-30.34374925440032
 31
0.0
  0
LINE
  5
D7
  8
0
 10
-130.5547679424639
 20
-26.26744226246404
 30
0.0
 11
-129.7050104920026
 21
-24.73858987894738
 31
0.0
  0
LINE
  5
D8
  8
0
 10
-129.7050104920026
 20
-24.73858987894738
 30
0.0
 11
-128.5290183911414
 21
-23.44378490756705
 31
0.0
  0
LINE
  5
D9
  8
0
 10
-128.5290183911414
 20
-23.44378490756705
 30
0.0
 11
-127.088755961891
 21
-22.45125205164282
 31
0.0
  0
LINE
  5
DA
  8
0
 10
-127.088755961891
 20
-22.45125205164282
 30
0.0
 11
-125.4601122216018
 21
-21.81328896304298
 31
0.0
  0
LINE
  5
DB
  8
0
 10
-125.4601122216018
 20
-21.81328896304298
 30
0.0
 11
-123.7289022068628
 21
-21.56351062117428
 31
0.0
  0
LINE
  5
DC
  8
0
 10
-123.7289022068628
 20
-21.56351062117428
 30
0.0
 11
-121.9863452844904
 21
-21.71507812260829
 31
0.0
  0
LINE
  5
DD
  8
0
 10
-121.9863452844904
 20
-21.71507812260829
 30
0.0
 11
-120.32425870239
 21
-22.26000520837412
 31
0.0
  0
LINE
  5
DE
  8
0
 10
-120.32425870239
 20
-22.26000520837412
 30
0.0
 11
-118.8302196374046
 21
-23.16957906875983
 31
0.0
  0
LINE
  5
DF
  8
0
 10
-118.8302196374046
 20
-23.16957906875983
 30
0.0
 11
-117.5829506571872
 21
-24.39587325295325
 31
0.0
  0
LINE
  5
E0
  8
0
 10
-117.5829506571872
 20
-24.39587325295325
 30
0.0
 11
-116.6481717412066
 21
-25.87427296664276
 31
0.0
  0
LINE
  5
E1
  8
0
 10
-116.6481717412066
 20
-25.87427296664276
 30
0.0
 11
-116.0751374224789
 21
-27.52687969686004
 31
0.0
  0
LINE
  5
E2
  8
0
 10
-116.0751374224789
 20
-27.52687969686004
 30
0.0
 11
-115.8940415118494
 21
-29.26661577062309
 31
0.0
  0
LINE
  5
E3
  8
0
 10
-115.8940415118494
 20
-29.26661577062309
 30
0.0
 11
-116.1144261527668
 21
-31.00181257365348
 31
0.0
  0
LINE
  5
E4
  8
0
 10
-116.1144261527668
 20
-31.00181257365348
 30
0.0
 11
-116.7246790352113
 21
-32.6410406708588
 31
0.0
  0
LINE
  5
E5
  8
0
 10
-116.7246790352113
 20
-32.6410406708588
 30
0.0
 11
-117.6926452611288
 21
-34.09792732419951
 31
0.0
  0
LINE
  5
E6
  8
0
 10
-117.6926452611288
 20
-34.09792732419951
 30
0.0
 11
-118.9673216215058
 21
-35.29570756760605
 31
0.0
  0
LINE
  5
E7
  8
0
 10
-118.9673216215058
 20
-35.29570756760605
 30
0.0
 11
-120.481544011757
 21
-36.17126903778436
 31
0.0
  0
LINE
  5
E8
  8
0
 10
-120.481544011757
 20
-36.17126903778436
 30
0.0
 11
-122.1555263825405
 21
-36.67847743430968
 31
0.0
  0
LINE
  5
E9
  8
0
 10
-122.1555263825405
 20
-36.67847743430968
 30
0.0
 11
-123.9010647547751
 21
-36.79060738684507
 31
0.0
  0
LINE
  5
EA
  8
0
 10
-123.9010647547751
 20
-36.79060738684507
 30
0.0
 11
-125.6261847846708
 21
-36.50175064440749
 31
0.0
  0
LINE
  5
EB
  8
0
 10
-124.5646118994186
 20
-29.68662961814627
 30
0.0
 11
-124.6066125359711
 21
-29.50869726881849
 31
0.0
  0
LINE
  5
EC
  8
0
 10
-124.6066125359711
 20
-29.50869726881849
 30
0.0
 11
-124.6445016952296
 21
-29.33366426343784
 31
0.0
  0
LINE
  5
ED
  8
0
 10
-124.6445016952296
 20
-29.33366426343784
 30
0.0
 11
-124.654543181503
 21
-29.15485903444462
 31
0.0
  0
LINE
  5
EE
  8
0
 10
-124.6364897400735
 20
-28.97668435999718
 30
0.0
 11
-124.5907859065851
 21
-28.80352749190827
 31
0.0
  0
LINE
  5
EF
  8
0
 10
-124.654543181503
 20
-29.15485903444462
 30
0.0
 11
-124.6364897400735
 21
-28.97668435999718
 31
0.0
  0
LINE
  5
F0
  8
0
 10
-124.5185570611006
 20
-28.63965212694495
 30
0.0
 11
-124.4215817175096
 21
-28.48909342046371
 31
0.0
  0
LINE
  5
F1
  8
0
 10
-124.5907859065851
 20
-28.80352749190827
 30
0.0
 11
-124.5185570611006
 21
-28.63965212694495
 31
0.0
  0
LINE
  5
F2
  8
0
 10
-124.4215817175096
 20
-28.48909342046371
 30
0.0
 11
-124.302247730614
 21
-28.35555862749387
 31
0.0
  0
LINE
  5
F3
  8
0
 10
-124.1634934992179
 20
-28.24233581781493
 30
0.0
 11
-124.0087356129973
 21
-28.1522129127661
 31
0.0
  0
LINE
  5
F4
  8
0
 10
-124.302247730614
 20
-28.35555862749387
 30
0.0
 11
-124.1634934992179
 21
-28.24233581781493
 31
0.0
  0
LINE
  5
F5
  8
0
 10
-123.841784724723
 20
-28.0874090373705
 30
0.0
 11
-123.6667517193424
 21
-28.04951987811206
 31
0.0
  0
LINE
  5
F6
  8
0
 10
-124.0087356129973
 20
-28.1522129127661
 30
0.0
 11
-123.841784724723
 21
-28.0874090373705
 31
0.0
  0
LINE
  5
F7
  8
0
 10
-124.5418086605756
 20
24.21381951286849
 30
0.0
 11
-124.4516857555268
 21
24.36857739908906
 31
0.0
  0
LINE
  5
F8
  8
0
 10
-124.4516857555268
 20
24.36857739908906
 30
0.0
 11
-124.3384629458478
 21
24.50733163048507
 31
0.0
  0
LINE
  5
F9
  8
0
 10
-124.510203094249
 20
24.37590511812887
 30
0.0
 11
-124.4838796058596
 21
24.52785662090918
 31
0.0
  0
LINE
  5
FA
  8
0
 10
-124.4838796058596
 20
24.52785662090918
 30
0.0
 11
-124.4805251276045
 21
24.86476394141019
 31
0.0
  0
LINE
  5
FB
  8
0
 10
-124.3384629458478
 20
24.50733163048507
 30
0.0
 11
-124.204928152878
 21
24.62666561738066
 31
0.0
  0
LINE
  5
FC
  8
0
 10
-124.0543694463967
 20
24.72364096097168
 30
0.0
 11
-123.8904940814333
 21
24.79586980645618
 31
0.0
  0
LINE
  5
FD
  8
0
 10
-124.4805251276045
 20
24.86476394141019
 30
0.0
 11
-124.6114424463628
 21
25.85848750925111
 31
0.0
  0
LINE
  5
FE
  8
0
 10
-124.204928152878
 20
24.62666561738066
 30
0.0
 11
-124.0543694463967
 21
24.72364096097168
 31
0.0
  0
LINE
  5
FF
  8
0
 10
-124.6114424463628
 20
25.85848750925111
 30
0.0
 11
-124.7123859783011
 21
26.42688454229434
 31
0.0
  0
LINE
  5
100
  8
0
 10
-124.7123859783011
 20
26.42688454229434
 30
0.0
 11
-124.8611269010682
 21
27.21288797766068
 31
0.0
  0
LINE
  5
101
  8
0
 10
-124.8611269010682
 20
27.21288797766068
 30
0.0
 11
-125.1306893084262
 21
28.58206115117482
 31
0.0
  0
LINE
  5
102
  8
0
 10
-123.7173372133444
 20
24.8415736399446
 30
0.0
 11
-123.539162538897
 21
24.85962708137408
 31
0.0
  0
LINE
  5
103
  8
0
 10
-123.8904940814333
 20
24.79586980645618
 30
0.0
 11
-123.7173372133444
 21
24.8415736399446
 31
0.0
  0
LINE
  5
104
  8
0
 10
-125.1306893084262
 20
28.58206115117482
 30
0.0
 11
-125.6261847846708
 21
31.0399220001831
 31
0.0
  0
LINE
  5
105
  8
0
 10
-123.539162538897
 20
24.85962708137408
 30
0.0
 11
-123.3603573099038
 21
24.84958559510068
 31
0.0
  0
LINE
  5
106
  8
0
 10
-123.1853243045232
 20
24.81169643584221
 30
0.0
 11
-123.0183734162487
 21
24.74689256044661
 31
0.0
  0
LINE
  5
107
  8
0
 10
-123.3603573099038
 20
24.84958559510068
 30
0.0
 11
-123.1853243045232
 21
24.81169643584221
 31
0.0
  0
LINE
  5
108
  8
0
 10
-122.8636155300282
 20
24.65676965539777
 30
0.0
 11
-122.7248612986322
 21
24.54354684571882
 31
0.0
  0
LINE
  5
109
  8
0
 10
-123.0183734162487
 20
24.74689256044661
 30
0.0
 11
-122.8636155300282
 21
24.65676965539777
 31
0.0
  0
LINE
  5
10A
  8
0
 10
-122.7248612986322
 20
24.54354684571882
 30
0.0
 11
-122.6055273117366
 21
24.410012052749
 31
0.0
  0
LINE
  5
10B
  8
0
 10
-122.6055273117366
 20
24.410012052749
 30
0.0
 11
-122.5085519681456
 21
24.25945334626776
 31
0.0
  0
LINE
  5
10C
  8
0
 10
-122.5085519681456
 20
24.25945334626776
 30
0.0
 11
-122.436323122661
 21
24.09557798130445
 31
0.0
  0
LINE
  5
10D
  8
0
 10
-122.3906192891727
 20
23.92242111321555
 30
0.0
 11
-122.3725658477431
 21
23.74424643876812
 31
0.0
  0
LINE
  5
10E
  8
0
 10
-122.436323122661
 20
24.09557798130445
 30
0.0
 11
-122.3906192891727
 21
23.92242111321555
 31
0.0
  0
LINE
  5
10F
  8
0
 10
-122.3725658477431
 20
23.74424643876812
 30
0.0
 11
-122.3826073340167
 21
23.56544120977487
 31
0.0
  0
LINE
  5
110
  8
0
 10
-122.420496493275
 20
23.39040820439422
 30
0.0
 11
-122.4853003686707
 21
23.22345731611987
 31
0.0
  0
LINE
  5
111
  8
0
 10
-122.3826073340167
 20
23.56544120977487
 30
0.0
 11
-122.420496493275
 21
23.39040820439422
 31
0.0
  0
LINE
  5
112
  8
0
 10
-122.5754232737195
 20
23.0686994298993
 30
0.0
 11
-122.6886460833984
 21
22.92994519850327
 31
0.0
  0
LINE
  5
113
  8
0
 10
-122.4853003686707
 20
23.22345731611987
 30
0.0
 11
-122.5754232737195
 21
23.0686994298993
 31
0.0
  0
LINE
  5
114
  8
0
 10
-122.6886460833984
 20
22.92994519850327
 30
0.0
 11
-122.8221808763683
 21
22.81061121160768
 31
0.0
  0
LINE
  5
115
  8
0
 10
-122.9727395828495
 20
22.71363586801666
 30
0.0
 11
-123.1366149478128
 21
22.64140702253214
 31
0.0
  0
LINE
  5
116
  8
0
 10
-118.8302196374046
 20
17.70775042453545
 30
0.0
 11
-120.32425870239
 21
16.79817656414975
 31
0.0
  0
LINE
  5
117
  8
0
 10
-122.8221808763683
 20
22.81061121160768
 30
0.0
 11
-122.9727395828495
 21
22.71363586801666
 31
0.0
  0
LINE
  5
118
  8
0
 10
-120.32425870239
 20
16.79817656414975
 30
0.0
 11
-121.9863452844904
 21
16.25324947838391
 31
0.0
  0
LINE
  5
119
  8
0
 10
-123.1366149478128
 20
22.64140702253214
 30
0.0
 11
-123.3097718159017
 21
22.59570318904376
 31
0.0
  0
LINE
  5
11A
  8
0
 10
-123.3097718159017
 20
22.59570318904376
 30
0.0
 11
-123.4879464903492
 21
22.57764974761428
 31
0.0
  0
LINE
  5
11B
  8
0
 10
-121.9863452844904
 20
16.25324947838391
 30
0.0
 11
-123.7289022068628
 21
16.10168197694988
 31
0.0
  0
LINE
  5
11C
  8
0
 10
-123.7289022068628
 20
16.10168197694988
 30
0.0
 11
-125.4601122216018
 21
16.35146031881859
 31
0.0
  0
LINE
  5
11D
  8
0
 10
-123.4879464903492
 20
22.57764974761428
 30
0.0
 11
-123.6667517193424
 21
22.58769123388768
 31
0.0
  0
LINE
  5
11E
  8
0
 10
-123.841784724723
 20
22.62558039314613
 30
0.0
 11
-124.0087356129973
 21
22.69038426854171
 31
0.0
  0
LINE
  5
11F
  8
0
 10
-125.4601122216018
 20
16.35146031881859
 30
0.0
 11
-127.088755961891
 21
16.98942340741842
 31
0.0
  0
LINE
  5
120
  8
0
 10
-123.6667517193424
 20
22.58769123388768
 30
0.0
 11
-123.841784724723
 21
22.62558039314613
 31
0.0
  0
LINE
  5
121
  8
0
 10
-124.1634934992179
 20
22.78050717359057
 30
0.0
 11
-124.302247730614
 21
22.8937299832695
 31
0.0
  0
LINE
  5
122
  8
0
 10
-127.088755961891
 20
16.98942340741842
 30
0.0
 11
-128.5290183911414
 21
17.98195626334267
 31
0.0
  0
LINE
  5
123
  8
0
 10
-124.0087356129973
 20
22.69038426854171
 30
0.0
 11
-124.1634934992179
 21
22.78050717359057
 31
0.0
  0
LINE
  5
124
  8
0
 10
-128.5290183911414
 20
17.98195626334267
 30
0.0
 11
-129.7050104920026
 21
19.27676123472301
 31
0.0
  0
LINE
  5
125
  8
0
 10
-124.302247730614
 20
22.8937299832695
 30
0.0
 11
-124.4215817175096
 21
23.02726477623935
 31
0.0
  0
LINE
  5
126
  8
0
 10
-130.5547679424639
 20
20.80561361823964
 30
0.0
 11
-129.3563009925433
 21
21.41969542417937
 31
0.0
  0
LINE
  5
127
  8
0
 10
-129.3563009925433
 20
21.41969542417937
 30
0.0
 11
-128.3711477527372
 21
21.92645201239063
 31
0.0
  0
LINE
  5
128
  8
0
 10
-128.3711477527372
 20
21.92645201239063
 30
0.0
 11
-127.5629501611149
 21
22.34469358846706
 31
0.0
  0
LINE
  5
129
  8
0
 10
-124.5185570611006
 20
23.17782348272058
 30
0.0
 11
-124.5907859065851
 21
23.3416988476839
 31
0.0
  0
LINE
  5
12A
  8
0
 10
-124.4215817175096
 20
23.02726477623935
 30
0.0
 11
-124.5185570611006
 21
23.17782348272058
 31
0.0
  0
LINE
  5
12B
  8
0
 10
-127.5629501611149
 20
22.34469358846706
 30
0.0
 11
-126.9018474232634
 21
22.69002025771084
 31
0.0
  0
LINE
  5
12C
  8
0
 10
-124.6364897400735
 20
23.51485571577278
 30
0.0
 11
-124.654543181503
 21
23.69303039022022
 31
0.0
  0
LINE
  5
12D
  8
0
 10
-126.9018474232634
 20
22.69002025771084
 30
0.0
 11
-126.3633494563331
 21
22.97541587796007
 31
0.0
  0
LINE
  5
12E
  8
0
 10
-126.3633494563331
 20
22.97541587796007
 30
0.0
 11
-125.9273898085402
 21
23.21174330887071
 31
0.0
  0
LINE
  5
12F
  8
0
 10
-124.5907859065851
 20
23.3416988476839
 30
0.0
 11
-124.6364897400735
 21
23.51485571577278
 31
0.0
  0
LINE
  5
130
  8
0
 10
-125.9273898085402
 20
23.21174330887071
 30
0.0
 11
-125.0265883435864
 21
23.75016304534188
 31
0.0
  0
LINE
  5
131
  8
0
 10
-125.0265883435864
 20
23.75016304534188
 30
0.0
 11
-124.7563530464463
 21
23.96770068439972
 31
0.0
  0
LINE
  5
132
  8
0
 10
-124.654543181503
 20
23.69303039022022
 30
0.0
 11
-124.6445016952296
 21
23.87183561921345
 31
0.0
  0
LINE
  5
133
  8
0
 10
-124.7563530464463
 20
23.96770068439972
 30
0.0
 11
-124.6509814148148
 21
24.08522405827321
 31
0.0
  0
LINE
  5
134
  8
0
 10
-124.6445016952296
 20
23.87183561921345
 30
0.0
 11
-124.6066125359711
 21
24.04686862459412
 31
0.0
  0
LINE
  5
135
  8
0
 10
-124.6066125359711
 20
24.04686862459412
 30
0.0
 11
-124.5418086605756
 21
24.21381951286849
 31
0.0
  0
LINE
  5
136
  8
0
 10
-124.6509814148148
 20
24.08522405827321
 30
0.0
 11
-124.5418086605756
 21
24.21381951286849
 31
0.0
  0
LINE
  5
137
  8
0
 10
-113.8051771849142
 20
-59.42833581348935
 30
0.0
 11
-113.6541883043201
 21
-59.49521640254483
 31
0.0
  0
LINE
  5
138
  8
0
 10
-113.6541883043201
 20
-59.49521640254483
 30
0.0
 11
-113.511904070183
 21
-59.55469229643627
 31
0.0
  0
LINE
  5
139
  8
0
 10
-113.511904070183
 20
-59.55469229643627
 30
0.0
 11
-113.1841901612425
 21
-59.6329316025328
 31
0.0
  0
LINE
  5
13A
  8
0
 10
-113.1841901612425
 20
-59.6329316025328
 30
0.0
 11
-112.1862494739203
 21
-59.72642095069754
 31
0.0
  0
LINE
  5
13B
  8
0
 10
-112.1862494739203
 20
-59.72642095069754
 30
0.0
 11
-111.6096412922013
 21
-59.75448852250746
 31
0.0
  0
LINE
  5
13C
  8
0
 10
-111.6096412922013
 20
-59.75448852250746
 30
0.0
 11
-110.8102466349402
 21
-59.7843790637488
 31
0.0
  0
LINE
  5
13D
  8
0
 10
-110.8102466349402
 20
-59.7843790637488
 30
0.0
 11
-109.4154182128259
 21
-59.82624484205881
 31
0.0
  0
LINE
  5
13E
  8
0
 10
-106.9089229507238
 20
-59.89009796356407
 30
0.0
 11
-115.7899229268033
 21
-52.80773681597536
 31
0.0
  0
LINE
  5
13F
  8
0
 10
-83.12171446871908
 20
57.30788664480732
 30
0.0
 11
-83.01483085192748
 21
57.45158088207327
 31
0.0
  0
LINE
  5
140
  8
0
 10
-84.05667670227784
 20
58.27185970180033
 30
0.0
 11
-83.07408267462449
 21
57.90328397185534
 31
0.0
  0
LINE
  5
141
  8
0
 10
-83.07408267462449
 20
57.90328397185534
 30
0.0
 11
-82.73551594791815
 21
57.82763800835011
 31
0.0
  0
LINE
  5
142
  8
0
 10
-82.8867844186857
 20
57.57678572341721
 30
0.0
 11
-82.74072809714197
 21
57.68041821011414
 31
0.0
  0
LINE
  5
143
  8
0
 10
-82.73551594791815
 20
57.82763800835011
 30
0.0
 11
-82.57793433657051
 21
57.81852977447171
 31
0.0
  0
LINE
  5
144
  8
0
 10
-82.74072809714197
 20
57.68041821011414
 30
0.0
 11
-82.58025827866565
 21
57.75992656640515
 31
0.0
  0
LINE
  5
145
  8
0
 10
-82.58025827866565
 20
57.75992656640515
 30
0.0
 11
-82.40932626275664
 21
57.81335303268526
 31
0.0
  0
LINE
  5
146
  8
0
 10
-82.57793433657051
 20
57.81852977447171
 30
0.0
 11
-82.40932626275664
 21
57.81335303268526
 31
0.0
  0
LINE
  5
147
  8
0
 10
-82.40932626275664
 20
57.81335303268526
 30
0.0
 11
-82.23214096293738
 21
57.83938207204237
 31
0.0
  0
LINE
  5
148
  8
0
 10
-83.01483085192748
 20
57.45158088207327
 30
0.0
 11
-82.8867844186857
 21
57.57678572341721
 31
0.0
  0
LINE
  5
149
  8
0
 10
-83.20480343968875
 20
57.14924124063467
 30
0.0
 11
-83.12171446871908
 21
57.30788664480732
 31
0.0
  0
LINE
  5
14A
  8
0
 10
-83.26205183861464
 20
56.97955104591997
 30
0.0
 11
-83.20480343968875
 21
57.14924124063467
 31
0.0
  0
LINE
  5
14B
  8
0
 10
-83.29205001991872
 20
56.80299439642657
 30
0.0
 11
-83.26205183861464
 21
56.97955104591997
 31
0.0
  0
LINE
  5
14C
  8
0
 10
-83.29405932881907
 20
56.62391870282291
 30
0.0
 11
-83.29205001991872
 21
56.80299439642657
 31
0.0
  0
LINE
  5
14D
  8
0
 10
-83.26803028946199
 20
56.44673340300362
 30
0.0
 11
-83.29405932881907
 21
56.62391870282291
 31
0.0
  0
LINE
  5
14E
  8
0
 10
-83.21460382318189
 20
56.27580138709459
 30
0.0
 11
-83.26803028946199
 21
56.44673340300362
 31
0.0
  0
LINE
  5
14F
  8
0
 10
-83.13509546689085
 20
56.11533156861841
 30
0.0
 11
-83.21460382318189
 21
56.27580138709459
 31
0.0
  0
LINE
  5
150
  8
0
 10
-83.03146298019391
 20
55.96927524707461
 30
0.0
 11
-83.13509546689085
 21
56.11533156861841
 31
0.0
  0
LINE
  5
151
  8
0
 10
-82.90625813884992
 20
55.84122881383286
 30
0.0
 11
-83.03146298019391
 21
55.96927524707461
 31
0.0
  0
LINE
  5
152
  8
0
 10
-82.76256390158399
 20
55.73434519704125
 30
0.0
 11
-82.90625813884992
 21
55.84122881383286
 31
0.0
  0
LINE
  5
153
  8
0
 10
-82.60391849741141
 20
55.65125622607161
 30
0.0
 11
-82.76256390158399
 21
55.73434519704125
 31
0.0
  0
LINE
  5
154
  8
0
 10
-82.43422830269671
 20
55.59400782714567
 30
0.0
 11
-82.60391849741141
 21
55.65125622607161
 31
0.0
  0
LINE
  5
155
  8
0
 10
-82.25767165320325
 20
55.56400964584157
 30
0.0
 11
-82.43422830269671
 21
55.59400782714567
 31
0.0
  0
LINE
  5
156
  8
0
 10
-82.07859595959961
 20
55.56200033694123
 30
0.0
 11
-82.25767165320325
 21
55.56400964584157
 31
0.0
  0
LINE
  5
157
  8
0
 10
-81.90141065978034
 20
55.58802937629829
 30
0.0
 11
-82.07859595959961
 21
55.56200033694123
 31
0.0
  0
LINE
  5
158
  8
0
 10
-81.73047864387134
 20
55.64145584257841
 30
0.0
 11
-81.90141065978034
 21
55.58802937629829
 31
0.0
  0
LINE
  5
159
  8
0
 10
-81.5700088253951
 20
55.72096419886946
 30
0.0
 11
-81.73047864387134
 21
55.64145584257841
 31
0.0
  0
LINE
  5
15A
  8
0
 10
-81.42395250385127
 20
55.82459668556642
 30
0.0
 11
-81.5700088253951
 21
55.72096419886946
 31
0.0
  0
LINE
  5
15B
  8
0
 10
-81.29590607060955
 20
55.94980152691033
 30
0.0
 11
-81.42395250385127
 21
55.82459668556642
 31
0.0
  0
LINE
  5
15C
  8
0
 10
-81.189022453818
 20
56.09349576417629
 30
0.0
 11
-81.29590607060955
 21
55.94980152691033
 31
0.0
  0
LINE
  5
15D
  8
0
 10
-81.10593348284833
 20
56.25214116834896
 30
0.0
 11
-81.189022453818
 21
56.09349576417629
 31
0.0
  0
LINE
  5
15E
  8
0
 10
-81.0486850839224
 20
56.42183136306364
 30
0.0
 11
-81.10593348284833
 21
56.25214116834896
 31
0.0
  0
LINE
  5
15F
  8
0
 10
-81.01868690261826
 20
56.59838801255706
 30
0.0
 11
-81.0486850839224
 21
56.42183136306364
 31
0.0
  0
LINE
  5
160
  8
0
 10
-81.01667759371792
 20
56.77746370616072
 30
0.0
 11
-81.01868690261826
 21
56.59838801255706
 31
0.0
  0
LINE
  5
161
  8
0
 10
-81.04270663307504
 20
56.95464900597998
 30
0.0
 11
-81.01667759371792
 21
56.77746370616072
 31
0.0
  0
LINE
  5
162
  8
0
 10
-81.09613309935509
 20
57.12558102188897
 30
0.0
 11
-81.04270663307504
 21
56.95464900597998
 31
0.0
  0
LINE
  5
163
  8
0
 10
-81.17564145564614
 20
57.2860508403652
 30
0.0
 11
-81.09613309935509
 21
57.12558102188897
 31
0.0
  0
LINE
  5
164
  8
0
 10
-81.27927394234317
 20
57.43210716190901
 30
0.0
 11
-81.17564145564614
 21
57.2860508403652
 31
0.0
  0
LINE
  5
165
  8
0
 10
-81.40447878368705
 20
57.56015359515076
 30
0.0
 11
-81.27927394234317
 21
57.43210716190901
 31
0.0
  0
LINE
  5
166
  8
0
 10
-81.54817302095303
 20
57.66703721194238
 30
0.0
 11
-81.40447878368705
 21
57.56015359515076
 31
0.0
  0
LINE
  5
167
  8
0
 10
-81.70681842512566
 20
57.75012618291202
 30
0.0
 11
-81.54817302095303
 21
57.66703721194238
 31
0.0
  0
LINE
  5
168
  8
0
 10
-81.87650861984031
 20
57.80737458183789
 30
0.0
 11
-81.70681842512566
 21
57.75012618291202
 31
0.0
  0
LINE
  5
169
  8
0
 10
-82.05306526933383
 20
57.83737276314206
 30
0.0
 11
-81.87650861984031
 21
57.80737458183789
 31
0.0
  0
LINE
  5
16A
  8
0
 10
-82.23214096293738
 20
57.83938207204237
 30
0.0
 11
-82.05306526933383
 21
57.83737276314206
 31
0.0
  0
LINE
  5
16B
  8
0
 10
-140.873617926606
 20
-2.102836257956124
 30
0.0
 11
-141.0227054721043
 21
-2.416081599508937
 31
0.0
  0
LINE
  5
16C
  8
0
 10
-141.0227054721043
 20
-2.416081599508937
 30
0.0
 11
-141.0666505508746
 21
-2.567685538149028
 31
0.0
  0
LINE
  5
16D
  8
0
 10
-141.0666505508746
 20
-2.567685538149028
 30
0.0
 11
-141.0839066413262
 21
-2.730914322112199
 31
0.0
  0
LINE
  5
16E
  8
0
 10
-141.0839066413262
 20
-2.730914322112199
 30
0.0
 11
-141.067365649839
 21
-2.890661547681626
 31
0.0
  0
LINE
  5
16F
  8
0
 10
-141.067365649839
 20
-2.890661547681626
 30
0.0
 11
-141.0251530071815
 21
-3.038986454686631
 31
0.0
  0
LINE
  5
170
  8
0
 10
-141.0251530071815
 20
-3.038986454686631
 30
0.0
 11
-140.8819966797025
 21
-3.343984915394657
 31
0.0
  0
LINE
  5
171
  8
0
 10
-140.8819966797025
 20
-3.343984915394657
 30
0.0
 11
-140.3328837539678
 21
-4.182496017542095
 31
0.0
  0
LINE
  5
172
  8
0
 10
-140.3328837539678
 20
-4.182496017542095
 30
0.0
 11
-139.9953185442752
 21
-4.650806291844997
 31
0.0
  0
LINE
  5
173
  8
0
 10
-139.9953185442752
 20
-4.650806291844997
 30
0.0
 11
-139.5202734939831
 21
-5.294434649444479
 31
0.0
  0
LINE
  5
174
  8
0
 10
-139.5202734939831
 20
-5.294434649444479
 30
0.0
 11
-138.6833441809729
 21
-6.411058308317867
 31
0.0
  0
LINE
  5
175
  8
0
 10
-138.6833441809729
 20
-6.411058308317867
 30
0.0
 11
-137.1704923272916
 21
-8.410526984961637
 31
0.0
  0
LINE
  5
176
  8
0
 10
-137.1704923272916
 20
-8.410526984961637
 30
0.0
 11
-137.1704923272916
 21
2.94869834073726
 31
0.0
  0
LINE
  5
177
  8
0
 10
-137.1704923272916
 20
2.94869834073726
 30
0.0
 11
-137.983833628295
 21
1.875434429799849
 31
0.0
  0
LINE
  5
178
  8
0
 10
-137.983833628295
 20
1.875434429799849
 30
0.0
 11
-138.6515525841578
 21
0.9914205489262651
 31
0.0
  0
LINE
  5
179
  8
0
 10
-138.6515525841578
 20
0.9914205489262651
 30
0.0
 11
-139.1982452344407
 21
0.2639341166200755
 31
0.0
  0
LINE
  5
17A
  8
0
 10
-139.1982452344407
 20
0.2639341166200755
 30
0.0
 11
-139.6440465932616
 21
-0.3340361894649157
 31
0.0
  0
LINE
  5
17B
  8
0
 10
-139.6440465932616
 20
-0.3340361894649157
 30
0.0
 11
-140.005387978053
 21
-0.8248142697440533
 31
0.0
  0
LINE
  5
17C
  8
0
 10
-140.005387978053
 20
-0.8248142697440533
 30
0.0
 11
-140.2956354189965
 21
-1.226893729714668
 31
0.0
  0
LINE
  5
17D
  8
0
 10
-140.2956354189965
 20
-1.226893729714668
 30
0.0
 11
-140.873617926606
 21
-2.102836257956124
 31
0.0
  0
LINE
  5
17E
  8
0
 10
-137.1704923272916
 20
-8.410526984961637
 30
0.0
 11
-138.5994415241444
 21
-9.419279446179372
 31
0.0
  0
LINE
  5
17F
  8
0
 10
-138.5994415241444
 20
-9.419279446179372
 30
0.0
 11
-140.2207686183301
 21
-10.07561456550397
 31
0.0
  0
LINE
  5
180
  8
0
 10
-140.2207686183301
 20
-10.07561456550397
 30
0.0
 11
-141.9490440954196
 21
-10.3449493209483
 31
0.0
  0
LINE
  5
181
  8
0
 10
-141.9490440954196
 20
-10.3449493209483
 30
0.0
 11
-143.6932032126251
 21
-10.21309216692051
 31
0.0
  0
LINE
  5
182
  8
0
 10
-143.6932032126251
 20
-10.21309216692051
 30
0.0
 11
-145.3613443006263
 21
-9.686990802427806
 31
0.0
  0
LINE
  5
183
  8
0
 10
-145.3613443006263
 20
-9.686990802427806
 30
0.0
 11
-146.8655711639808
 21
-8.79436608914583
 31
0.0
  0
LINE
  5
184
  8
0
 10
-146.8655711639808
 20
-8.79436608914583
 30
0.0
 11
-148.126624428693
 21
-7.582251408615222
 31
0.0
  0
LINE
  5
185
  8
0
 10
-148.126624428693
 20
-7.582251408615222
 30
0.0
 11
-149.0780578061271
 21
-6.114514421446353
 31
0.0
  0
LINE
  5
186
  8
0
 10
-149.0780578061271
 20
-6.114514421446353
 30
0.0
 11
-149.6697392213075
 21
-4.468491809776202
 31
0.0
  0
LINE
  5
187
  8
0
 10
-149.6697392213075
 20
-4.468491809776202
 30
0.0
 11
-149.8704923272917
 21
-2.730914322112177
 31
0.0
  0
LINE
  5
188
  8
0
 10
-149.8704923272917
 20
-2.730914322112177
 30
0.0
 11
-149.6697392213074
 21
-0.9933368344481187
 31
0.0
  0
LINE
  5
189
  8
0
 10
-149.6697392213074
 20
-0.9933368344481187
 30
0.0
 11
-149.0780578061271
 21
0.6526857772220103
 31
0.0
  0
LINE
  5
18A
  8
0
 10
-149.0780578061271
 20
0.6526857772220103
 30
0.0
 11
-148.126624428693
 21
2.12042276439088
 31
0.0
  0
LINE
  5
18B
  8
0
 10
-148.126624428693
 20
2.12042276439088
 30
0.0
 11
-146.8655711639808
 21
3.332537444921487
 31
0.0
  0
LINE
  5
18C
  8
0
 10
-146.8655711639808
 20
3.332537444921487
 30
0.0
 11
-145.3613443006263
 21
4.225162158203451
 31
0.0
  0
LINE
  5
18D
  8
0
 10
-145.3613443006263
 20
4.225162158203451
 30
0.0
 11
-143.693203212625
 21
4.751263522696159
 31
0.0
  0
LINE
  5
18E
  8
0
 10
-143.693203212625
 20
4.751263522696159
 30
0.0
 11
-141.9490440954196
 21
4.883120676723941
 31
0.0
  0
LINE
  5
18F
  8
0
 10
-141.9490440954196
 20
4.883120676723941
 30
0.0
 11
-140.2207686183301
 21
4.613785921279589
 31
0.0
  0
LINE
  5
190
  8
0
 10
-140.2207686183301
 20
4.613785921279589
 30
0.0
 11
-138.5994415241444
 21
3.957450801954995
 31
0.0
  0
LINE
  5
191
  8
0
 10
-138.5994415241444
 20
3.957450801954995
 30
0.0
 11
-137.1704923272916
 21
2.94869834073726
 31
0.0
  0
LINE
  5
192
  8
0
 10
-141.0839066413262
 20
-2.730914322112199
 30
0.0
 11
-141.1232673283966
 21
-2.909449222682019
 31
0.0
  0
LINE
  5
193
  8
0
 10
-141.1232673283966
 20
-2.909449222682019
 30
0.0
 11
-141.1650743503172
 21
-3.083588001476441
 31
0.0
  0
LINE
  5
194
  8
0
 10
-141.1650743503172
 20
-3.083588001476441
 30
0.0
 11
-141.2336079651268
 21
-3.249042783828087
 31
0.0
  0
LINE
  5
195
  8
0
 10
-141.3271806477785
 20
-3.401739523882526
 30
0.0
 11
-141.4434883282756
 21
-3.537918321128166
 31
0.0
  0
LINE
  5
196
  8
0
 10
-141.2336079651268
 20
-3.249042783828087
 30
0.0
 11
-141.3271806477785
 21
-3.401739523882526
 31
0.0
  0
LINE
  5
197
  8
0
 10
-141.5796671255213
 20
-3.654226001625319
 30
0.0
 11
-141.7323638655758
 21
-3.747798684277065
 31
0.0
  0
LINE
  5
198
  8
0
 10
-141.4434883282756
 20
-3.537918321128166
 30
0.0
 11
-141.5796671255213
 21
-3.654226001625319
 31
0.0
  0
LINE
  5
199
  8
0
 10
-141.7323638655758
 20
-3.747798684277065
 30
0.0
 11
-141.8978186479274
 21
-3.816332299086592
 31
0.0
  0
LINE
  5
19A
  8
0
 10
-142.0719574267218
 20
-3.858139321007291
 30
0.0
 11
-142.2504923272917
 21
-3.872190322409902
 31
0.0
  0
LINE
  5
19B
  8
0
 10
-141.8978186479274
 20
-3.816332299086592
 30
0.0
 11
-142.0719574267218
 21
-3.858139321007291
 31
0.0
  0
LINE
  5
19C
  8
0
 10
-142.4290272278615
 20
-3.858139321007291
 30
0.0
 11
-142.603166006656
 21
-3.816332299086592
 31
0.0
  0
LINE
  5
19D
  8
0
 10
-142.2504923272917
 20
-3.872190322409902
 30
0.0
 11
-142.4290272278615
 21
-3.858139321007291
 31
0.0
  0
LINE
  5
19E
  8
0
 10
-142.603166006656
 20
-3.816332299086592
 30
0.0
 11
-142.7686207890075
 21
-3.747798684277065
 31
0.0
  0
LINE
  5
19F
  8
0
 10
-142.7686207890075
 20
-3.747798684277065
 30
0.0
 11
-142.921317529062
 21
-3.654226001625308
 31
0.0
  0
LINE
  5
1A0
  8
0
 10
-142.921317529062
 20
-3.654226001625308
 30
0.0
 11
-143.0574963263077
 21
-3.537918321128166
 31
0.0
  0
LINE
  5
1A1
  8
0
 10
-143.1738040068048
 20
-3.401739523882526
 30
0.0
 11
-143.2673766894565
 21
-3.249042783828087
 31
0.0
  0
LINE
  5
1A2
  8
0
 10
-143.0574963263077
 20
-3.537918321128166
 30
0.0
 11
-143.1738040068048
 21
-3.401739523882526
 31
0.0
  0
LINE
  5
1A3
  8
0
 10
-143.2673766894565
 20
-3.249042783828087
 30
0.0
 11
-143.335910304266
 21
-3.083588001476429
 31
0.0
  0
LINE
  5
1A4
  8
0
 10
-143.3777173261868
 20
-2.909449222682008
 30
0.0
 11
-143.3917683275894
 21
-2.730914322112177
 31
0.0
  0
LINE
  5
1A5
  8
0
 10
-143.335910304266
 20
-3.083588001476429
 30
0.0
 11
-143.3777173261868
 21
-2.909449222682008
 31
0.0
  0
LINE
  5
1A6
  8
0
 10
-143.3777173261868
 20
-2.552379421542346
 30
0.0
 11
-143.335910304266
 21
-2.378240642747902
 31
0.0
  0
LINE
  5
1A7
  8
0
 10
-143.3917683275894
 20
-2.730914322112177
 30
0.0
 11
-143.3777173261868
 21
-2.552379421542346
 31
0.0
  0
LINE
  5
1A8
  8
0
 10
-143.335910304266
 20
-2.378240642747902
 30
0.0
 11
-143.2673766894565
 21
-2.212785860396256
 31
0.0
  0
LINE
  5
1A9
  8
0
 10
-143.1738040068048
 20
-2.060089120341839
 30
0.0
 11
-143.0574963263077
 21
-1.923910323096199
 31
0.0
  0
LINE
  5
1AA
  8
0
 10
-143.2673766894565
 20
-2.212785860396256
 30
0.0
 11
-143.1738040068048
 21
-2.060089120341839
 31
0.0
  0
LINE
  5
1AB
  8
0
 10
-143.0574963263077
 20
-1.923910323096199
 30
0.0
 11
-142.921317529062
 21
-1.807602642599046
 31
0.0
  0
LINE
  5
1AC
  8
0
 10
-142.921317529062
 20
-1.807602642599046
 30
0.0
 11
-142.7686207890075
 21
-1.7140299599473
 31
0.0
  0
LINE
  5
1AD
  8
0
 10
-142.7686207890075
 20
-1.7140299599473
 30
0.0
 11
-142.603166006656
 21
-1.645496345137751
 31
0.0
  0
LINE
  5
1AE
  8
0
 10
-142.4290272278615
 20
-1.603689323217052
 30
0.0
 11
-142.2504923272917
 21
-1.589638321814441
 31
0.0
  0
LINE
  5
1AF
  8
0
 10
-142.603166006656
 20
-1.645496345137751
 30
0.0
 11
-142.4290272278615
 21
-1.603689323217052
 31
0.0
  0
LINE
  5
1B0
  8
0
 10
-142.0719574267218
 20
-1.603689323217052
 30
0.0
 11
-141.8978186479274
 21
-1.645496345137751
 31
0.0
  0
LINE
  5
1B1
  8
0
 10
-142.2504923272917
 20
-1.589638321814441
 30
0.0
 11
-142.0719574267218
 21
-1.603689323217052
 31
0.0
  0
LINE
  5
1B2
  8
0
 10
-141.8978186479274
 20
-1.645496345137751
 30
0.0
 11
-141.7323638655758
 21
-1.7140299599473
 31
0.0
  0
LINE
  5
1B3
  8
0
 10
-141.5796671255213
 20
-1.807602642599057
 30
0.0
 11
-141.4434883282756
 21
-1.923910323096199
 31
0.0
  0
LINE
  5
1B4
  8
0
 10
-141.7323638655758
 20
-1.7140299599473
 30
0.0
 11
-141.5796671255213
 21
-1.807602642599057
 31
0.0
  0
LINE
  5
1B5
  8
0
 10
-141.3271806477785
 20
-2.060089120341839
 30
0.0
 11
-141.2336079651268
 21
-2.212785860396256
 31
0.0
  0
LINE
  5
1B6
  8
0
 10
-141.4434883282756
 20
-1.923910323096199
 30
0.0
 11
-141.3271806477785
 21
-2.060089120341839
 31
0.0
  0
LINE
  5
1B7
  8
0
 10
-141.2336079651268
 20
-2.212785860396256
 30
0.0
 11
-141.1650743503172
 21
-2.378240642747914
 31
0.0
  0
LINE
  5
1B8
  8
0
 10
-141.1650743503172
 20
-2.378240642747914
 30
0.0
 11
-141.1232673283966
 21
-2.552379421542357
 31
0.0
  0
LINE
  5
1B9
  8
0
 10
-141.1232673283966
 20
-2.552379421542357
 30
0.0
 11
-141.0839066413262
 21
-2.730914322112199
 31
0.0
  0
LINE
  5
1BA
  8
0
 10
-124.5418086605756
 20
24.21381951286849
 30
0.0
 11
-124.510203094249
 21
24.37590511812887
 31
0.0
  0
LINE
  5
1BB
  8
0
 10
-107.5089212195032
 20
57.85123647956912
 30
0.0
 11
-107.0111837701385
 21
56.17441366045581
 31
0.0
  0
LINE
  5
1BC
  8
0
 10
-113.4482487437029
 20
55.25980833031578
 30
0.0
 11
-113.3986711119033
 21
55.08772056263012
 31
0.0
  0
LINE
  5
1BD
  8
0
 10
-106.9089229507238
 20
54.42826931933967
 30
0.0
 11
-108.2551444718975
 21
54.39499605128308
 31
0.0
  0
LINE
  5
1BE
  8
0
 10
-108.2551444718975
 20
54.39499605128308
 30
0.0
 11
-109.3626103143915
 21
54.3658661129911
 31
0.0
  0
LINE
  5
1BF
  8
0
 10
-109.3626103143915
 20
54.3658661129911
 30
0.0
 11
-110.2722394024393
 21
54.33970726668264
 31
0.0
  0
LINE
  5
1C0
  8
0
 10
-113.3766243208985
 20
54.90999583061939
 30
0.0
 11
-113.382651235852
 21
54.73101030702033
 31
0.0
  0
LINE
  5
1C1
  8
0
 10
-107.0111837701385
 20
56.17441366045581
 30
0.0
 11
-106.9089229507238
 21
54.42826931933967
 31
0.0
  0
LINE
  5
1C2
  8
0
 10
-113.3986711119033
 20
55.08772056263012
 30
0.0
 11
-113.3766243208985
 21
54.90999583061939
 31
0.0
  0
LINE
  5
1C3
  8
0
 10
-110.2722394024393
 20
54.33970726668264
 30
0.0
 11
-111.0177040141972
 21
54.31542041627751
 31
0.0
  0
LINE
  5
1C4
  8
0
 10
-113.4166034541154
 20
54.55517120944276
 30
0.0
 11
-113.4776449593943
 21
54.38680828004561
 31
0.0
  0
LINE
  5
1C5
  8
0
 10
-111.0177040141972
 20
54.31542041627751
 30
0.0
 11
-111.6267024366716
 21
54.29193335879618
 31
0.0
  0
LINE
  5
1C6
  8
0
 10
-111.6267024366716
 20
54.29193335879618
 30
0.0
 11
-112.1220271363743
 21
54.26816550300308
 31
0.0
  0
LINE
  5
1C7
  8
0
 10
-113.382651235852
 20
54.73101030702033
 30
0.0
 11
-113.4166034541154
 21
54.55517120944276
 31
0.0
  0
LINE
  5
1C8
  8
0
 10
-112.1220271363743
 20
54.26816550300308
 30
0.0
 11
-113.1672327809333
 21
54.17390919039506
 31
0.0
  0
LINE
  5
1C9
  8
0
 10
-113.1672327809333
 20
54.17390919039506
 30
0.0
 11
-113.505092414898
 21
54.09516525117163
 31
0.0
  0
LINE
  5
1CA
  8
0
 10
-113.4776449593943
 20
54.38680828004561
 30
0.0
 11
-113.5642727072434
 21
54.23006717291517
 31
0.0
  0
LINE
  5
1CB
  8
0
 10
-113.505092414898
 20
54.09516525117163
 30
0.0
 11
-113.6510204554481
 21
54.03499938758998
 31
0.0
  0
LINE
  5
1CC
  8
0
 10
-113.5642727072434
 20
54.23006717291517
 30
0.0
 11
-113.6743536350098
 21
54.08880737430286
 31
0.0
  0
LINE
  5
1CD
  8
0
 10
-113.6743536350098
 20
54.08880737430286
 30
0.0
 11
-113.8051771849142
 21
53.96650716926496
 31
0.0
  0
LINE
  5
1CE
  8
0
 10
-113.6510204554481
 20
54.03499938758998
 30
0.0
 11
-113.8051771849142
 21
53.96650716926496
 31
0.0
  0
LINE
  5
1CF
  8
0
 10
-113.8051771849142
 20
53.96650716926496
 30
0.0
 11
-113.9535220469793
 21
53.86617799474057
 31
0.0
  0
LINE
  5
1D0
  8
0
 10
-113.5241364504635
 20
55.42202176170946
 30
0.0
 11
-113.4482487437029
 21
55.25980833031578
 31
0.0
  0
LINE
  5
1D1
  8
0
 10
-113.624465624988
 20
55.5703666237747
 30
0.0
 11
-113.5241364504635
 21
55.42202176170946
 31
0.0
  0
LINE
  5
1D2
  8
0
 10
-113.7467658300258
 20
55.70119017367903
 30
0.0
 11
-113.624465624988
 21
55.5703666237747
 31
0.0
  0
LINE
  5
1D3
  8
0
 10
-113.8880256286382
 20
55.81127110144541
 30
0.0
 11
-113.7467658300258
 21
55.70119017367903
 31
0.0
  0
LINE
  5
1D4
  8
0
 10
-114.0447667357686
 20
55.89789884929461
 30
0.0
 11
-113.8880256286382
 21
55.81127110144541
 31
0.0
  0
LINE
  5
1D5
  8
0
 10
-114.2131296651657
 20
55.95894035457346
 30
0.0
 11
-114.0447667357686
 21
55.89789884929461
 31
0.0
  0
LINE
  5
1D6
  8
0
 10
-114.3889687627433
 20
55.99289257283688
 30
0.0
 11
-114.2131296651657
 21
55.95894035457346
 31
0.0
  0
LINE
  5
1D7
  8
0
 10
-114.5679542863423
 20
55.99891948779036
 30
0.0
 11
-114.3889687627433
 21
55.99289257283688
 31
0.0
  0
LINE
  5
1D8
  8
0
 10
-114.7456790183531
 20
55.97687269678543
 30
0.0
 11
-114.5679542863423
 21
55.99891948779036
 31
0.0
  0
LINE
  5
1D9
  8
0
 10
-114.9177667860388
 20
55.92729506498589
 30
0.0
 11
-114.7456790183531
 21
55.97687269678543
 31
0.0
  0
LINE
  5
1DA
  8
0
 10
-115.0799802174324
 20
55.85140735822525
 30
0.0
 11
-114.9177667860388
 21
55.92729506498589
 31
0.0
  0
LINE
  5
1DB
  8
0
 10
-115.2283250794976
 20
55.7510781837009
 30
0.0
 11
-115.0799802174324
 21
55.85140735822525
 31
0.0
  0
LINE
  5
1DC
  8
0
 10
-115.3591486294021
 20
55.62877797866292
 30
0.0
 11
-115.2283250794976
 21
55.7510781837009
 31
0.0
  0
LINE
  5
1DD
  8
0
 10
-115.4692295571684
 20
55.48751818005066
 30
0.0
 11
-115.3591486294021
 21
55.62877797866292
 31
0.0
  0
LINE
  5
1DE
  8
0
 10
-115.5558573050176
 20
55.33077707292017
 30
0.0
 11
-115.4692295571684
 21
55.48751818005066
 31
0.0
  0
LINE
  5
1DF
  8
0
 10
-115.6168988102964
 20
55.16241414352307
 30
0.0
 11
-115.5558573050176
 21
55.33077707292017
 31
0.0
  0
LINE
  5
1E0
  8
0
 10
-115.6508510285599
 20
54.98657504594553
 30
0.0
 11
-115.6168988102964
 21
55.16241414352307
 31
0.0
  0
LINE
  5
1E1
  8
0
 10
-115.6568779435133
 20
54.80758952234644
 30
0.0
 11
-115.6508510285599
 21
54.98657504594553
 31
0.0
  0
LINE
  5
1E2
  8
0
 10
-115.6348311525085
 20
54.62986479033574
 30
0.0
 11
-115.6568779435133
 21
54.80758952234644
 31
0.0
  0
LINE
  5
1E3
  8
0
 10
-115.5852535207089
 20
54.45777702265005
 30
0.0
 11
-115.6348311525085
 21
54.62986479033574
 31
0.0
  0
LINE
  5
1E4
  8
0
 10
-115.5093658139483
 20
54.2955635912564
 30
0.0
 11
-115.5852535207089
 21
54.45777702265005
 31
0.0
  0
LINE
  5
1E5
  8
0
 10
-115.4090366394239
 20
54.14721872919115
 30
0.0
 11
-115.5093658139483
 21
54.2955635912564
 31
0.0
  0
LINE
  5
1E6
  8
0
 10
-115.2867364343859
 20
54.0163951792868
 30
0.0
 11
-115.4090366394239
 21
54.14721872919115
 31
0.0
  0
LINE
  5
1E7
  8
0
 10
-115.1454766357737
 20
53.90631425152042
 30
0.0
 11
-115.2867364343859
 21
54.0163951792868
 31
0.0
  0
LINE
  5
1E8
  8
0
 10
-114.9887355286432
 20
53.81968650367125
 30
0.0
 11
-115.1454766357737
 21
53.90631425152042
 31
0.0
  0
LINE
  5
1E9
  8
0
 10
-114.820372599246
 20
53.75864499839239
 30
0.0
 11
-114.9887355286432
 21
53.81968650367125
 31
0.0
  0
LINE
  5
1EA
  8
0
 10
-114.6445335016685
 20
53.72469278012898
 30
0.0
 11
-114.820372599246
 21
53.75864499839239
 31
0.0
  0
LINE
  5
1EB
  8
0
 10
-114.4655479780694
 20
53.71866586517547
 30
0.0
 11
-114.6445335016685
 21
53.72469278012898
 31
0.0
  0
LINE
  5
1EC
  8
0
 10
-114.2878232460588
 20
53.74071265618036
 30
0.0
 11
-114.4655479780694
 21
53.71866586517547
 31
0.0
  0
LINE
  5
1ED
  8
0
 10
-114.1157354783731
 20
53.79029028797994
 30
0.0
 11
-114.2878232460588
 21
53.74071265618036
 31
0.0
  0
LINE
  5
1EE
  8
0
 10
-113.9535220469793
 20
53.86617799474057
 30
0.0
 11
-114.1157354783731
 21
53.79029028797994
 31
0.0
  0
LINE
  5
1EF
  8
0
 10
-82.40932626275664
 20
57.81335303268526
 30
0.0
 11
-82.26289688542265
 21
57.88970152781792
 31
0.0
  0
LINE
  5
1F0
  8
0
 10
-82.26289688542265
 20
57.88970152781792
 30
0.0
 11
-82.12768399018056
 21
57.96386120822745
 31
0.0
  0
LINE
  5
1F1
  8
0
 10
-82.12768399018056
 20
57.96386120822745
 30
0.0
 11
-81.86218775735624
 21
58.17129685002416
 31
0.0
  0
LINE
  5
1F2
  8
0
 10
-81.86218775735624
 20
58.17129685002416
 30
0.0
 11
-81.16688900028028
 21
58.89322864184524
 31
0.0
  0
LINE
  5
1F3
  8
0
 10
-81.16688900028028
 20
58.89322864184524
 30
0.0
 11
-80.78543556803285
 21
59.32653922657532
 31
0.0
  0
LINE
  5
1F4
  8
0
 10
-80.78543556803285
 20
59.32653922657532
 30
0.0
 11
-80.26365178539972
 21
59.93289468890278
 31
0.0
  0
LINE
  5
1F5
  8
0
 10
-80.26365178539972
 20
59.93289468890278
 30
0.0
 11
-79.36125850534789
 21
60.99731257612983
 31
0.0
  0
LINE
  5
1F6
  8
0
 10
-79.36125850534789
 20
60.99731257612983
 30
0.0
 11
-77.74856189037332
 21
62.91715771262289
 31
0.0
  0
LINE
  5
1F7
  8
0
 10
-77.74856189037332
 20
62.91715771262289
 30
0.0
 11
-88.82298772115988
 21
60.38949228412812
 31
0.0
  0
LINE
  5
1F8
  8
0
 10
-88.82298772115988
 20
60.38949228412812
 30
0.0
 11
-87.59564731132505
 21
59.8353668354931
 31
0.0
  0
LINE
  5
1F9
  8
0
 10
-87.59564731132505
 20
59.8353668354931
 30
0.0
 11
-86.5852160584263
 21
59.38110058233179
 31
0.0
  0
LINE
  5
1FA
  8
0
 10
-86.5852160584263
 20
59.38110058233179
 30
0.0
 11
-85.75431867070941
 21
59.00999561854365
 31
0.0
  0
LINE
  5
1FB
  8
0
 10
-85.75431867070941
 20
59.00999561854365
 30
0.0
 11
-85.07214059392736
 21
58.70843234152878
 31
0.0
  0
LINE
  5
1FC
  8
0
 10
-85.07214059392736
 20
58.70843234152878
 30
0.0
 11
-84.51326132235539
 21
58.46535893645821
 31
0.0
  0
LINE
  5
1FD
  8
0
 10
-84.51326132235539
 20
58.46535893645821
 30
0.0
 11
-84.05667670227784
 21
58.27185970180033
 31
0.0
  0
LINE
  5
1FE
  8
0
 10
-77.74856189037332
 20
62.91715771262289
 30
0.0
 11
-76.44712984959023
 21
61.74850379532213
 31
0.0
  0
LINE
  5
1FF
  8
0
 10
-76.44712984959023
 20
61.74850379532213
 30
0.0
 11
-75.44647120276862
 21
60.31387506016436
 31
0.0
  0
LINE
  5
200
  8
0
 10
-75.44647120276862
 20
60.31387506016436
 30
0.0
 11
-74.79931175866957
 21
58.68886367893882
 31
0.0
  0
LINE
  5
201
  8
0
 10
-74.79931175866957
 20
58.68886367893882
 30
0.0
 11
-74.53975106282309
 21
56.95909329522576
 31
0.0
  0
LINE
  5
202
  8
0
 10
-74.53975106282309
 20
56.95909329522576
 30
0.0
 11
-74.68146565483106
 21
55.21570742009335
 31
0.0
  0
LINE
  5
203
  8
0
 10
-74.68146565483106
 20
55.21570742009335
 30
0.0
 11
-75.2169884363971
 21
53.55056697988329
 31
0.0
  0
LINE
  5
204
  8
0
 10
-75.2169884363971
 20
53.55056697988329
 30
0.0
 11
-76.11810212097926
 21
52.05141006259349
 31
0.0
  0
LINE
  5
205
  8
0
 10
-76.11810212097926
 20
52.05141006259349
 30
0.0
 11
-77.33732603376808
 21
50.79722890116457
 31
0.0
  0
LINE
  5
206
  8
0
 10
-77.33732603376808
 20
50.79722890116457
 30
0.0
 11
-78.81041792085718
 21
49.85410768552398
 31
0.0
  0
LINE
  5
207
  8
0
 10
-78.81041792085718
 20
49.85410768552398
 30
0.0
 11
-80.45975894452134
 21
49.27174051366631
 31
0.0
  0
LINE
  5
208
  8
0
 10
-80.45975894452134
 20
49.27174051366631
 30
0.0
 11
-82.19844350546201
 21
49.08081295477103
 31
0.0
  0
LINE
  5
209
  8
0
 10
-82.19844350546201
 20
49.08081295477103
 30
0.0
 11
-83.93485839477218
 21
49.29138519268749
 31
0.0
  0
LINE
  5
20A
  8
0
 10
-83.93485839477218
 20
49.29138519268749
 30
0.0
 11
-85.57750999504874
 21
49.89236194374236
 31
0.0
  0
LINE
  5
20B
  8
0
 10
-85.57750999504874
 20
49.89236194374236
 30
0.0
 11
-87.03984518009572
 21
50.85207707948452
 31
0.0
  0
LINE
  5
20C
  8
0
 10
-87.03984518009572
 20
50.85207707948452
 30
0.0
 11
-88.2448118946935
 21
52.1199621499506
 31
0.0
  0
LINE
  5
20D
  8
0
 10
-88.2448118946935
 20
52.1199621499506
 30
0.0
 11
-89.12891911244724
 21
53.62921089111777
 31
0.0
  0
LINE
  5
20E
  8
0
 10
-89.12891911244724
 20
53.62921089111777
 30
0.0
 11
-89.64558224805879
 21
55.30029932070467
 31
0.0
  0
LINE
  5
20F
  8
0
 10
-89.64558224805879
 20
55.30029932070467
 30
0.0
 11
-89.7675777505512
 21
57.04517594458692
 31
0.0
  0
LINE
  5
210
  8
0
 10
-89.7675777505512
 20
57.04517594458692
 30
0.0
 11
-89.48847754222328
 21
58.77190128722561
 31
0.0
  0
LINE
  5
211
  8
0
 10
-89.48847754222328
 20
58.77190128722561
 30
0.0
 11
-88.82298772115988
 21
60.38949228412812
 31
0.0
  0
LINE
  5
212
  8
0
 10
-38.03919051187459
 20
43.360146975936
 30
0.0
 11
-38.20060607932628
 21
45.1018192613512
 31
0.0
  0
LINE
  5
213
  8
0
 10
-31.71665390233713
 20
44.8017504796763
 30
0.0
 11
-31.72268081729057
 21
44.98073600327539
 31
0.0
  0
LINE
  5
214
  8
0
 10
-31.72268081729057
 20
44.98073600327539
 30
0.0
 11
-31.70063402628568
 21
45.15846073528609
 31
0.0
  0
LINE
  5
215
  8
0
 10
-38.20060607932628
 20
45.1018192613512
 30
0.0
 11
-37.96061807321555
 21
46.8344135855143
 31
0.0
  0
LINE
  5
216
  8
0
 10
-37.96061807321555
 20
46.8344135855143
 30
0.0
 11
-37.3318717265151
 21
48.46663764081734
 31
0.0
  0
LINE
  5
217
  8
0
 10
-31.70063402628568
 20
45.15846073528609
 30
0.0
 11
-31.65105639448619
 21
45.33054850297179
 31
0.0
  0
LINE
  5
218
  8
0
 10
-31.57516868772562
 20
45.49276193436543
 30
0.0
 11
-31.47483951320111
 21
45.64110679643067
 31
0.0
  0
LINE
  5
219
  8
0
 10
-37.3318717265151
 20
48.46663764081734
 30
0.0
 11
-36.34749637832617
 21
49.9124877399206
 31
0.0
  0
LINE
  5
21A
  8
0
 10
-31.65105639448619
 20
45.33054850297179
 30
0.0
 11
-31.57516868772562
 21
45.49276193436543
 31
0.0
  0
LINE
  5
21B
  8
0
 10
-31.35253930816318
 20
45.771930346335
 30
0.0
 11
-31.21127950955103
 21
45.88201127410142
 31
0.0
  0
LINE
  5
21C
  8
0
 10
-36.34749637832617
 20
49.9124877399206
 30
0.0
 11
-35.05935985242904
 21
51.09578044498097
 31
0.0
  0
LINE
  5
21D
  8
0
 10
-31.47483951320111
 20
45.64110679643067
 30
0.0
 11
-31.35253930816318
 21
45.771930346335
 31
0.0
  0
LINE
  5
21E
  8
0
 10
-35.05935985242904
 20
51.09578044498097
 30
0.0
 11
-33.53533548438969
 21
51.95416675709309
 31
0.0
  0
LINE
  5
21F
  8
0
 10
-31.21127950955103
 20
45.88201127410142
 30
0.0
 11
-31.05453840242052
 21
45.96863902195057
 31
0.0
  0
LINE
  5
220
  8
0
 10
-31.85572580058058
 20
52.44241735387093
 30
0.0
 11
-31.52372429261899
 21
51.13735241558244
 31
0.0
  0
LINE
  5
221
  8
0
 10
-31.52372429261899
 20
51.13735241558244
 30
0.0
 11
-31.24889036910156
 21
50.06413507502197
 31
0.0
  0
LINE
  5
222
  8
0
 10
-31.24889036910156
 20
50.06413507502197
 30
0.0
 11
-31.02097586545874
 21
49.1831331782634
 31
0.0
  0
LINE
  5
223
  8
0
 10
-30.88617547302334
 20
46.02968052722944
 30
0.0
 11
-30.71033637544578
 21
46.0636327454929
 31
0.0
  0
LINE
  5
224
  8
0
 10
-33.53533548438969
 20
51.95416675709309
 30
0.0
 11
-31.85572580058058
 21
52.44241735387093
 31
0.0
  0
LINE
  5
225
  8
0
 10
-31.05453840242052
 20
45.96863902195057
 30
0.0
 11
-30.88617547302334
 21
46.02968052722944
 31
0.0
  0
LINE
  5
226
  8
0
 10
-31.02097586545874
 20
49.1831331782634
 30
0.0
 11
-30.83141645545999
 21
48.46176325335186
 31
0.0
  0
LINE
  5
227
  8
0
 10
-30.53135085184671
 20
46.06965966044636
 30
0.0
 11
-30.35362611983592
 21
46.04761286944147
 31
0.0
  0
LINE
  5
228
  8
0
 10
-30.83141645545999
 20
48.46176325335186
 30
0.0
 11
-30.6730033697995
 21
47.87326005477349
 31
0.0
  0
LINE
  5
229
  8
0
 10
-30.6730033697995
 20
47.87326005477349
 30
0.0
 11
-30.53961130898467
 21
47.39564302490952
 31
0.0
  0
LINE
  5
22A
  8
0
 10
-30.71033637544578
 20
46.0636327454929
 30
0.0
 11
-30.53135085184671
 21
46.06965966044636
 31
0.0
  0
LINE
  5
22B
  8
0
 10
-30.53961130898467
 20
47.39564302490952
 30
0.0
 11
-30.21513806272008
 21
46.39761687077173
 31
0.0
  0
LINE
  5
22C
  8
0
 10
-30.21513806272008
 20
46.39761687077173
 30
0.0
 11
-30.06318755716006
 21
46.08575025811929
 31
0.0
  0
LINE
  5
22D
  8
0
 10
-30.35362611983592
 20
46.04761286944147
 30
0.0
 11
-30.18153835215033
 21
45.99803523764191
 31
0.0
  0
LINE
  5
22E
  8
0
 10
-30.06318755716006
 20
46.08575025811929
 30
0.0
 11
-29.9720581335201
 21
45.95686910237352
 31
0.0
  0
LINE
  5
22F
  8
0
 10
-30.18153835215033
 20
45.99803523764191
 30
0.0
 11
-30.01932492075658
 21
45.92214753088127
 31
0.0
  0
LINE
  5
230
  8
0
 10
-30.01932492075658
 20
45.92214753088127
 30
0.0
 11
-29.87098005869149
 21
45.82181835635687
 31
0.0
  0
LINE
  5
231
  8
0
 10
-29.9720581335201
 20
45.95686910237352
 30
0.0
 11
-29.87098005869149
 21
45.82181835635687
 31
0.0
  0
LINE
  5
232
  8
0
 10
-29.87098005869149
 20
45.82181835635687
 30
0.0
 11
-29.74015650878701
 21
45.69951815131896
 31
0.0
  0
LINE
  5
233
  8
0
 10
-31.68270168407367
 20
44.62591138209876
 30
0.0
 11
-31.71665390233713
 21
44.8017504796763
 31
0.0
  0
LINE
  5
234
  8
0
 10
-31.62166017879481
 20
44.45754845270161
 30
0.0
 11
-31.68270168407367
 21
44.62591138209876
 31
0.0
  0
LINE
  5
235
  8
0
 10
-31.53503243094568
 20
44.30080734557117
 30
0.0
 11
-31.62166017879481
 21
44.45754845270161
 31
0.0
  0
LINE
  5
236
  8
0
 10
-31.42495150317922
 20
44.15954754695888
 30
0.0
 11
-31.53503243094568
 21
44.30080734557117
 31
0.0
  0
LINE
  5
237
  8
0
 10
-31.29412795327491
 20
44.03724734192097
 30
0.0
 11
-31.42495150317922
 21
44.15954754695888
 31
0.0
  0
LINE
  5
238
  8
0
 10
-31.14578309120964
 20
43.93691816739657
 30
0.0
 11
-31.29412795327491
 21
44.03724734192097
 31
0.0
  0
LINE
  5
239
  8
0
 10
-30.98356965981608
 20
43.86103046063593
 30
0.0
 11
-31.14578309120964
 21
43.93691816739657
 31
0.0
  0
LINE
  5
23A
  8
0
 10
-30.81148189213031
 20
43.81145282883637
 30
0.0
 11
-30.98356965981608
 21
43.86103046063593
 31
0.0
  0
LINE
  5
23B
  8
0
 10
-30.6337571601196
 20
43.78940603783148
 30
0.0
 11
-30.81148189213031
 21
43.81145282883637
 31
0.0
  0
LINE
  5
23C
  8
0
 10
-30.45477163652054
 20
43.79543295278494
 30
0.0
 11
-30.6337571601196
 21
43.78940603783148
 31
0.0
  0
LINE
  5
23D
  8
0
 10
-30.27893253894297
 20
43.8293851710484
 30
0.0
 11
-30.45477163652054
 21
43.79543295278494
 31
0.0
  0
LINE
  5
23E
  8
0
 10
-30.11056960954589
 20
43.89042667632727
 30
0.0
 11
-30.27893253894297
 21
43.8293851710484
 31
0.0
  0
LINE
  5
23F
  8
0
 10
-29.95382850241538
 20
43.97705442417642
 30
0.0
 11
-30.11056960954589
 21
43.89042667632727
 31
0.0
  0
LINE
  5
240
  8
0
 10
-29.81256870380314
 20
44.08713535194279
 30
0.0
 11
-29.95382850241538
 21
43.97705442417642
 31
0.0
  0
LINE
  5
241
  8
0
 10
-29.69026849876521
 20
44.21795890184717
 30
0.0
 11
-29.81256870380314
 21
44.08713535194279
 31
0.0
  0
LINE
  5
242
  8
0
 10
-29.58993932424078
 20
44.36630376391237
 30
0.0
 11
-29.69026849876521
 21
44.21795890184717
 31
0.0
  0
LINE
  5
243
  8
0
 10
-29.51405161748022
 20
44.52851719530604
 30
0.0
 11
-29.58993932424078
 21
44.36630376391237
 31
0.0
  0
LINE
  5
244
  8
0
 10
-29.46447398568054
 20
44.7006049629917
 30
0.0
 11
-29.51405161748022
 21
44.52851719530604
 31
0.0
  0
LINE
  5
245
  8
0
 10
-29.44242719467583
 20
44.87832969500245
 30
0.0
 11
-29.46447398568054
 21
44.7006049629917
 31
0.0
  0
LINE
  5
246
  8
0
 10
-29.44845410962918
 20
45.05731521860154
 30
0.0
 11
-29.44242719467583
 21
44.87832969500245
 31
0.0
  0
LINE
  5
247
  8
0
 10
-29.48240632789264
 20
45.23315431617908
 30
0.0
 11
-29.44845410962918
 21
45.05731521860154
 31
0.0
  0
LINE
  5
248
  8
0
 10
-29.5434478331715
 20
45.40151724557623
 30
0.0
 11
-29.48240632789264
 21
45.23315431617908
 31
0.0
  0
LINE
  5
249
  8
0
 10
-29.63007558102063
 20
45.55825835270663
 30
0.0
 11
-29.5434478331715
 21
45.40151724557623
 31
0.0
  0
LINE
  5
24A
  8
0
 10
-29.74015650878701
 20
45.69951815131896
 30
0.0
 11
-29.63007558102063
 21
45.55825835270663
 31
0.0
  0
LINE
  5
24B
  8
0
 10
-113.8051771849142
 20
53.96650716926496
 30
0.0
 11
-113.9039791246943
 21
53.83418622628488
 31
0.0
  0
LINE
  5
24C
  8
0
 10
-113.9039791246943
 20
53.83418622628488
 30
0.0
 11
-113.9936250544185
 21
53.7087039864178
 31
0.0
  0
LINE
  5
24D
  8
0
 10
-113.9936250544185
 20
53.7087039864178
 30
0.0
 11
-114.1428259428497
 21
53.40661643284619
 31
0.0
  0
LINE
  5
24E
  8
0
 10
-114.1428259428497
 20
53.40661643284619
 30
0.0
 11
-114.4560340116431
 21
52.45449953914243
 31
0.0
  0
LINE
  5
24F
  8
0
 10
-114.4560340116431
 20
52.45449953914243
 30
0.0
 11
-114.6117052619507
 21
51.89859375068529
 31
0.0
  0
LINE
  5
250
  8
0
 10
-114.6117052619507
 20
51.89859375068529
 30
0.0
 11
-114.8187284306505
 21
51.12589285762592
 31
0.0
  0
LINE
  5
251
  8
0
 10
-114.8187284306505
 20
51.12589285762592
 30
0.0
 11
-115.1699230696878
 21
49.77535170829243
 31
0.0
  0
LINE
  5
252
  8
0
 10
-115.1699230696878
 20
49.77535170829243
 30
0.0
 11
-115.7899229268033
 21
47.34590817175094
 31
0.0
  0
LINE
  5
253
  8
0
 10
-115.7899229268033
 20
47.34590817175094
 30
0.0
 11
-106.9089229507238
 21
54.42826931933967
 31
0.0
  0
LINE
  5
254
  8
0
 10
-115.7899229268033
 20
47.34590817175094
 30
0.0
 11
-117.4695326106124
 21
47.83415876852873
 31
0.0
  0
LINE
  5
255
  8
0
 10
-117.4695326106124
 20
47.83415876852873
 30
0.0
 11
-118.9935569786518
 21
48.69254508064083
 31
0.0
  0
LINE
  5
256
  8
0
 10
-118.9935569786518
 20
48.69254508064083
 30
0.0
 11
-120.2816935045488
 21
49.8758377857012
 31
0.0
  0
LINE
  5
257
  8
0
 10
-120.2816935045488
 20
49.8758377857012
 30
0.0
 11
-121.2660688527379
 21
51.32168788480448
 31
0.0
  0
LINE
  5
258
  8
0
 10
-121.2660688527379
 20
51.32168788480448
 30
0.0
 11
-121.8948151994383
 21
52.95391194010752
 31
0.0
  0
LINE
  5
259
  8
0
 10
-121.8948151994383
 20
52.95391194010752
 30
0.0
 11
-122.134803205549
 21
54.68650626427067
 31
0.0
  0
LINE
  5
25A
  8
0
 10
-122.134803205549
 20
54.68650626427067
 30
0.0
 11
-121.9733876380973
 21
56.42817854968582
 31
0.0
  0
LINE
  5
25B
  8
0
 10
-121.9733876380973
 20
56.42817854968582
 30
0.0
 11
-121.419073661524
 21
58.08715816094531
 31
0.0
  0
LINE
  5
25C
  8
0
 10
-121.419073661524
 20
58.08715816094531
 30
0.0
 11
-120.5010686911803
 21
59.57603163092976
 31
0.0
  0
LINE
  5
25D
  8
0
 10
-120.5010686911803
 20
59.57603163092976
 30
0.0
 11
-119.2677434223695
 21
60.8163485728893
 31
0.0
  0
LINE
  5
25E
  8
0
 10
-119.2677434223695
 20
60.8163485728893
 30
0.0
 11
-117.7840831250134
 21
61.74275531792549
 31
0.0
  0
LINE
  5
25F
  8
0
 10
-117.7840831250134
 20
61.74275531792549
 30
0.0
 11
-116.1282634980412
 21
62.30643847195143
 31
0.0
  0
LINE
  5
260
  8
0
 10
-116.1282634980412
 20
62.30643847195143
 30
0.0
 11
-114.3875315055116
 21
62.47769694731326
 31
0.0
  0
LINE
  5
261
  8
0
 10
-114.3875315055116
 20
62.47769694731326
 30
0.0
 11
-112.6536082377624
 21
62.24750694588625
 31
0.0
  0
LINE
  5
262
  8
0
 10
-112.6536082377624
 20
62.24750694588625
 30
0.0
 11
-111.017856025906
 21
61.62799743295989
 31
0.0
  0
LINE
  5
263
  8
0
 10
-111.017856025906
 20
61.62799743295989
 30
0.0
 11
-109.5664644597459
 21
60.65181104866723
 31
0.0
  0
LINE
  5
264
  8
0
 10
-109.5664644597459
 20
60.65181104866723
 30
0.0
 11
-108.3759089631418
 21
59.37038413124078
 31
0.0
  0
LINE
  5
265
  8
0
 10
-108.3759089631418
 20
59.37038413124078
 30
0.0
 11
-107.5089212195032
 21
57.85123647956912
 31
0.0
  0
LINE
  5
266
  8
0
 10
-52.4784601734976
 20
70.18895906654708
 30
0.0
 11
-52.30190352400417
 21
70.21895724785121
 31
0.0
  0
LINE
  5
267
  8
0
 10
-52.12282783040054
 20
70.22096655675153
 30
0.0
 11
-51.94564253058127
 21
70.19493751739444
 31
0.0
  0
LINE
  5
268
  8
0
 10
-52.24267537626304
 20
76.70215393892177
 30
0.0
 11
-50.50399081532227
 21
76.51122638002646
 31
0.0
  0
LINE
  5
269
  8
0
 10
-52.30190352400417
 20
70.21895724785121
 30
0.0
 11
-52.12282783040054
 21
70.22096655675153
 31
0.0
  0
LINE
  5
26A
  8
0
 10
-51.77471051467226
 20
70.14151105111434
 30
0.0
 11
-51.61424069619599
 21
70.0620026948233
 31
0.0
  0
LINE
  5
26B
  8
0
 10
-50.50399081532227
 20
76.51122638002646
 30
0.0
 11
-48.85464979165805
 21
75.92885920816879
 31
0.0
  0
LINE
  5
26C
  8
0
 10
-51.94564253058127
 20
70.19493751739444
 30
0.0
 11
-51.77471051467226
 21
70.14151105111434
 31
0.0
  0
LINE
  5
26D
  8
0
 10
-48.85464979165805
 20
75.92885920816879
 30
0.0
 11
-47.38155790456901
 21
74.9857379925282
 31
0.0
  0
LINE
  5
26E
  8
0
 10
-51.61424069619599
 20
70.0620026948233
 30
0.0
 11
-51.46818437465229
 21
69.95837020812635
 31
0.0
  0
LINE
  5
26F
  8
0
 10
-51.34013794141052
 20
69.83316536678241
 30
0.0
 11
-51.23325432461888
 21
69.68947112951646
 31
0.0
  0
LINE
  5
270
  8
0
 10
-47.38155790456901
 20
74.9857379925282
 30
0.0
 11
-46.16233399178019
 21
73.73155683109928
 31
0.0
  0
LINE
  5
271
  8
0
 10
-51.46818437465229
 20
69.95837020812635
 30
0.0
 11
-51.34013794141052
 21
69.83316536678241
 31
0.0
  0
LINE
  5
272
  8
0
 10
-46.16233399178019
 20
73.73155683109928
 30
0.0
 11
-45.26122030719803
 21
72.23239991380946
 31
0.0
  0
LINE
  5
273
  8
0
 10
-51.23325432461888
 20
69.68947112951646
 30
0.0
 11
-51.15016535364926
 21
69.53082572534386
 31
0.0
  0
LINE
  5
274
  8
0
 10
-51.15016535364926
 20
69.53082572534386
 30
0.0
 11
-51.09291695472332
 21
69.36113553062914
 31
0.0
  0
LINE
  5
275
  8
0
 10
-45.26122030719803
 20
72.23239991380946
 30
0.0
 11
-44.72569752563194
 21
70.56725947359942
 31
0.0
  0
LINE
  5
276
  8
0
 10
-44.72569752563194
 20
70.56725947359942
 30
0.0
 11
-44.58398293362401
 21
68.82387359846699
 31
0.0
  0
LINE
  5
277
  8
0
 10
-51.09291695472332
 20
69.36113553062914
 30
0.0
 11
-51.06291877341919
 21
69.18457888113574
 31
0.0
  0
LINE
  5
278
  8
0
 10
-51.06090946451889
 20
69.00550318753206
 30
0.0
 11
-51.08693850387592
 21
68.82831788771279
 31
0.0
  0
LINE
  5
279
  8
0
 10
-44.58398293362401
 20
68.82387359846699
 30
0.0
 11
-44.84354362947055
 21
67.09410321475393
 31
0.0
  0
LINE
  5
27A
  8
0
 10
-51.06291877341919
 20
69.18457888113574
 30
0.0
 11
-51.06090946451889
 21
69.00550318753206
 31
0.0
  0
LINE
  5
27B
  8
0
 10
-51.14036497015606
 20
68.65738587180378
 30
0.0
 11
-51.21987332644721
 21
68.49691605332755
 31
0.0
  0
LINE
  5
27C
  8
0
 10
-44.84354362947055
 20
67.09410321475393
 30
0.0
 11
-45.49070307356956
 21
65.4690918335284
 31
0.0
  0
LINE
  5
27D
  8
0
 10
-51.08693850387592
 20
68.82831788771279
 30
0.0
 11
-51.14036497015606
 21
68.65738587180378
 31
0.0
  0
LINE
  5
27E
  8
0
 10
-45.49070307356956
 20
65.4690918335284
 30
0.0
 11
-46.49136172039115
 21
64.03446309837067
 31
0.0
  0
LINE
  5
27F
  8
0
 10
-51.21987332644721
 20
68.49691605332755
 30
0.0
 11
-51.3235058131441
 21
68.35085973178379
 31
0.0
  0
LINE
  5
280
  8
0
 10
-47.79279376117426
 20
62.86580918106991
 30
0.0
 11
-48.65816323916001
 21
63.89758200539177
 31
0.0
  0
LINE
  5
281
  8
0
 10
-48.65816323916001
 20
63.89758200539177
 30
0.0
 11
-49.37143160070092
 21
64.74527144735767
 31
0.0
  0
LINE
  5
282
  8
0
 10
-49.37143160070092
 20
64.74527144735767
 30
0.0
 11
-49.95902787016183
 21
65.4401383318605
 31
0.0
  0
LINE
  5
283
  8
0
 10
-51.44871065448799
 20
68.22281329854201
 30
0.0
 11
-51.59240489175392
 21
68.11592968175042
 31
0.0
  0
LINE
  5
284
  8
0
 10
-46.49136172039115
 20
64.03446309837067
 30
0.0
 11
-47.79279376117426
 21
62.86580918106991
 31
0.0
  0
LINE
  5
285
  8
0
 10
-51.3235058131441
 20
68.35085973178379
 30
0.0
 11
-51.44871065448799
 21
68.22281329854201
 31
0.0
  0
LINE
  5
286
  8
0
 10
-49.95902787016183
 20
65.4401383318605
 30
0.0
 11
-50.44280567749618
 21
66.00782343085172
 31
0.0
  0
LINE
  5
287
  8
0
 10
-51.75105029592654
 20
68.03284071078077
 30
0.0
 11
-51.92074049064129
 21
67.97559231185481
 31
0.0
  0
LINE
  5
288
  8
0
 10
-50.44280567749618
 20
66.00782343085172
 30
0.0
 11
-50.84087290422647
 21
66.46931362950028
 31
0.0
  0
LINE
  5
289
  8
0
 10
-50.84087290422647
 20
66.46931362950028
 30
0.0
 11
-51.16828526102962
 21
66.84175505807279
 31
0.0
  0
LINE
  5
28A
  8
0
 10
-51.59240489175392
 20
68.11592968175042
 30
0.0
 11
-51.75105029592654
 21
68.03284071078077
 31
0.0
  0
LINE
  5
28B
  8
0
 10
-51.16828526102962
 20
66.84175505807279
 30
0.0
 11
-51.89365287387566
 21
67.60016188697041
 31
0.0
  0
LINE
  5
28C
  8
0
 10
-51.89365287387566
 20
67.60016188697041
 30
0.0
 11
-52.16586940085092
 21
67.81521514239527
 31
0.0
  0
LINE
  5
28D
  8
0
 10
-51.92074049064129
 20
67.97559231185481
 30
0.0
 11
-52.09729714013466
 21
67.94559413055073
 31
0.0
  0
LINE
  5
28E
  8
0
 10
-52.16586940085092
 20
67.81521514239527
 30
0.0
 11
-52.30389361225713
 21
67.89179347630899
 31
0.0
  0
LINE
  5
28F
  8
0
 10
-52.09729714013466
 20
67.94559413055073
 30
0.0
 11
-52.27637283373839
 21
67.94358482165038
 31
0.0
  0
LINE
  5
290
  8
0
 10
-52.27637283373839
 20
67.94358482165038
 30
0.0
 11
-52.45355813355766
 21
67.96961386100746
 31
0.0
  0
LINE
  5
291
  8
0
 10
-52.30389361225713
 20
67.89179347630899
 30
0.0
 11
-52.45355813355766
 21
67.96961386100746
 31
0.0
  0
LINE
  5
292
  8
0
 10
-52.45355813355766
 20
67.96961386100746
 30
0.0
 11
-52.62449014946662
 21
68.02304032728757
 31
0.0
  0
LINE
  5
293
  8
0
 10
-52.64815036821234
 20
70.13171066762119
 30
0.0
 11
-52.4784601734976
 21
70.18895906654708
 31
0.0
  0
LINE
  5
294
  8
0
 10
-52.80679577238497
 20
70.04862169665152
 30
0.0
 11
-52.64815036821234
 21
70.13171066762119
 31
0.0
  0
LINE
  5
295
  8
0
 10
-52.95049000965085
 20
69.9417380798599
 30
0.0
 11
-52.80679577238497
 21
70.04862169665152
 31
0.0
  0
LINE
  5
296
  8
0
 10
-53.07569485099484
 20
69.81369164661815
 30
0.0
 11
-52.95049000965085
 21
69.9417380798599
 31
0.0
  0
LINE
  5
297
  8
0
 10
-53.17932733769177
 20
69.66763532507437
 30
0.0
 11
-53.07569485099484
 21
69.81369164661815
 31
0.0
  0
LINE
  5
298
  8
0
 10
-53.25883569398282
 20
69.50716550659814
 30
0.0
 11
-53.17932733769177
 21
69.66763532507437
 31
0.0
  0
LINE
  5
299
  8
0
 10
-53.31226216026292
 20
69.33623349068912
 30
0.0
 11
-53.25883569398282
 21
69.50716550659814
 31
0.0
  0
LINE
  5
29A
  8
0
 10
-53.33829119962
 20
69.15904819086991
 30
0.0
 11
-53.31226216026292
 21
69.33623349068912
 31
0.0
  0
LINE
  5
29B
  8
0
 10
-53.33628189071965
 20
68.97997249726623
 30
0.0
 11
-53.33829119962
 21
69.15904819086991
 31
0.0
  0
LINE
  5
29C
  8
0
 10
-53.30628370941561
 20
68.80341584777278
 30
0.0
 11
-53.33628189071965
 21
68.97997249726623
 31
0.0
  0
LINE
  5
29D
  8
0
 10
-53.24903531048967
 20
68.63372565305811
 30
0.0
 11
-53.30628370941561
 21
68.80341584777278
 31
0.0
  0
LINE
  5
29E
  8
0
 10
-53.16594633951996
 20
68.47508024888543
 30
0.0
 11
-53.24903531048967
 21
68.63372565305811
 31
0.0
  0
LINE
  5
29F
  8
0
 10
-53.05906272272837
 20
68.3313860116195
 30
0.0
 11
-53.16594633951996
 21
68.47508024888543
 31
0.0
  0
LINE
  5
2A0
  8
0
 10
-52.93101628948664
 20
68.20618117027558
 30
0.0
 11
-53.05906272272837
 21
68.3313860116195
 31
0.0
  0
LINE
  5
2A1
  8
0
 10
-52.7849599679429
 20
68.1025486835786
 30
0.0
 11
-52.93101628948664
 21
68.20618117027558
 31
0.0
  0
LINE
  5
2A2
  8
0
 10
-52.62449014946662
 20
68.02304032728757
 30
0.0
 11
-52.7849599679429
 21
68.1025486835786
 31
0.0
  0
LINE
  5
2A3
  8
0
 10
-29.87098005869149
 20
45.82181835635687
 30
0.0
 11
-29.71999117809735
 21
45.7549377673014
 31
0.0
  0
LINE
  5
2A4
  8
0
 10
-29.71999117809735
 20
45.7549377673014
 30
0.0
 11
-29.57770694396023
 21
45.69546187340995
 31
0.0
  0
LINE
  5
2A5
  8
0
 10
-29.57770694396023
 20
45.69546187340995
 30
0.0
 11
-29.24999303501972
 21
45.61722256731343
 31
0.0
  0
LINE
  5
2A6
  8
0
 10
-29.24999303501972
 20
45.61722256731343
 30
0.0
 11
-28.25205234769749
 21
45.52373321914867
 31
0.0
  0
LINE
  5
2A7
  8
0
 10
-28.25205234769749
 20
45.52373321914867
 30
0.0
 11
-27.67544416597856
 21
45.49566564733879
 31
0.0
  0
LINE
  5
2A8
  8
0
 10
-27.67544416597856
 20
45.49566564733879
 30
0.0
 11
-26.87604950871748
 21
45.46577510609742
 31
0.0
  0
LINE
  5
2A9
  8
0
 10
-26.87604950871748
 20
45.46577510609742
 30
0.0
 11
-25.48122108660313
 21
45.42390932778743
 31
0.0
  0
LINE
  5
2AA
  8
0
 10
-25.48122108660313
 20
45.42390932778743
 30
0.0
 11
-22.97472582450095
 21
45.36005620628213
 31
0.0
  0
LINE
  5
2AB
  8
0
 10
-22.97472582450095
 20
45.36005620628213
 30
0.0
 11
-31.85572580058058
 21
52.44241735387093
 31
0.0
  0
LINE
  5
2AC
  8
0
 10
-22.97472582450095
 20
45.36005620628213
 30
0.0
 11
-23.07698664391578
 21
43.61391186516606
 31
0.0
  0
LINE
  5
2AD
  8
0
 10
-23.07698664391578
 20
43.61391186516606
 30
0.0
 11
-23.57472409328044
 21
41.93708904605273
 31
0.0
  0
LINE
  5
2AE
  8
0
 10
-23.57472409328044
 20
41.93708904605273
 30
0.0
 11
-24.44171183691901
 21
40.41794139438105
 31
0.0
  0
LINE
  5
2AF
  8
0
 10
-24.44171183691901
 20
40.41794139438105
 30
0.0
 11
-25.63226733352312
 21
39.13651447695459
 31
0.0
  0
LINE
  5
2B0
  8
0
 10
-25.63226733352312
 20
39.13651447695459
 30
0.0
 11
-27.08365889968325
 21
38.16032809266193
 31
0.0
  0
LINE
  5
2B1
  8
0
 10
-27.08365889968325
 20
38.16032809266193
 30
0.0
 11
-28.7194111115396
 21
37.54081857973557
 31
0.0
  0
LINE
  5
2B2
  8
0
 10
-28.7194111115396
 20
37.54081857973557
 30
0.0
 11
-30.45333437928888
 21
37.31062857830857
 31
0.0
  0
LINE
  5
2B3
  8
0
 10
-30.45333437928888
 20
37.31062857830857
 30
0.0
 11
-32.19406637181835
 21
37.48188705367039
 31
0.0
  0
LINE
  5
2B4
  8
0
 10
-32.19406637181835
 20
37.48188705367039
 30
0.0
 11
-33.8498859987906
 21
38.04557020769638
 31
0.0
  0
LINE
  5
2B5
  8
0
 10
-33.8498859987906
 20
38.04557020769638
 30
0.0
 11
-35.33354629614679
 21
38.97197695273253
 31
0.0
  0
LINE
  5
2B6
  8
0
 10
-35.33354629614679
 20
38.97197695273253
 30
0.0
 11
-36.56687156495757
 21
40.21229389469207
 31
0.0
  0
LINE
  5
2B7
  8
0
 10
-36.56687156495757
 20
40.21229389469207
 30
0.0
 11
-37.48487653530118
 21
41.70116736467649
 31
0.0
  0
LINE
  5
2B8
  8
0
 10
-37.48487653530118
 20
41.70116736467649
 30
0.0
 11
-38.03919051187459
 21
43.360146975936
 31
0.0
  0
LINE
  5
2B9
  8
0
 10
-7.329044095419478
 20
-10.34494932094832
 30
0.0
 11
-9.073203212624868
 21
-10.21309216692054
 31
0.0
  0
LINE
  5
2BA
  8
0
 10
-7.630492327291501
 20
-3.872190322409935
 30
0.0
 11
-7.809027227861467
 21
-3.858139321007314
 31
0.0
  0
LINE
  5
2BB
  8
0
 10
-9.073203212624868
 20
-10.21309216692054
 30
0.0
 11
-10.7413443006262
 21
-9.686990802427829
 31
0.0
  0
LINE
  5
2BC
  8
0
 10
-7.983166006655764
 20
-3.816332299086626
 30
0.0
 11
-8.1486207890075
 21
-3.747798684277077
 31
0.0
  0
LINE
  5
2BD
  8
0
 10
-10.7413443006262
 20
-9.686990802427829
 30
0.0
 11
-12.24557116398074
 21
-8.794366089145875
 31
0.0
  0
LINE
  5
2BE
  8
0
 10
-8.1486207890075
 20
-3.747798684277077
 30
0.0
 11
-8.301317529062008
 21
-3.654226001625342
 31
0.0
  0
LINE
  5
2BF
  8
0
 10
-8.301317529062008
 20
-3.654226001625342
 30
0.0
 11
-8.437496326307501
 21
-3.537918321128178
 31
0.0
  0
LINE
  5
2C0
  8
0
 10
-12.24557116398074
 20
-8.794366089145875
 30
0.0
 11
-13.50662442869291
 21
-7.582251408615267
 31
0.0
  0
LINE
  5
2C1
  8
0
 10
-8.553804006804677
 20
-3.40173952388256
 30
0.0
 11
-8.6473766894564
 21
-3.249042783828132
 31
0.0
  0
LINE
  5
2C2
  8
0
 10
-13.50662442869291
 20
-7.582251408615267
 30
0.0
 11
-14.45805780612703
 21
-6.114514421446387
 31
0.0
  0
LINE
  5
2C3
  8
0
 10
-8.437496326307501
 20
-3.537918321128178
 30
0.0
 11
-8.553804006804677
 21
-3.40173952388256
 31
0.0
  0
LINE
  5
2C4
  8
0
 10
-14.45805780612703
 20
-6.114514421446387
 30
0.0
 11
-15.04973922130733
 21
-4.468491809776236
 31
0.0
  0
LINE
  5
2C5
  8
0
 10
-8.6473766894564
 20
-3.249042783828132
 30
0.0
 11
-8.71591030426595
 21
-3.083588001476463
 31
0.0
  0
LINE
  5
2C6
  8
0
 10
-8.757717326186615
 20
-2.909449222682042
 30
0.0
 11
-8.771768327589236
 21
-2.730914322112199
 31
0.0
  0
LINE
  5
2C7
  8
0
 10
-15.04973922130733
 20
-4.468491809776236
 30
0.0
 11
-15.25049232729152
 21
-2.730914322112199
 31
0.0
  0
LINE
  5
2C8
  8
0
 10
-8.71591030426595
 20
-3.083588001476463
 30
0.0
 11
-8.757717326186615
 21
-2.909449222682042
 31
0.0
  0
LINE
  5
2C9
  8
0
 10
-8.757717326186615
 20
-2.55237942154238
 30
0.0
 11
-8.71591030426595
 21
-2.378240642747936
 31
0.0
  0
LINE
  5
2CA
  8
0
 10
-15.25049232729152
 20
-2.730914322112199
 30
0.0
 11
-15.04973922130733
 21
-0.9933368344481751
 31
0.0
  0
LINE
  5
2CB
  8
0
 10
-8.771768327589236
 20
-2.730914322112199
 30
0.0
 11
-8.757717326186615
 21
-2.55237942154238
 31
0.0
  0
LINE
  5
2CC
  8
0
 10
-15.04973922130733
 20
-0.9933368344481751
 30
0.0
 11
-14.45805780612703
 21
0.6526857772219539
 31
0.0
  0
LINE
  5
2CD
  8
0
 10
-8.71591030426595
 20
-2.378240642747936
 30
0.0
 11
-8.6473766894564
 21
-2.21278586039629
 31
0.0
  0
LINE
  5
2CE
  8
0
 10
-8.553804006804677
 20
-2.06008912034185
 30
0.0
 11
-8.437496326307501
 21
-1.923910323096233
 31
0.0
  0
LINE
  5
2CF
  8
0
 10
-14.45805780612703
 20
0.6526857772219539
 30
0.0
 11
-13.50662442869291
 21
2.120422764390846
 31
0.0
  0
LINE
  5
2D0
  8
0
 10
-8.6473766894564
 20
-2.21278586039629
 30
0.0
 11
-8.553804006804677
 21
-2.06008912034185
 31
0.0
  0
LINE
  5
2D1
  8
0
 10
-13.50662442869291
 20
2.120422764390846
 30
0.0
 11
-12.24557116398074
 21
3.332537444921453
 31
0.0
  0
LINE
  5
2D2
  8
0
 10
-8.437496326307501
 20
-1.923910323096233
 30
0.0
 11
-8.301317529062008
 21
-1.80760264259908
 31
0.0
  0
LINE
  5
2D3
  8
0
 10
-8.301317529062008
 20
-1.80760264259908
 30
0.0
 11
-8.1486207890075
 21
-1.714029959947334
 31
0.0
  0
LINE
  5
2D4
  8
0
 10
-12.24557116398074
 20
3.332537444921453
 30
0.0
 11
-10.7413443006262
 21
4.225162158203418
 31
0.0
  0
LINE
  5
2D5
  8
0
 10
-10.7413443006262
 20
4.225162158203418
 30
0.0
 11
-9.073203212624868
 21
4.751263522696137
 31
0.0
  0
LINE
  5
2D6
  8
0
 10
-8.1486207890075
 20
-1.714029959947334
 30
0.0
 11
-7.983166006655764
 21
-1.645496345137784
 31
0.0
  0
LINE
  5
2D7
  8
0
 10
-7.809027227861467
 20
-1.603689323217086
 30
0.0
 11
-7.630492327291501
 21
-1.589638321814486
 31
0.0
  0
LINE
  5
2D8
  8
0
 10
-9.073203212624868
 20
4.751263522696137
 30
0.0
 11
-7.329044095419478
 21
4.883120676723907
 31
0.0
  0
LINE
  5
2D9
  8
0
 10
-7.983166006655764
 20
-1.645496345137784
 30
0.0
 11
-7.809027227861467
 21
-1.603689323217086
 31
0.0
  0
LINE
  5
2DA
  8
0
 10
-7.451957426721714
 20
-1.603689323217086
 30
0.0
 11
-7.277818647927237
 21
-1.645496345137784
 31
0.0
  0
LINE
  5
2DB
  8
0
 10
-7.329044095419478
 20
4.883120676723907
 30
0.0
 11
-5.600768618330043
 21
4.613785921279577
 31
0.0
  0
LINE
  5
2DC
  8
0
 10
-7.630492327291501
 20
-1.589638321814486
 30
0.0
 11
-7.451957426721714
 21
-1.603689323217086
 31
0.0
  0
LINE
  5
2DD
  8
0
 10
-5.600768618330043
 20
4.613785921279577
 30
0.0
 11
-3.979441524144337
 21
3.957450801954995
 31
0.0
  0
LINE
  5
2DE
  8
0
 10
-7.277818647927237
 20
-1.645496345137784
 30
0.0
 11
-7.11236386557559
 21
-1.714029959947334
 31
0.0
  0
LINE
  5
2DF
  8
0
 10
-2.550492327291519
 20
2.94869834073726
 30
0.0
 11
-3.363833628294823
 21
1.875434429799849
 31
0.0
  0
LINE
  5
2E0
  8
0
 10
-3.363833628294823
 20
1.875434429799849
 30
0.0
 11
-4.031552584157763
 21
0.991420548926254
 31
0.0
  0
LINE
  5
2E1
  8
0
 10
-4.031552584157763
 20
0.991420548926254
 30
0.0
 11
-4.578245234440678
 21
0.2639341166200529
 31
0.0
  0
LINE
  5
2E2
  8
0
 10
-6.959667125521174
 20
-1.80760264259908
 30
0.0
 11
-6.82348832827559
 21
-1.923910323096233
 31
0.0
  0
LINE
  5
2E3
  8
0
 10
-3.979441524144337
 20
3.957450801954995
 30
0.0
 11
-2.550492327291519
 21
2.94869834073726
 31
0.0
  0
LINE
  5
2E4
  8
0
 10
-7.11236386557559
 20
-1.714029959947334
 30
0.0
 11
-6.959667125521174
 21
-1.80760264259908
 31
0.0
  0
LINE
  5
2E5
  8
0
 10
-4.578245234440678
 20
0.2639341166200529
 30
0.0
 11
-5.024046593261524
 21
-0.334036189464927
 31
0.0
  0
LINE
  5
2E6
  8
0
 10
-6.707180647778414
 20
-2.06008912034185
 30
0.0
 11
-6.613607965126781
 21
-2.21278586039629
 31
0.0
  0
LINE
  5
2E7
  8
0
 10
-5.024046593261524
 20
-0.334036189464927
 30
0.0
 11
-5.385387978052854
 21
-0.8248142697440759
 31
0.0
  0
LINE
  5
2E8
  8
0
 10
-5.385387978052854
 20
-0.8248142697440759
 30
0.0
 11
-5.675635418996434
 21
-1.22689372971469
 31
0.0
  0
LINE
  5
2E9
  8
0
 10
-6.82348832827559
 20
-1.923910323096233
 30
0.0
 11
-6.707180647778414
 21
-2.06008912034185
 31
0.0
  0
LINE
  5
2EA
  8
0
 10
-5.675635418996434
 20
-1.22689372971469
 30
0.0
 11
-6.253617926605836
 21
-2.102836257956146
 31
0.0
  0
LINE
  5
2EB
  8
0
 10
-6.253617926605836
 20
-2.102836257956146
 30
0.0
 11
-6.40270547210425
 21
-2.416081599508937
 31
0.0
  0
LINE
  5
2EC
  8
0
 10
-6.613607965126781
 20
-2.21278586039629
 30
0.0
 11
-6.545074350317142
 21
-2.378240642747936
 31
0.0
  0
LINE
  5
2ED
  8
0
 10
-6.40270547210425
 20
-2.416081599508937
 30
0.0
 11
-6.446650550874403
 21
-2.567685538149028
 31
0.0
  0
LINE
  5
2EE
  8
0
 10
-6.545074350317142
 20
-2.378240642747936
 30
0.0
 11
-6.503267328396387
 21
-2.55237942154238
 31
0.0
  0
LINE
  5
2EF
  8
0
 10
-6.503267328396387
 20
-2.55237942154238
 30
0.0
 11
-6.489216326993855
 21
-2.730914322112199
 31
0.0
  0
LINE
  5
2F0
  8
0
 10
-6.446650550874403
 20
-2.567685538149028
 30
0.0
 11
-6.489216326993855
 21
-2.730914322112199
 31
0.0
  0
LINE
  5
2F1
  8
0
 10
-6.489216326993855
 20
-2.730914322112199
 30
0.0
 11
-6.503267328396387
 21
-2.909449222682042
 31
0.0
  0
LINE
  5
2F2
  8
0
 10
-7.809027227861467
 20
-3.858139321007314
 30
0.0
 11
-7.983166006655764
 21
-3.816332299086626
 31
0.0
  0
LINE
  5
2F3
  8
0
 10
-7.451957426721714
 20
-3.858139321007314
 30
0.0
 11
-7.630492327291501
 21
-3.872190322409935
 31
0.0
  0
LINE
  5
2F4
  8
0
 10
-7.277818647927237
 20
-3.816332299086626
 30
0.0
 11
-7.451957426721714
 21
-3.858139321007314
 31
0.0
  0
LINE
  5
2F5
  8
0
 10
-7.11236386557559
 20
-3.747798684277077
 30
0.0
 11
-7.277818647927237
 21
-3.816332299086626
 31
0.0
  0
LINE
  5
2F6
  8
0
 10
-6.959667125521174
 20
-3.654226001625342
 30
0.0
 11
-7.11236386557559
 21
-3.747798684277077
 31
0.0
  0
LINE
  5
2F7
  8
0
 10
-6.82348832827559
 20
-3.537918321128178
 30
0.0
 11
-6.959667125521174
 21
-3.654226001625342
 31
0.0
  0
LINE
  5
2F8
  8
0
 10
-6.707180647778414
 20
-3.40173952388256
 30
0.0
 11
-6.82348832827559
 21
-3.537918321128178
 31
0.0
  0
LINE
  5
2F9
  8
0
 10
-6.613607965126781
 20
-3.249042783828132
 30
0.0
 11
-6.707180647778414
 21
-3.40173952388256
 31
0.0
  0
LINE
  5
2FA
  8
0
 10
-6.545074350317142
 20
-3.083588001476463
 30
0.0
 11
-6.613607965126781
 21
-3.249042783828132
 31
0.0
  0
LINE
  5
2FB
  8
0
 10
-6.503267328396387
 20
-2.909449222682042
 30
0.0
 11
-6.545074350317142
 21
-3.083588001476463
 31
0.0
  0
LINE
  5
2FC
  8
0
 10
-52.45355813355766
 20
67.96961386100746
 30
0.0
 11
-52.61861281442607
 21
67.96435956953611
 31
0.0
  0
LINE
  5
2FD
  8
0
 10
-52.61861281442607
 20
67.96435956953611
 30
0.0
 11
-52.77261210300594
 21
67.95621068279809
 31
0.0
  0
LINE
  5
2FE
  8
0
 10
-52.77261210300594
 20
67.95621068279809
 30
0.0
 11
-53.1018188952151
 21
67.8845121256654
 31
0.0
  0
LINE
  5
2FF
  8
0
 10
-53.1018188952151
 20
67.8845121256654
 30
0.0
 11
-54.04149589445487
 21
67.53575288100943
 31
0.0
  0
LINE
  5
300
  8
0
 10
-54.04149589445487
 20
67.53575288100943
 30
0.0
 11
-54.57317997816629
 21
67.31085997551779
 31
0.0
  0
LINE
  5
301
  8
0
 10
-54.57317997816629
 20
67.31085997551779
 30
0.0
 11
-55.30637869732416
 21
66.99094607969793
 31
0.0
  0
LINE
  5
302
  8
0
 10
-55.30637869732416
 20
66.99094607969793
 30
0.0
 11
-56.5812405621488
 21
66.42347247137134
 31
0.0
  0
LINE
  5
303
  8
0
 10
-56.5812405621488
 20
66.42347247137134
 30
0.0
 11
-58.8672195919608
 21
65.39347460956465
 31
0.0
  0
LINE
  5
304
  8
0
 10
-58.8672195919608
 20
65.39347460956465
 30
0.0
 11
-47.79279376117426
 21
62.86580918106991
 31
0.0
  0
LINE
  5
305
  8
0
 10
-58.8672195919608
 20
65.39347460956465
 30
0.0
 11
-59.5327094130243
 21
67.01106560646717
 31
0.0
  0
LINE
  5
306
  8
0
 10
-59.5327094130243
 20
67.01106560646717
 30
0.0
 11
-59.81180962135212
 21
68.73779094910579
 31
0.0
  0
LINE
  5
307
  8
0
 10
-59.81180962135212
 20
68.73779094910579
 30
0.0
 11
-59.68981411885976
 21
70.48266757298809
 31
0.0
  0
LINE
  5
308
  8
0
 10
-59.68981411885976
 20
70.48266757298809
 30
0.0
 11
-59.17315098324821
 21
72.15375600257501
 31
0.0
  0
LINE
  5
309
  8
0
 10
-59.17315098324821
 20
72.15375600257501
 30
0.0
 11
-58.28904376549434
 21
73.6630047437422
 31
0.0
  0
LINE
  5
30A
  8
0
 10
-58.28904376549434
 20
73.6630047437422
 30
0.0
 11
-57.0840770508967
 21
74.93088981420829
 31
0.0
  0
LINE
  5
30B
  8
0
 10
-57.0840770508967
 20
74.93088981420829
 30
0.0
 11
-55.62174186584958
 21
75.89060494995039
 31
0.0
  0
LINE
  5
30C
  8
0
 10
-55.62174186584958
 20
75.89060494995039
 30
0.0
 11
-53.9790902655732
 21
76.49158170100523
 31
0.0
  0
LINE
  5
30D
  8
0
 10
-53.9790902655732
 20
76.49158170100523
 30
0.0
 11
-52.24267537626304
 21
76.70215393892177
 31
0.0
  0
LINE
  5
30E
  8
0
 10
-5.089976794336225
 20
29.98024156241724
 30
0.0
 11
-5.797237473898044
 21
30.35401635244344
 31
0.0
  0
LINE
  5
30F
  8
0
 10
-5.797237473898044
 20
30.35401635244344
 30
0.0
 11
-7.035769577854327
 21
30.99692948654572
 31
0.0
  0
LINE
  5
310
  8
0
 10
-3.230128064076804
 20
29.76977683306075
 30
0.0
 11
-3.133152720485852
 21
29.92033553954199
 31
0.0
  0
LINE
  5
311
  8
0
 10
-3.302356909561416
 20
29.60590146809742
 30
0.0
 11
-3.230128064076804
 21
29.76977683306075
 31
0.0
  0
LINE
  5
312
  8
0
 10
-9.26633894544025
 20
32.14198669754168
 30
0.0
 11
-8.416581494978894
 21
33.67083908105831
 31
0.0
  0
LINE
  5
313
  8
0
 10
-7.035769577854327
 20
30.99692948654572
 30
0.0
 11
-9.26633894544025
 21
32.14198669754168
 31
0.0
  0
LINE
  5
314
  8
0
 10
-8.416581494978894
 20
33.67083908105831
 30
0.0
 11
-7.240589394117714
 21
34.96564405243865
 31
0.0
  0
LINE
  5
315
  8
0
 10
-3.133152720485852
 20
29.92033553954199
 30
0.0
 11
-3.01381873359019
 21
30.05387033251182
 31
0.0
  0
LINE
  5
316
  8
0
 10
-2.875064502194203
 20
30.16709314219075
 30
0.0
 11
-2.720306615973637
 21
30.2572160472396
 31
0.0
  0
LINE
  5
317
  8
0
 10
-7.240589394117714
 20
34.96564405243865
 30
0.0
 11
-5.800326964867281
 21
35.95817690836288
 31
0.0
  0
LINE
  5
318
  8
0
 10
-3.01381873359019
 20
30.05387033251182
 30
0.0
 11
-2.875064502194203
 21
30.16709314219075
 31
0.0
  0
LINE
  5
319
  8
0
 10
-2.553355727699333
 20
30.3220199226352
 30
0.0
 11
-2.378322722318595
 21
30.35990908189364
 31
0.0
  0
LINE
  5
31A
  8
0
 10
-5.800326964867281
 20
35.95817690836288
 30
0.0
 11
-4.171683224578008
 21
36.59613999696273
 31
0.0
  0
LINE
  5
31B
  8
0
 10
-2.720306615973637
 20
30.2572160472396
 30
0.0
 11
-2.553355727699333
 21
30.3220199226352
 31
0.0
  0
LINE
  5
31C
  8
0
 10
-4.171683224578008
 20
36.59613999696273
 30
0.0
 11
-2.440473209839058
 21
36.84591833883142
 31
0.0
  0
LINE
  5
31D
  8
0
 10
-2.378322722318595
 20
30.35990908189364
 30
0.0
 11
-2.199517493325411
 21
30.36995056816705
 31
0.0
  0
LINE
  5
31E
  8
0
 10
-2.440473209839058
 20
36.84591833883142
 30
0.0
 11
-0.6979162874666979
 21
36.69435083739741
 31
0.0
  0
LINE
  5
31F
  8
0
 10
-2.199517493325411
 20
30.36995056816705
 30
0.0
 11
-2.021342818877978
 21
30.35189712673759
 31
0.0
  0
LINE
  5
320
  8
0
 10
-2.021342818877978
 20
30.35189712673759
 30
0.0
 11
-1.848185950789054
 21
30.30619329324919
 31
0.0
  0
LINE
  5
321
  8
0
 10
-0.6979162874666979
 20
36.69435083739741
 30
0.0
 11
0.964170294633703
 21
36.14942375163157
 31
0.0
  0
LINE
  5
322
  8
0
 10
-1.684310585825705
 20
30.23396444776467
 30
0.0
 11
-1.533751879344548
 21
30.13698910417362
 31
0.0
  0
LINE
  5
323
  8
0
 10
0.964170294633703
 20
36.14942375163157
 30
0.0
 11
2.458209359619019
 21
35.23984989124587
 31
0.0
  0
LINE
  5
324
  8
0
 10
-1.848185950789054
 20
30.30619329324919
 30
0.0
 11
-1.684310585825705
 21
30.23396444776467
 31
0.0
  0
LINE
  5
325
  8
0
 10
2.458209359619019
 20
35.23984989124587
 30
0.0
 11
3.705478339836412
 21
34.01355570705245
 31
0.0
  0
LINE
  5
326
  8
0
 10
-1.533751879344548
 20
30.13698910417362
 30
0.0
 11
-1.400217086374692
 21
30.01765511727803
 31
0.0
  0
LINE
  5
327
  8
0
 10
-1.286994276695786
 20
29.87890088588202
 30
0.0
 11
-1.196871371646899
 21
29.72414299966143
 31
0.0
  0
LINE
  5
328
  8
0
 10
3.705478339836412
 20
34.01355570705245
 30
0.0
 11
4.640257255817118
 21
32.53515599336291
 31
0.0
  0
LINE
  5
329
  8
0
 10
-1.400217086374692
 20
30.01765511727803
 30
0.0
 11
-1.286994276695786
 21
29.87890088588202
 31
0.0
  0
LINE
  5
32A
  8
0
 10
-1.132067496251252
 20
29.55719211138708
 30
0.0
 11
-1.094178336992875
 21
29.38215910600643
 31
0.0
  0
LINE
  5
32B
  8
0
 10
4.640257255817118
 20
32.53515599336291
 30
0.0
 11
5.213291574544767
 21
30.88254926314562
 31
0.0
  0
LINE
  5
32C
  8
0
 10
-1.196871371646899
 20
29.72414299966143
 30
0.0
 11
-1.132067496251252
 21
29.55719211138708
 31
0.0
  0
LINE
  5
32D
  8
0
 10
5.213291574544767
 20
30.88254926314562
 30
0.0
 11
5.39438748517439
 21
29.14281318938261
 31
0.0
  0
LINE
  5
32E
  8
0
 10
-1.094178336992875
 20
29.38215910600643
 30
0.0
 11
-1.084136850719451
 21
29.2033538770132
 31
0.0
  0
LINE
  5
32F
  8
0
 10
-1.102190292148927
 20
29.02517920256577
 30
0.0
 11
-1.14789412563733
 21
28.85202233447687
 31
0.0
  0
LINE
  5
330
  8
0
 10
5.39438748517439
 20
29.14281318938261
 30
0.0
 11
5.174002844256991
 21
27.40761638635223
 31
0.0
  0
LINE
  5
331
  8
0
 10
-1.084136850719451
 20
29.2033538770132
 30
0.0
 11
-1.102190292148927
 21
29.02517920256577
 31
0.0
  0
LINE
  5
332
  8
0
 10
5.174002844256991
 20
27.40761638635223
 30
0.0
 11
4.563749961812456
 21
25.76838828914691
 31
0.0
  0
LINE
  5
333
  8
0
 10
-1.14789412563733
 20
28.85202233447687
 30
0.0
 11
-1.220122971121852
 21
28.6881469695135
 31
0.0
  0
LINE
  5
334
  8
0
 10
-1.220122971121852
 20
28.6881469695135
 30
0.0
 11
-1.317098314712804
 21
28.53758826303232
 31
0.0
  0
LINE
  5
335
  8
0
 10
4.563749961812456
 20
25.76838828914691
 30
0.0
 11
3.595783735894988
 21
24.3115016358062
 31
0.0
  0
LINE
  5
336
  8
0
 10
3.595783735894988
 20
24.3115016358062
 30
0.0
 11
2.321107375517922
 21
23.11372139239965
 31
0.0
  0
LINE
  5
337
  8
0
 10
-1.317098314712804
 20
28.53758826303232
 30
0.0
 11
-1.436432301608466
 21
28.40405347006249
 31
0.0
  0
LINE
  5
338
  8
0
 10
-1.575186533004453
 20
28.29083066038353
 30
0.0
 11
-1.72994441922502
 21
28.20070775533472
 31
0.0
  0
LINE
  5
339
  8
0
 10
2.321107375517922
 20
23.11372139239965
 30
0.0
 11
0.8068849852666635
 21
22.23815992222134
 31
0.0
  0
LINE
  5
33A
  8
0
 10
-1.436432301608466
 20
28.40405347006249
 30
0.0
 11
-1.575186533004453
 21
28.29083066038353
 31
0.0
  0
LINE
  5
33B
  8
0
 10
-1.896895307499504
 20
28.13590387993909
 30
0.0
 11
-2.071928312880061
 21
28.09801472068064
 31
0.0
  0
LINE
  5
33C
  8
0
 10
0.8068849852666635
 20
22.23815992222134
 30
0.0
 11
-0.8670973855167151
 21
21.73095152569602
 31
0.0
  0
LINE
  5
33D
  8
0
 10
-1.72994441922502
 20
28.20070775533472
 30
0.0
 11
-1.896895307499504
 21
28.13590387993909
 31
0.0
  0
LINE
  5
33E
  8
0
 10
-0.8670973855167151
 20
21.73095152569602
 30
0.0
 11
-2.612635757751379
 21
21.61882157316063
 31
0.0
  0
LINE
  5
33F
  8
0
 10
-2.071928312880061
 20
28.09801472068064
 30
0.0
 11
-2.250733541873246
 21
28.08797323440724
 31
0.0
  0
LINE
  5
340
  8
0
 10
-4.337755787647091
 20
21.90767831559825
 30
0.0
 11
-4.070632355201251
 21
23.22755125125409
 31
0.0
  0
LINE
  5
341
  8
0
 10
-4.070632355201251
 20
23.22755125125409
 30
0.0
 11
-3.852597611525924
 21
24.31373263396423
 31
0.0
  0
LINE
  5
342
  8
0
 10
-3.852597611525924
 20
24.31373263396423
 30
0.0
 11
-3.67568908671615
 21
25.20637631254635
 31
0.0
  0
LINE
  5
343
  8
0
 10
-2.428908216320679
 20
28.10602667583672
 30
0.0
 11
-2.602065084409602
 21
28.15173050932512
 31
0.0
  0
LINE
  5
344
  8
0
 10
-2.612635757751379
 20
21.61882157316063
 30
0.0
 11
-4.337755787647091
 21
21.90767831559825
 31
0.0
  0
LINE
  5
345
  8
0
 10
-2.250733541873246
 20
28.08797323440724
 30
0.0
 11
-2.428908216320679
 21
28.10602667583672
 31
0.0
  0
LINE
  5
346
  8
0
 10
-3.67568908671615
 20
25.20637631254635
 30
0.0
 11
-3.533485533435369
 21
25.93855490272788
 31
0.0
  0
LINE
  5
347
  8
0
 10
-2.765940449372951
 20
28.22395935480964
 30
0.0
 11
-2.916499155854289
 21
28.32093469840067
 31
0.0
  0
LINE
  5
348
  8
0
 10
-3.533485533435369
 20
25.93855490272788
 30
0.0
 11
-3.420868823602058
 21
26.53751082523954
 31
0.0
  0
LINE
  5
349
  8
0
 10
-3.420868823602058
 20
26.53751082523954
 30
0.0
 11
-3.333820654838011
 21
27.02570554604197
 31
0.0
  0
LINE
  5
34A
  8
0
 10
-2.602065084409602
 20
28.15173050932512
 30
0.0
 11
-2.765940449372951
 21
28.22395935480964
 31
0.0
  0
LINE
  5
34B
  8
0
 10
-3.333820654838011
 20
27.02570554604197
 30
0.0
 11
-3.193133628695174
 21
28.0656797056054
 31
0.0
  0
LINE
  5
34C
  8
0
 10
-3.193133628695174
 20
28.0656797056054
 30
0.0
 11
-3.194722451663236
 21
28.41259066805662
 31
0.0
  0
LINE
  5
34D
  8
0
 10
-2.916499155854289
 20
28.32093469840067
 30
0.0
 11
-3.050033948823964
 21
28.44026868529626
 31
0.0
  0
LINE
  5
34E
  8
0
 10
-3.194722451663236
 20
28.41259066805662
 30
0.0
 11
-3.220907787555905
 21
28.56824815211533
 31
0.0
  0
LINE
  5
34F
  8
0
 10
-3.050033948823964
 20
28.44026868529626
 30
0.0
 11
-3.163256758503051
 21
28.57902291669229
 31
0.0
  0
LINE
  5
350
  8
0
 10
-3.163256758503051
 20
28.57902291669229
 30
0.0
 11
-3.253379663551757
 21
28.73378080291281
 31
0.0
  0
LINE
  5
351
  8
0
 10
-3.220907787555905
 20
28.56824815211533
 30
0.0
 11
-3.253379663551757
 21
28.73378080291281
 31
0.0
  0
LINE
  5
352
  8
0
 10
-3.253379663551757
 20
28.73378080291281
 30
0.0
 11
-3.318183538947405
 21
28.90073169118721
 31
0.0
  0
LINE
  5
353
  8
0
 10
-3.348060743049729
 20
29.43274460000854
 30
0.0
 11
-3.302356909561416
 21
29.60590146809742
 31
0.0
  0
LINE
  5
354
  8
0
 10
-3.366114184479206
 20
29.25456992556111
 30
0.0
 11
-3.348060743049729
 21
29.43274460000854
 31
0.0
  0
LINE
  5
355
  8
0
 10
-3.356072698205962
 20
29.07576469656788
 30
0.0
 11
-3.366114184479206
 21
29.25456992556111
 31
0.0
  0
LINE
  5
356
  8
0
 10
-3.318183538947405
 20
28.90073169118721
 30
0.0
 11
-3.356072698205962
 21
29.07576469656788
 31
0.0
  0
LINE
  5
357
  8
0
 10
-6.489216326993855
 20
-2.730914322112199
 30
0.0
 11
-6.44736564983894
 21
-2.890661547681649
 31
0.0
  0
LINE
  5
358
  8
0
 10
-6.44736564983894
 20
-2.890661547681649
 30
0.0
 11
-6.405153007181439
 21
-3.038986454686653
 31
0.0
  0
LINE
  5
359
  8
0
 10
-6.405153007181439
 20
-3.038986454686653
 30
0.0
 11
-6.261996679702427
 21
-3.34398491539468
 31
0.0
  0
LINE
  5
35A
  8
0
 10
-6.261996679702427
 20
-3.34398491539468
 30
0.0
 11
-5.712883753967756
 21
-4.182496017542106
 31
0.0
  0
LINE
  5
35B
  8
0
 10
-5.712883753967756
 20
-4.182496017542106
 30
0.0
 11
-5.375318544275195
 21
-4.650806291845019
 31
0.0
  0
LINE
  5
35C
  8
0
 10
-5.375318544275195
 20
-4.650806291845019
 30
0.0
 11
-4.900273493982969
 21
-5.294434649444502
 31
0.0
  0
LINE
  5
35D
  8
0
 10
-4.900273493982969
 20
-5.294434649444502
 30
0.0
 11
-4.063344180972746
 21
-6.411058308317878
 31
0.0
  0
LINE
  5
35E
  8
0
 10
-4.063344180972746
 20
-6.411058308317878
 30
0.0
 11
-2.550492327291519
 21
-8.41052698496167
 31
0.0
  0
LINE
  5
35F
  8
0
 10
-2.550492327291519
 20
-8.41052698496167
 30
0.0
 11
-2.550492327291519
 21
2.94869834073726
 31
0.0
  0
LINE
  5
360
  8
0
 10
-2.550492327291519
 20
-8.41052698496167
 30
0.0
 11
-3.979441524144337
 21
-9.419279446179395
 31
0.0
  0
LINE
  5
361
  8
0
 10
-3.979441524144337
 20
-9.419279446179395
 30
0.0
 11
-5.600768618330043
 21
-10.07561456550399
 31
0.0
  0
LINE
  5
362
  8
0
 10
-5.600768618330043
 20
-10.07561456550399
 30
0.0
 11
-7.329044095419478
 21
-10.34494932094832
 31
0.0
  0
LINE
  5
363
  8
0
 10
-31.65105639448619
 20
-50.79237714719622
 30
0.0
 11
-31.70063402628568
 21
-50.62028937951055
 31
0.0
  0
LINE
  5
364
  8
0
 10
-31.70063402628568
 20
-50.62028937951055
 30
0.0
 11
-31.72268081729057
 21
-50.44256464749983
 31
0.0
  0
LINE
  5
365
  8
0
 10
-31.72268081729057
 20
-50.44256464749983
 30
0.0
 11
-31.71665390233713
 21
-50.26357912390073
 31
0.0
  0
LINE
  5
366
  8
0
 10
-31.68270168407367
 20
-50.0877400263232
 30
0.0
 11
-31.62166017879481
 21
-49.91937709692606
 31
0.0
  0
LINE
  5
367
  8
0
 10
-31.71665390233713
 20
-50.26357912390073
 30
0.0
 11
-31.68270168407367
 21
-50.0877400263232
 31
0.0
  0
LINE
  5
368
  8
0
 10
-31.62166017879481
 20
-49.91937709692606
 30
0.0
 11
-31.53503243094568
 21
-49.7626359897956
 31
0.0
  0
LINE
  5
369
  8
0
 10
-31.4249515031794
 20
-49.6213761911833
 30
0.0
 11
-31.29412795327491
 21
-49.49907598614539
 31
0.0
  0
LINE
  5
36A
  8
0
 10
-31.53503243094568
 20
-49.7626359897956
 30
0.0
 11
-31.4249515031794
 21
-49.6213761911833
 31
0.0
  0
LINE
  5
36B
  8
0
 10
-31.14578309120973
 20
-49.398746811621
 30
0.0
 11
-30.98356965981608
 21
-49.32285910486038
 31
0.0
  0
LINE
  5
36C
  8
0
 10
-31.29412795327491
 20
-49.49907598614539
 30
0.0
 11
-31.14578309120973
 21
-49.398746811621
 31
0.0
  0
LINE
  5
36D
  8
0
 10
-30.98356965981608
 20
-49.32285910486038
 30
0.0
 11
-30.81148189213031
 21
-49.2732814730608
 31
0.0
  0
LINE
  5
36E
  8
0
 10
-30.6337571601196
 20
-49.25123468205592
 30
0.0
 11
-30.45477163652054
 21
-49.25726159700938
 31
0.0
  0
LINE
  5
36F
  8
0
 10
-30.81148189213031
 20
-49.2732814730608
 30
0.0
 11
-30.6337571601196
 21
-49.25123468205592
 31
0.0
  0
LINE
  5
370
  8
0
 10
-30.45477163652054
 20
-49.25726159700938
 30
0.0
 11
-30.27893253894297
 21
-49.29121381527283
 31
0.0
  0
LINE
  5
371
  8
0
 10
-30.27893253894297
 20
-49.29121381527283
 30
0.0
 11
-30.11056960954589
 21
-49.35225532055168
 31
0.0
  0
LINE
  5
372
  8
0
 10
-30.11056960954589
 20
-49.35225532055168
 30
0.0
 11
-29.95382850241538
 21
-49.43888306840084
 31
0.0
  0
LINE
  5
373
  8
0
 10
-29.81256870380314
 20
-49.54896399616722
 30
0.0
 11
-29.69026849876521
 21
-49.6797875460716
 31
0.0
  0
LINE
  5
374
  8
0
 10
-29.95382850241538
 20
-49.43888306840084
 30
0.0
 11
-29.81256870380314
 21
-49.54896399616722
 31
0.0
  0
LINE
  5
375
  8
0
 10
-29.58993932424078
 20
-49.82813240813681
 30
0.0
 11
-29.51405161748022
 21
-49.99034583953048
 31
0.0
  0
LINE
  5
376
  8
0
 10
-29.69026849876521
 20
-49.6797875460716
 30
0.0
 11
-29.58993932424078
 21
-49.82813240813681
 31
0.0
  0
LINE
  5
377
  8
0
 10
-29.51405161748022
 20
-49.99034583953048
 30
0.0
 11
-29.46447398568063
 21
-50.16243360721616
 31
0.0
  0
LINE
  5
378
  8
0
 10
-29.44242719467583
 20
-50.34015833922687
 30
0.0
 11
-29.44845410962918
 21
-50.51914386282596
 31
0.0
  0
LINE
  5
379
  8
0
 10
-29.46447398568063
 20
-50.16243360721616
 30
0.0
 11
-29.44242719467583
 21
-50.34015833922687
 31
0.0
  0
LINE
  5
37A
  8
0
 10
-29.48240632789264
 20
-50.6949829604035
 30
0.0
 11
-29.5434478331715
 21
-50.86334588980063
 31
0.0
  0
LINE
  5
37B
  8
0
 10
-29.44845410962918
 20
-50.51914386282596
 30
0.0
 11
-29.48240632789264
 21
-50.6949829604035
 31
0.0
  0
LINE
  5
37C
  8
0
 10
-29.5434478331715
 20
-50.86334588980063
 30
0.0
 11
-29.63007558102063
 21
-51.0200869969311
 31
0.0
  0
LINE
  5
37D
  8
0
 10
-29.63007558102063
 20
-51.0200869969311
 30
0.0
 11
-29.74015650878701
 21
-51.16134679554338
 31
0.0
  0
LINE
  5
37E
  8
0
 10
-29.74015650878701
 20
-51.16134679554338
 30
0.0
 11
-29.87098005869149
 21
-51.2836470005813
 31
0.0
  0
LINE
  5
37F
  8
0
 10
-3.253379663551757
 20
28.73378080291281
 30
0.0
 11
-3.360397544312784
 21
28.85954975159613
 31
0.0
  0
LINE
  5
380
  8
0
 10
-3.360397544312784
 20
28.85954975159613
 30
0.0
 11
-3.462785586434615
 21
28.97487049590787
 31
0.0
  0
LINE
  5
381
  8
0
 10
-3.462785586434615
 20
28.97487049590787
 30
0.0
 11
-3.724098853293427
 21
29.18755141111905
 31
0.0
  0
LINE
  5
382
  8
0
 10
-3.724098853293427
 20
29.18755141111905
 30
0.0
 11
-4.582648836634593
 21
29.70477264012889
 31
0.0
  0
LINE
  5
383
  8
0
 10
-4.582648836634593
 20
29.70477264012889
 30
0.0
 11
-5.089976794336225
 21
29.98024156241724
 31
0.0
  0
LINE
  5
384
  8
0
 10
-9.26633894544025
 20
32.14198669754168
 30
0.0
 11
-4.337755787647091
 21
21.90767831559825
 31
0.0
  0
LINE
  5
385
  8
0
 10
-3.133152720485852
 20
-35.38216418376641
 30
0.0
 11
-3.230128064076804
 21
-35.23160547728519
 31
0.0
  0
LINE
  5
386
  8
0
 10
-3.348060743049729
 20
-34.89457324423294
 30
0.0
 11
-3.366114184479206
 21
-34.71639856978552
 31
0.0
  0
LINE
  5
387
  8
0
 10
-3.302356909561416
 20
-35.06773011232185
 30
0.0
 11
-3.348060743049729
 21
-34.89457324423294
 31
0.0
  0
LINE
  5
388
  8
0
 10
-3.366114184479206
 20
-34.71639856978552
 30
0.0
 11
-3.356072698205962
 21
-34.53759334079229
 31
0.0
  0
LINE
  5
389
  8
0
 10
-3.356072698205962
 20
-34.53759334079229
 30
0.0
 11
-3.318183538947405
 21
-34.36256033541163
 31
0.0
  0
LINE
  5
38A
  8
0
 10
-3.318183538947405
 20
-34.36256033541163
 30
0.0
 11
-3.253379663551847
 21
-34.19560944713726
 31
0.0
  0
LINE
  5
38B
  8
0
 10
-29.2330356547105
 20
-51.07624497945119
 30
0.0
 11
-29.57089528867537
 21
-51.15498891867462
 31
0.0
  0
LINE
  5
38C
  8
0
 10
-29.57089528867537
 20
-51.15498891867462
 30
0.0
 11
-29.71682332922543
 21
-51.21515478225626
 31
0.0
  0
LINE
  5
38D
  8
0
 10
-29.71682332922543
 20
-51.21515478225626
 30
0.0
 11
-29.87098005869149
 21
-51.2836470005813
 31
0.0
  0
LINE
  5
38E
  8
0
 10
-29.87098005869149
 20
-51.2836470005813
 30
0.0
 11
-29.9697819984715
 21
-51.41596794356136
 31
0.0
  0
LINE
  5
38F
  8
0
 10
-29.9697819984715
 20
-51.41596794356136
 30
0.0
 11
-30.0594279281958
 21
-51.54145018342845
 31
0.0
  0
LINE
  5
390
  8
0
 10
-30.0594279281958
 20
-51.54145018342845
 30
0.0
 11
-30.2086288166269
 21
-51.84353773700008
 31
0.0
  0
LINE
  5
391
  8
0
 10
-30.2086288166269
 20
-51.84353773700008
 30
0.0
 11
-30.52183688542033
 21
-52.7956546307038
 31
0.0
  0
LINE
  5
392
  8
0
 10
-30.52183688542033
 20
-52.7956546307038
 30
0.0
 11
-30.67750813572792
 21
-53.35156041916096
 31
0.0
  0
LINE
  5
393
  8
0
 10
-30.67750813572792
 20
-53.35156041916096
 30
0.0
 11
-30.88453130442781
 21
-54.12426131222035
 31
0.0
  0
LINE
  5
394
  8
0
 10
-30.88453130442781
 20
-54.12426131222035
 30
0.0
 11
-31.23572594346509
 21
-55.47480246155383
 31
0.0
  0
LINE
  5
395
  8
0
 10
-31.23572594346509
 20
-55.47480246155383
 30
0.0
 11
-31.85572580058058
 21
-57.90424599809532
 31
0.0
  0
LINE
  5
396
  8
0
 10
-31.85572580058058
 20
-57.90424599809532
 30
0.0
 11
-22.97472582450095
 21
-50.8218848505066
 31
0.0
  0
LINE
  5
397
  8
0
 10
-22.97472582450095
 20
-50.8218848505066
 30
0.0
 11
-24.32094734567474
 21
-50.85515811856315
 31
0.0
  0
LINE
  5
398
  8
0
 10
-24.32094734567474
 20
-50.85515811856315
 30
0.0
 11
-25.42841318816869
 21
-50.88428805685513
 31
0.0
  0
LINE
  5
399
  8
0
 10
-25.42841318816869
 20
-50.88428805685513
 30
0.0
 11
-26.33804227621658
 21
-50.91044690316359
 31
0.0
  0
LINE
  5
39A
  8
0
 10
-26.33804227621658
 20
-50.91044690316359
 30
0.0
 11
-27.08350688797453
 21
-50.93473375356873
 31
0.0
  0
LINE
  5
39B
  8
0
 10
-27.08350688797453
 20
-50.93473375356873
 30
0.0
 11
-27.69250531044883
 21
-50.95822081105008
 31
0.0
  0
LINE
  5
39C
  8
0
 10
-27.69250531044883
 20
-50.95822081105008
 30
0.0
 11
-28.18783001015158
 21
-50.98198866684318
 31
0.0
  0
LINE
  5
39D
  8
0
 10
-28.18783001015158
 20
-50.98198866684318
 30
0.0
 11
-29.2330356547105
 21
-51.07624497945119
 31
0.0
  0
LINE
  5
39E
  8
0
 10
-31.85572580058058
 20
-57.90424599809532
 30
0.0
 11
-33.53533548438969
 21
-57.41599540131752
 31
0.0
  0
LINE
  5
39F
  8
0
 10
-33.53533548438969
 20
-57.41599540131752
 30
0.0
 11
-35.05935985242904
 21
-56.55760908920542
 31
0.0
  0
LINE
  5
3A0
  8
0
 10
-35.05935985242904
 20
-56.55760908920542
 30
0.0
 11
-36.34749637832617
 21
-55.37431638414506
 31
0.0
  0
LINE
  5
3A1
  8
0
 10
-36.34749637832617
 20
-55.37431638414506
 30
0.0
 11
-37.3318717265151
 21
-53.92846628504176
 31
0.0
  0
LINE
  5
3A2
  8
0
 10
-37.3318717265151
 20
-53.92846628504176
 30
0.0
 11
-37.96061807321555
 21
-52.29624222973872
 31
0.0
  0
LINE
  5
3A3
  8
0
 10
-37.96061807321555
 20
-52.29624222973872
 30
0.0
 11
-38.20060607932628
 21
-50.56364790557562
 31
0.0
  0
LINE
  5
3A4
  8
0
 10
-38.20060607932628
 20
-50.56364790557562
 30
0.0
 11
-38.03919051187459
 21
-48.82197562016042
 31
0.0
  0
LINE
  5
3A5
  8
0
 10
-38.03919051187459
 20
-48.82197562016042
 30
0.0
 11
-37.48487653530118
 21
-47.16299600890093
 31
0.0
  0
LINE
  5
3A6
  8
0
 10
-37.48487653530118
 20
-47.16299600890093
 30
0.0
 11
-36.56687156495757
 21
-45.67412253891649
 31
0.0
  0
LINE
  5
3A7
  8
0
 10
-36.56687156495757
 20
-45.67412253891649
 30
0.0
 11
-35.33354629614679
 21
-44.43380559695697
 31
0.0
  0
LINE
  5
3A8
  8
0
 10
-35.33354629614679
 20
-44.43380559695697
 30
0.0
 11
-33.8498859987906
 21
-43.5073988519208
 31
0.0
  0
LINE
  5
3A9
  8
0
 10
-33.8498859987906
 20
-43.5073988519208
 30
0.0
 11
-32.19406637181835
 21
-42.94371569789482
 31
0.0
  0
LINE
  5
3AA
  8
0
 10
-32.19406637181835
 20
-42.94371569789482
 30
0.0
 11
-30.45333437928888
 21
-42.77245722253299
 31
0.0
  0
LINE
  5
3AB
  8
0
 10
-30.45333437928888
 20
-42.77245722253299
 30
0.0
 11
-28.7194111115396
 21
-43.00264722396
 31
0.0
  0
LINE
  5
3AC
  8
0
 10
-28.7194111115396
 20
-43.00264722396
 30
0.0
 11
-27.08365889968325
 21
-43.62215673688635
 31
0.0
  0
LINE
  5
3AD
  8
0
 10
-27.08365889968325
 20
-43.62215673688635
 30
0.0
 11
-25.63226733352312
 21
-44.59834312117906
 31
0.0
  0
LINE
  5
3AE
  8
0
 10
-25.63226733352312
 20
-44.59834312117906
 30
0.0
 11
-24.44171183691901
 21
-45.87977003860547
 31
0.0
  0
LINE
  5
3AF
  8
0
 10
-24.44171183691901
 20
-45.87977003860547
 30
0.0
 11
-23.57472409328044
 21
-47.39891769027716
 31
0.0
  0
LINE
  5
3B0
  8
0
 10
-23.57472409328044
 20
-47.39891769027716
 30
0.0
 11
-23.07698664391578
 21
-49.07574050939049
 31
0.0
  0
LINE
  5
3B1
  8
0
 10
-23.07698664391578
 20
-49.07574050939049
 30
0.0
 11
-22.97472582450095
 21
-50.8218848505066
 31
0.0
  0
LINE
  5
3B2
  8
0
 10
-29.87098005869149
 20
-51.2836470005813
 30
0.0
 11
-30.01932492075658
 21
-51.38397617510569
 31
0.0
  0
LINE
  5
3B3
  8
0
 10
-30.01932492075658
 20
-51.38397617510569
 30
0.0
 11
-30.18153835215033
 21
-51.45986388186633
 31
0.0
  0
LINE
  5
3B4
  8
0
 10
-30.18153835215033
 20
-51.45986388186633
 30
0.0
 11
-30.35362611983592
 21
-51.50944151366589
 31
0.0
  0
LINE
  5
3B5
  8
0
 10
-30.53135085184671
 20
-51.53148830467078
 30
0.0
 11
-30.71033637544578
 21
-51.52546138971733
 31
0.0
  0
LINE
  5
3B6
  8
0
 10
-30.35362611983592
 20
-51.50944151366589
 30
0.0
 11
-30.53135085184671
 21
-51.53148830467078
 31
0.0
  0
LINE
  5
3B7
  8
0
 10
-30.88617547302334
 20
-51.49150917145387
 30
0.0
 11
-31.05453840242052
 21
-51.43046766617501
 31
0.0
  0
LINE
  5
3B8
  8
0
 10
-30.71033637544578
 20
-51.52546138971733
 30
0.0
 11
-30.88617547302334
 21
-51.49150917145387
 31
0.0
  0
LINE
  5
3B9
  8
0
 10
-31.05453840242052
 20
-51.43046766617501
 30
0.0
 11
-31.21127950955103
 21
-51.34383991832587
 31
0.0
  0
LINE
  5
3BA
  8
0
 10
-31.35253930816318
 20
-51.23375899055947
 30
0.0
 11
-31.47483951320111
 21
-51.10293544065511
 31
0.0
  0
LINE
  5
3BB
  8
0
 10
-31.21127950955103
 20
-51.34383991832587
 30
0.0
 11
-31.35253930816318
 21
-51.23375899055947
 31
0.0
  0
LINE
  5
3BC
  8
0
 10
-31.57516868772562
 20
-50.95459057858989
 30
0.0
 11
-31.65105639448619
 21
-50.79237714719622
 31
0.0
  0
LINE
  5
3BD
  8
0
 10
-31.47483951320111
 20
-51.10293544065511
 30
0.0
 11
-31.57516868772562
 21
-50.95459057858989
 31
0.0
  0
LINE
  5
3BE
  8
0
 10
-3.050033948824054
 20
-33.90209732952068
 30
0.0
 11
-2.916499155854289
 21
-33.78276334262509
 31
0.0
  0
LINE
  5
3BF
  8
0
 10
-2.765940449372951
 20
-33.68578799903404
 30
0.0
 11
-2.602065084409602
 21
-33.61355915354952
 31
0.0
  0
LINE
  5
3C0
  8
0
 10
-2.916499155854289
 20
-33.78276334262509
 30
0.0
 11
-2.765940449372951
 21
-33.68578799903404
 31
0.0
  0
LINE
  5
3C1
  8
0
 10
-2.428908216320679
 20
-33.56785532006112
 30
0.0
 11
-2.250733541873246
 21
-33.54980187863166
 31
0.0
  0
LINE
  5
3C2
  8
0
 10
-2.602065084409602
 20
-33.61355915354952
 30
0.0
 11
-2.428908216320679
 21
-33.56785532006112
 31
0.0
  0
LINE
  5
3C3
  8
0
 10
-2.250733541873246
 20
-33.54980187863166
 30
0.0
 11
-2.071928312880061
 21
-33.55984336490507
 31
0.0
  0
LINE
  5
3C4
  8
0
 10
-1.896895307499504
 20
-33.59773252416351
 30
0.0
 11
-1.72994441922502
 21
-33.66253639955912
 31
0.0
  0
LINE
  5
3C5
  8
0
 10
-2.071928312880061
 20
-33.55984336490507
 30
0.0
 11
-1.896895307499504
 21
-33.59773252416351
 31
0.0
  0
LINE
  5
3C6
  8
0
 10
-1.575186533004544
 20
-33.75265930460793
 30
0.0
 11
-1.436432301608466
 21
-33.86588211428688
 31
0.0
  0
LINE
  5
3C7
  8
0
 10
-1.72994441922502
 20
-33.66253639955912
 30
0.0
 11
-1.575186533004544
 21
-33.75265930460793
 31
0.0
  0
LINE
  5
3C8
  8
0
 10
-1.436432301608466
 20
-33.86588211428688
 30
0.0
 11
-1.317098314712895
 21
-33.99941690725673
 31
0.0
  0
LINE
  5
3C9
  8
0
 10
-1.317098314712895
 20
-33.99941690725673
 30
0.0
 11
-1.220122971121852
 21
-34.14997561373794
 31
0.0
  0
LINE
  5
3CA
  8
0
 10
-1.220122971121852
 20
-34.14997561373794
 30
0.0
 11
-1.14789412563733
 21
-34.31385097870127
 31
0.0
  0
LINE
  5
3CB
  8
0
 10
-1.102190292148927
 20
-34.48700784679019
 30
0.0
 11
-1.084136850719451
 21
-34.66518252123762
 31
0.0
  0
LINE
  5
3CC
  8
0
 10
-1.14789412563733
 20
-34.31385097870127
 30
0.0
 11
-1.102190292148927
 21
-34.48700784679019
 31
0.0
  0
LINE
  5
3CD
  8
0
 10
-1.084136850719451
 20
-34.66518252123762
 30
0.0
 11
-1.094178336992875
 21
-34.84398775023084
 31
0.0
  0
LINE
  5
3CE
  8
0
 10
-1.132067496251252
 20
-35.0190207556115
 30
0.0
 11
-1.196871371646899
 21
-35.18597164388587
 31
0.0
  0
LINE
  5
3CF
  8
0
 10
-1.094178336992875
 20
-34.84398775023084
 30
0.0
 11
-1.132067496251252
 21
-35.0190207556115
 31
0.0
  0
LINE
  5
3D0
  8
0
 10
-1.286994276695786
 20
-35.34072953010644
 30
0.0
 11
-1.400217086374692
 21
-35.47948376150244
 31
0.0
  0
LINE
  5
3D1
  8
0
 10
-1.196871371646899
 20
-35.18597164388587
 30
0.0
 11
-1.286994276695786
 21
-35.34072953010644
 31
0.0
  0
LINE
  5
3D2
  8
0
 10
-1.400217086374692
 20
-35.47948376150244
 30
0.0
 11
-1.533751879344548
 21
-35.59881774839804
 31
0.0
  0
LINE
  5
3D3
  8
0
 10
-1.684310585825705
 20
-35.69579309198907
 30
0.0
 11
-1.848185950789054
 21
-35.7680219374736
 31
0.0
  0
LINE
  5
3D4
  8
0
 10
-1.533751879344548
 20
-35.59881774839804
 30
0.0
 11
-1.684310585825705
 21
-35.69579309198907
 31
0.0
  0
LINE
  5
3D5
  8
0
 10
-1.848185950789054
 20
-35.7680219374736
 30
0.0
 11
-2.021342818877978
 21
-35.813725770962
 31
0.0
  0
LINE
  5
3D6
  8
0
 10
-2.021342818877978
 20
-35.813725770962
 30
0.0
 11
-2.199517493325411
 21
-35.83177921239146
 31
0.0
  0
LINE
  5
3D7
  8
0
 10
-2.199517493325411
 20
-35.83177921239146
 30
0.0
 11
-2.378322722318595
 21
-35.82173772611807
 31
0.0
  0
LINE
  5
3D8
  8
0
 10
-2.553355727699333
 20
-35.78384856685962
 30
0.0
 11
-2.720306615973637
 21
-35.71904469146401
 31
0.0
  0
LINE
  5
3D9
  8
0
 10
-2.378322722318595
 20
-35.82173772611807
 30
0.0
 11
-2.553355727699333
 21
-35.78384856685962
 31
0.0
  0
LINE
  5
3DA
  8
0
 10
-2.875064502194203
 20
-35.6289217864152
 30
0.0
 11
-3.01381873359019
 21
-35.51569897673623
 31
0.0
  0
LINE
  5
3DB
  8
0
 10
-2.720306615973637
 20
-35.71904469146401
 30
0.0
 11
-2.875064502194203
 21
-35.6289217864152
 31
0.0
  0
LINE
  5
3DC
  8
0
 10
-3.01381873359019
 20
-35.51569897673623
 30
0.0
 11
-3.133152720485852
 21
-35.38216418376641
 31
0.0
  0
LINE
  5
3DD
  8
0
 10
-3.230128064076804
 20
-35.23160547728519
 30
0.0
 11
-3.302356909561416
 21
-35.06773011232185
 31
0.0
  0
LINE
  5
3DE
  8
0
 10
-81.189022453818
 20
-61.55532440840067
 30
0.0
 11
-81.10593348284833
 21
-61.71396981257332
 31
0.0
  0
LINE
  5
3DF
  8
0
 10
-81.10593348284833
 20
-61.71396981257332
 30
0.0
 11
-81.0486850839224
 21
-61.88366000728802
 31
0.0
  0
LINE
  5
3E0
  8
0
 10
-81.0486850839224
 20
-61.88366000728802
 30
0.0
 11
-81.01868690261831
 21
-62.06021665678144
 31
0.0
  0
LINE
  5
3E1
  8
0
 10
-81.01667759371792
 20
-62.23929235038511
 30
0.0
 11
-81.04270663307504
 21
-62.41647765020437
 31
0.0
  0
LINE
  5
3E2
  8
0
 10
-81.01868690261831
 20
-62.06021665678144
 30
0.0
 11
-81.01667759371792
 21
-62.23929235038511
 31
0.0
  0
LINE
  5
3E3
  8
0
 10
-81.09613309935509
 20
-62.58740966611339
 30
0.0
 11
-81.17564145564614
 21
-62.74787948458962
 31
0.0
  0
LINE
  5
3E4
  8
0
 10
-81.04270663307504
 20
-62.41647765020437
 30
0.0
 11
-81.09613309935509
 21
-62.58740966611339
 31
0.0
  0
LINE
  5
3E5
  8
0
 10
-81.17564145564614
 20
-62.74787948458962
 30
0.0
 11
-81.27927394234317
 21
-62.89393580613338
 31
0.0
  0
LINE
  5
3E6
  8
0
 10
-81.40447878368705
 20
-63.02198223937515
 30
0.0
 11
-81.54817302095303
 21
-63.12886585616674
 31
0.0
  0
LINE
  5
3E7
  8
0
 10
-81.27927394234317
 20
-62.89393580613338
 30
0.0
 11
-81.40447878368705
 21
-63.02198223937515
 31
0.0
  0
LINE
  5
3E8
  8
0
 10
-81.70681842512566
 20
-63.2119548271364
 30
0.0
 11
-81.87650861984031
 21
-63.26920322606232
 31
0.0
  0
LINE
  5
3E9
  8
0
 10
-81.54817302095303
 20
-63.12886585616674
 30
0.0
 11
-81.70681842512566
 21
-63.2119548271364
 31
0.0
  0
LINE
  5
3EA
  8
0
 10
-81.87650861984031
 20
-63.26920322606232
 30
0.0
 11
-82.05306526933383
 21
-63.29920140736645
 31
0.0
  0
LINE
  5
3EB
  8
0
 10
-82.05306526933383
 20
-63.29920140736645
 30
0.0
 11
-82.23214096293746
 21
-63.30121071626678
 31
0.0
  0
LINE
  5
3EC
  8
0
 10
-82.23214096293746
 20
-63.30121071626678
 30
0.0
 11
-82.40932626275672
 21
-63.27518167690969
 31
0.0
  0
LINE
  5
3ED
  8
0
 10
-3.738159346562637
 20
-34.65926591466386
 30
0.0
 11
-3.467924049422584
 21
-34.44172827560602
 31
0.0
  0
LINE
  5
3EE
  8
0
 10
-3.467924049422584
 20
-34.44172827560602
 30
0.0
 11
-3.362552417791003
 21
-34.32420490173254
 31
0.0
  0
LINE
  5
3EF
  8
0
 10
-3.362552417791003
 20
-34.32420490173254
 30
0.0
 11
-3.253379663551847
 21
-34.19560944713726
 31
0.0
  0
LINE
  5
3F0
  8
0
 10
-3.253379663551847
 20
-34.19560944713726
 30
0.0
 11
-3.221774097225227
 21
-34.03352384187685
 31
0.0
  0
LINE
  5
3F1
  8
0
 10
-3.221774097225227
 20
-34.03352384187685
 30
0.0
 11
-3.195450608835946
 21
-33.88157233909655
 31
0.0
  0
LINE
  5
3F2
  8
0
 10
-3.195450608835946
 20
-33.88157233909655
 30
0.0
 11
-3.192096130580658
 21
-33.54466501859555
 31
0.0
  0
LINE
  5
3F3
  8
0
 10
-3.192096130580658
 20
-33.54466501859555
 30
0.0
 11
-3.323013449339066
 21
-32.55094145075461
 31
0.0
  0
LINE
  5
3F4
  8
0
 10
-3.323013449339066
 20
-32.55094145075461
 30
0.0
 11
-3.423956981277426
 21
-31.98254441771142
 31
0.0
  0
LINE
  5
3F5
  8
0
 10
-3.423956981277426
 20
-31.98254441771142
 30
0.0
 11
-3.572697904044382
 21
-31.19654098234508
 31
0.0
  0
LINE
  5
3F6
  8
0
 10
-3.572697904044382
 20
-31.19654098234508
 30
0.0
 11
-3.842260311402498
 21
-29.82736780883088
 31
0.0
  0
LINE
  5
3F7
  8
0
 10
-3.842260311402498
 20
-29.82736780883088
 30
0.0
 11
-4.337755787647091
 21
-27.36950695982263
 31
0.0
  0
LINE
  5
3F8
  8
0
 10
-4.337755787647091
 20
-27.36950695982263
 30
0.0
 11
-9.266338945440161
 21
-37.6038153417661
 31
0.0
  0
LINE
  5
3F9
  8
0
 10
-9.266338945440161
 20
-37.6038153417661
 30
0.0
 11
-8.067871995519553
 21
-36.98973353582637
 31
0.0
  0
LINE
  5
3FA
  8
0
 10
-8.067871995519553
 20
-36.98973353582637
 30
0.0
 11
-7.082718755713461
 21
-36.48297694761511
 31
0.0
  0
LINE
  5
3FB
  8
0
 10
-7.082718755713461
 20
-36.48297694761511
 30
0.0
 11
-6.274521164091188
 21
-36.06473537153865
 31
0.0
  0
LINE
  5
3FC
  8
0
 10
-6.274521164091188
 20
-36.06473537153865
 30
0.0
 11
-5.613418426239566
 21
-35.71940870229488
 31
0.0
  0
LINE
  5
3FD
  8
0
 10
-5.613418426239566
 20
-35.71940870229488
 30
0.0
 11
-5.074920459309411
 21
-35.43401308204567
 31
0.0
  0
LINE
  5
3FE
  8
0
 10
-5.074920459309411
 20
-35.43401308204567
 30
0.0
 11
-4.638960811516504
 21
-35.19768565113502
 31
0.0
  0
LINE
  5
3FF
  8
0
 10
-4.638960811516504
 20
-35.19768565113502
 30
0.0
 11
-3.738159346562637
 21
-34.65926591466386
 31
0.0
  0
LINE
  5
400
  8
0
 10
-4.337755787647091
 20
-27.36950695982263
 30
0.0
 11
-2.612635757751379
 21
-27.08065021738505
 31
0.0
  0
LINE
  5
401
  8
0
 10
-2.612635757751379
 20
-27.08065021738505
 30
0.0
 11
-0.8670973855167151
 21
-27.19278016992045
 31
0.0
  0
LINE
  5
402
  8
0
 10
-0.8670973855167151
 20
-27.19278016992045
 30
0.0
 11
0.8068849852666634
 21
-27.69998856644577
 31
0.0
  0
LINE
  5
403
  8
0
 10
0.8068849852666634
 20
-27.69998856644577
 30
0.0
 11
2.321107375517922
 21
-28.57555003662407
 31
0.0
  0
LINE
  5
404
  8
0
 10
2.321107375517922
 20
-28.57555003662407
 30
0.0
 11
3.595783735894988
 21
-29.77333028003062
 31
0.0
  0
LINE
  5
405
  8
0
 10
3.595783735894988
 20
-29.77333028003062
 30
0.0
 11
4.563749961812456
 21
-31.23021693337133
 31
0.0
  0
LINE
  5
406
  8
0
 10
4.563749961812456
 20
-31.23021693337133
 30
0.0
 11
5.174002844256991
 21
-32.86944503057665
 31
0.0
  0
LINE
  5
407
  8
0
 10
5.174002844256991
 20
-32.86944503057665
 30
0.0
 11
5.394387485174299
 21
-34.60464183360704
 31
0.0
  0
LINE
  5
408
  8
0
 10
5.394387485174299
 20
-34.60464183360704
 30
0.0
 11
5.213291574544767
 21
-36.34437790737007
 31
0.0
  0
LINE
  5
409
  8
0
 10
5.213291574544767
 20
-36.34437790737007
 30
0.0
 11
4.640257255817118
 21
-37.99698463758737
 31
0.0
  0
LINE
  5
40A
  8
0
 10
4.640257255817118
 20
-37.99698463758737
 30
0.0
 11
3.705478339836412
 21
-39.47538435127687
 31
0.0
  0
LINE
  5
40B
  8
0
 10
3.705478339836412
 20
-39.47538435127687
 30
0.0
 11
2.458209359619019
 21
-40.70167853547029
 31
0.0
  0
LINE
  5
40C
  8
0
 10
2.458209359619019
 20
-40.70167853547029
 30
0.0
 11
0.964170294633703
 21
-41.611252395856
 31
0.0
  0
LINE
  5
40D
  8
0
 10
0.964170294633703
 20
-41.611252395856
 30
0.0
 11
-0.6979162874666979
 21
-42.15617948162182
 31
0.0
  0
LINE
  5
40E
  8
0
 10
-0.6979162874666979
 20
-42.15617948162182
 30
0.0
 11
-2.440473209839058
 21
-42.30774698305584
 31
0.0
  0
LINE
  5
40F
  8
0
 10
-2.440473209839058
 20
-42.30774698305584
 30
0.0
 11
-4.171683224578008
 21
-42.05796864118714
 31
0.0
  0
LINE
  5
410
  8
0
 10
-4.171683224578008
 20
-42.05796864118714
 30
0.0
 11
-5.800326964867281
 21
-41.42000555258731
 31
0.0
  0
LINE
  5
411
  8
0
 10
-5.800326964867281
 20
-41.42000555258731
 30
0.0
 11
-7.240589394117714
 21
-40.42747269666308
 31
0.0
  0
LINE
  5
412
  8
0
 10
-7.240589394117714
 20
-40.42747269666308
 30
0.0
 11
-8.416581494978894
 21
-39.13266772528275
 31
0.0
  0
LINE
  5
413
  8
0
 10
-8.416581494978894
 20
-39.13266772528275
 30
0.0
 11
-9.266338945440161
 21
-37.6038153417661
 31
0.0
  0
LINE
  5
414
  8
0
 10
-3.253379663551847
 20
-34.19560944713726
 30
0.0
 11
-3.163256758503051
 21
-34.04085156091669
 31
0.0
  0
LINE
  5
415
  8
0
 10
-3.163256758503051
 20
-34.04085156091669
 30
0.0
 11
-3.050033948824054
 21
-33.90209732952068
 31
0.0
  0
LINE
  5
416
  8
0
 10
-81.12405339022874
 20
-64.4030404798444
 30
0.0
 11
-81.84942100307472
 21
-63.64463365094676
 31
0.0
  0
LINE
  5
417
  8
0
 10
-88.82298772115992
 20
-65.85132092835251
 30
0.0
 11
-89.48847754222328
 21
-64.23372993145
 31
0.0
  0
LINE
  5
418
  8
0
 10
-89.48847754222328
 20
-64.23372993145
 30
0.0
 11
-89.76757775055128
 21
-62.50700458881135
 31
0.0
  0
LINE
  5
419
  8
0
 10
-89.76757775055128
 20
-62.50700458881135
 30
0.0
 11
-89.64558224805879
 21
-60.76212796492907
 31
0.0
  0
LINE
  5
41A
  8
0
 10
-89.64558224805879
 20
-60.76212796492907
 30
0.0
 11
-89.12891911244724
 21
-59.09103953534217
 31
0.0
  0
LINE
  5
41B
  8
0
 10
-89.12891911244724
 20
-59.09103953534217
 30
0.0
 11
-88.2448118946935
 21
-57.58179079417498
 31
0.0
  0
LINE
  5
41C
  8
0
 10
-88.2448118946935
 20
-57.58179079417498
 30
0.0
 11
-87.03984518009572
 21
-56.31390572370889
 31
0.0
  0
LINE
  5
41D
  8
0
 10
-87.03984518009572
 20
-56.31390572370889
 30
0.0
 11
-85.57750999504874
 21
-55.35419058796678
 31
0.0
  0
LINE
  5
41E
  8
0
 10
-85.57750999504874
 20
-55.35419058796678
 30
0.0
 11
-83.93485839477226
 21
-54.75321383691191
 31
0.0
  0
LINE
  5
41F
  8
0
 10
-83.93485839477226
 20
-54.75321383691191
 30
0.0
 11
-82.19844350546211
 21
-54.54264159899543
 31
0.0
  0
LINE
  5
420
  8
0
 10
-82.19844350546211
 20
-54.54264159899543
 30
0.0
 11
-80.45975894452143
 21
-54.7335691578907
 31
0.0
  0
LINE
  5
421
  8
0
 10
-80.45975894452143
 20
-54.7335691578907
 30
0.0
 11
-78.81041792085718
 21
-55.31593632974836
 31
0.0
  0
LINE
  5
422
  8
0
 10
-78.81041792085718
 20
-55.31593632974836
 30
0.0
 11
-77.33732603376808
 21
-56.25905754538897
 31
0.0
  0
LINE
  5
423
  8
0
 10
-77.33732603376808
 20
-56.25905754538897
 30
0.0
 11
-76.11810212097934
 21
-57.51323870681791
 31
0.0
  0
LINE
  5
424
  8
0
 10
-76.11810212097934
 20
-57.51323870681791
 30
0.0
 11
-75.2169884363971
 21
-59.01239562410771
 31
0.0
  0
LINE
  5
425
  8
0
 10
-75.2169884363971
 20
-59.01239562410771
 30
0.0
 11
-74.68146565483106
 21
-60.67753606431776
 31
0.0
  0
LINE
  5
426
  8
0
 10
-74.68146565483106
 20
-60.67753606431776
 30
0.0
 11
-74.53975106282309
 21
-62.42092193945017
 31
0.0
  0
LINE
  5
427
  8
0
 10
-74.53975106282309
 20
-62.42092193945017
 30
0.0
 11
-74.79931175866957
 21
-64.15069232316324
 31
0.0
  0
LINE
  5
428
  8
0
 10
-74.79931175866957
 20
-64.15069232316324
 30
0.0
 11
-75.44647120276862
 21
-65.77570370438879
 31
0.0
  0
LINE
  5
429
  8
0
 10
-75.44647120276862
 20
-65.77570370438879
 30
0.0
 11
-76.44712984959027
 21
-67.21033243954655
 31
0.0
  0
LINE
  5
42A
  8
0
 10
-76.44712984959027
 20
-67.21033243954655
 30
0.0
 11
-77.74856189037337
 21
-68.37898635684726
 31
0.0
  0
LINE
  5
42B
  8
0
 10
-82.40932626275672
 20
-63.27518167690969
 30
0.0
 11
-82.58025827866565
 21
-63.22175521062958
 31
0.0
  0
LINE
  5
42C
  8
0
 10
-82.58025827866565
 20
-63.22175521062958
 30
0.0
 11
-82.74072809714197
 21
-63.14224685433855
 31
0.0
  0
LINE
  5
42D
  8
0
 10
-82.74072809714197
 20
-63.14224685433855
 30
0.0
 11
-82.8867844186857
 21
-63.03861436764159
 31
0.0
  0
LINE
  5
42E
  8
0
 10
-83.01483085192748
 20
-62.91340952629766
 30
0.0
 11
-83.12171446871908
 21
-62.76971528903174
 31
0.0
  0
LINE
  5
42F
  8
0
 10
-82.8867844186857
 20
-63.03861436764159
 30
0.0
 11
-83.01483085192748
 21
-62.91340952629766
 31
0.0
  0
LINE
  5
430
  8
0
 10
-83.20480343968875
 20
-62.61106988485909
 30
0.0
 11
-83.26205183861464
 21
-62.44137969014437
 31
0.0
  0
LINE
  5
431
  8
0
 10
-83.12171446871908
 20
-62.76971528903174
 30
0.0
 11
-83.20480343968875
 21
-62.61106988485909
 31
0.0
  0
LINE
  5
432
  8
0
 10
-83.26205183861464
 20
-62.44137969014437
 30
0.0
 11
-83.29205001991872
 21
-62.26482304065097
 31
0.0
  0
LINE
  5
433
  8
0
 10
-83.29405932881912
 20
-62.0857473470473
 30
0.0
 11
-83.26803028946199
 21
-61.90856204722804
 31
0.0
  0
LINE
  5
434
  8
0
 10
-83.29205001991872
 20
-62.26482304065097
 30
0.0
 11
-83.29405932881912
 21
-62.0857473470473
 31
0.0
  0
LINE
  5
435
  8
0
 10
-83.21460382318193
 20
-61.73763003131902
 30
0.0
 11
-83.13509546689089
 21
-61.57716021284279
 31
0.0
  0
LINE
  5
436
  8
0
 10
-83.26803028946199
 20
-61.90856204722804
 30
0.0
 11
-83.21460382318193
 21
-61.73763003131902
 31
0.0
  0
LINE
  5
437
  8
0
 10
-83.13509546689089
 20
-61.57716021284279
 30
0.0
 11
-83.03146298019391
 21
-61.43110389129902
 31
0.0
  0
LINE
  5
438
  8
0
 10
-83.03146298019391
 20
-61.43110389129902
 30
0.0
 11
-82.90625813885
 21
-61.30305745805725
 31
0.0
  0
LINE
  5
439
  8
0
 10
-82.90625813885
 20
-61.30305745805725
 30
0.0
 11
-82.76256390158399
 21
-61.19617384126566
 31
0.0
  0
LINE
  5
43A
  8
0
 10
-82.60391849741141
 20
-61.11308487029601
 30
0.0
 11
-82.43422830269671
 21
-61.05583647137009
 31
0.0
  0
LINE
  5
43B
  8
0
 10
-82.76256390158399
 20
-61.19617384126566
 30
0.0
 11
-82.60391849741141
 21
-61.11308487029601
 31
0.0
  0
LINE
  5
43C
  8
0
 10
-82.43422830269671
 20
-61.05583647137009
 30
0.0
 11
-82.25767165320325
 21
-61.02583829006596
 31
0.0
  0
LINE
  5
43D
  8
0
 10
-82.0785959595997
 20
-61.02382898116563
 30
0.0
 11
-81.90141065978038
 21
-61.04985802052273
 31
0.0
  0
LINE
  5
43E
  8
0
 10
-82.25767165320325
 20
-61.02583829006596
 30
0.0
 11
-82.0785959595997
 21
-61.02382898116563
 31
0.0
  0
LINE
  5
43F
  8
0
 10
-81.73047864387138
 20
-61.10328448680283
 30
0.0
 11
-81.5700088253951
 21
-61.18279284309385
 31
0.0
  0
LINE
  5
440
  8
0
 10
-81.90141065978038
 20
-61.04985802052273
 30
0.0
 11
-81.73047864387138
 21
-61.10328448680283
 31
0.0
  0
LINE
  5
441
  8
0
 10
-81.5700088253951
 20
-61.18279284309385
 30
0.0
 11
-81.42395250385137
 21
-61.28642532979083
 31
0.0
  0
LINE
  5
442
  8
0
 10
-81.29590607060955
 20
-61.41163017113475
 30
0.0
 11
-81.189022453818
 21
-61.55532440840067
 31
0.0
  0
LINE
  5
443
  8
0
 10
-81.42395250385137
 20
-61.28642532979083
 30
0.0
 11
-81.29590607060955
 21
-61.41163017113475
 31
0.0
  0
LINE
  5
444
  8
0
 10
-51.15016535364926
 20
-74.99265436956829
 30
0.0
 11
-51.23325432461888
 21
-75.15129977374092
 31
0.0
  0
LINE
  5
445
  8
0
 10
-51.34013794141052
 20
-75.29499401100685
 30
0.0
 11
-51.46818437465229
 21
-75.42019885235078
 31
0.0
  0
LINE
  5
446
  8
0
 10
-51.23325432461888
 20
-75.15129977374092
 30
0.0
 11
-51.34013794141052
 21
-75.29499401100685
 31
0.0
  0
LINE
  5
447
  8
0
 10
-51.46818437465229
 20
-75.42019885235078
 30
0.0
 11
-51.61424069619603
 21
-75.52383133904775
 31
0.0
  0
LINE
  5
448
  8
0
 10
-51.77471051467226
 20
-75.60333969533878
 30
0.0
 11
-51.94564253058127
 21
-75.65676616161888
 31
0.0
  0
LINE
  5
449
  8
0
 10
-51.61424069619603
 20
-75.52383133904775
 30
0.0
 11
-51.77471051467226
 21
-75.60333969533878
 31
0.0
  0
LINE
  5
44A
  8
0
 10
-52.12282783040054
 20
-75.68279520097597
 30
0.0
 11
-52.30190352400427
 21
-75.68078589207563
 31
0.0
  0
LINE
  5
44B
  8
0
 10
-51.94564253058127
 20
-75.65676616161888
 30
0.0
 11
-52.12282783040054
 21
-75.68279520097597
 31
0.0
  0
LINE
  5
44C
  8
0
 10
-52.30190352400427
 20
-75.68078589207563
 30
0.0
 11
-52.47846017349764
 21
-75.65078771077151
 31
0.0
  0
LINE
  5
44D
  8
0
 10
-52.64815036821234
 20
-75.5935393118456
 30
0.0
 11
-52.80679577238497
 21
-75.51045034087595
 31
0.0
  0
LINE
  5
44E
  8
0
 10
-52.47846017349764
 20
-75.65078771077151
 30
0.0
 11
-52.64815036821234
 21
-75.5935393118456
 31
0.0
  0
LINE
  5
44F
  8
0
 10
-52.80679577238497
 20
-75.51045034087595
 30
0.0
 11
-52.95049000965094
 21
-75.40356672408434
 31
0.0
  0
LINE
  5
450
  8
0
 10
-52.95049000965094
 20
-75.40356672408434
 30
0.0
 11
-53.07569485099484
 21
-75.27552029084256
 31
0.0
  0
LINE
  5
451
  8
0
 10
-53.07569485099484
 20
-75.27552029084256
 30
0.0
 11
-53.17932733769177
 21
-75.1294639692988
 31
0.0
  0
LINE
  5
452
  8
0
 10
-53.25883569398282
 20
-74.96899415082257
 30
0.0
 11
-53.31226216026292
 21
-74.79806213491356
 31
0.0
  0
LINE
  5
453
  8
0
 10
-53.17932733769177
 20
-75.1294639692988
 30
0.0
 11
-53.25883569398282
 21
-74.96899415082257
 31
0.0
  0
LINE
  5
454
  8
0
 10
-53.33829119962
 20
-74.62087683509431
 30
0.0
 11
-53.33628189071974
 21
-74.44180114149064
 31
0.0
  0
LINE
  5
455
  8
0
 10
-53.31226216026292
 20
-74.79806213491356
 30
0.0
 11
-53.33829119962
 21
-74.62087683509431
 31
0.0
  0
LINE
  5
456
  8
0
 10
-53.33628189071974
 20
-74.44180114149064
 30
0.0
 11
-53.30628370941561
 21
-74.26524449199722
 31
0.0
  0
LINE
  5
457
  8
0
 10
-53.24903531048967
 20
-74.09555429728252
 30
0.0
 11
-53.16594633952
 21
-73.93690889310986
 31
0.0
  0
LINE
  5
458
  8
0
 10
-53.30628370941561
 20
-74.26524449199722
 30
0.0
 11
-53.24903531048967
 21
-74.09555429728252
 31
0.0
  0
LINE
  5
459
  8
0
 10
-53.05906272272837
 20
-73.79321465584393
 30
0.0
 11
-52.93101628948664
 21
-73.66800981450002
 31
0.0
  0
LINE
  5
45A
  8
0
 10
-53.16594633952
 20
-73.93690889310986
 30
0.0
 11
-53.05906272272837
 21
-73.79321465584393
 31
0.0
  0
LINE
  5
45B
  8
0
 10
-52.93101628948664
 20
-73.66800981450002
 30
0.0
 11
-52.7849599679429
 21
-73.56437732780304
 31
0.0
  0
LINE
  5
45C
  8
0
 10
-52.7849599679429
 20
-73.56437732780304
 30
0.0
 11
-52.62449014946662
 21
-73.48486897151203
 31
0.0
  0
LINE
  5
45D
  8
0
 10
-52.62449014946662
 20
-73.48486897151203
 30
0.0
 11
-52.45355813355766
 21
-73.4314425052319
 31
0.0
  0
LINE
  5
45E
  8
0
 10
-81.84942100307472
 20
-63.64463365094676
 30
0.0
 11
-82.12163753004998
 21
-63.42958039552191
 31
0.0
  0
LINE
  5
45F
  8
0
 10
-82.12163753004998
 20
-63.42958039552191
 30
0.0
 11
-82.2596617414562
 21
-63.35300206160817
 31
0.0
  0
LINE
  5
460
  8
0
 10
-82.2596617414562
 20
-63.35300206160817
 30
0.0
 11
-82.40932626275672
 21
-63.27518167690969
 31
0.0
  0
LINE
  5
461
  8
0
 10
-82.40932626275672
 20
-63.27518167690969
 30
0.0
 11
-82.57438094362514
 21
-63.28043596838107
 31
0.0
  0
LINE
  5
462
  8
0
 10
-82.57438094362514
 20
-63.28043596838107
 30
0.0
 11
-82.72838023220505
 21
-63.2885848551191
 31
0.0
  0
LINE
  5
463
  8
0
 10
-82.72838023220505
 20
-63.2885848551191
 30
0.0
 11
-83.05758702441413
 21
-63.36028341225179
 31
0.0
  0
LINE
  5
464
  8
0
 10
-83.05758702441413
 20
-63.36028341225179
 30
0.0
 11
-83.99726402365394
 21
-63.70904265690776
 31
0.0
  0
LINE
  5
465
  8
0
 10
-83.99726402365394
 20
-63.70904265690776
 30
0.0
 11
-84.52894810736541
 21
-63.93393556239939
 31
0.0
  0
LINE
  5
466
  8
0
 10
-84.52894810736541
 20
-63.93393556239939
 30
0.0
 11
-85.26214682652324
 21
-64.25384945821922
 31
0.0
  0
LINE
  5
467
  8
0
 10
-85.26214682652324
 20
-64.25384945821922
 30
0.0
 11
-86.53700869134792
 21
-64.82132306654583
 31
0.0
  0
LINE
  5
468
  8
0
 10
-86.53700869134792
 20
-64.82132306654583
 30
0.0
 11
-88.82298772115992
 21
-65.85132092835251
 31
0.0
  0
LINE
  5
469
  8
0
 10
-88.82298772115992
 20
-65.85132092835251
 30
0.0
 11
-77.74856189037337
 21
-68.37898635684726
 31
0.0
  0
LINE
  5
46A
  8
0
 10
-77.74856189037337
 20
-68.37898635684726
 30
0.0
 11
-78.61393136835909
 21
-67.34721353252542
 31
0.0
  0
LINE
  5
46B
  8
0
 10
-78.61393136835909
 20
-67.34721353252542
 30
0.0
 11
-79.32719972989999
 21
-66.49952409055949
 31
0.0
  0
LINE
  5
46C
  8
0
 10
-79.32719972989999
 20
-66.49952409055949
 30
0.0
 11
-79.9147959993609
 21
-65.80465720605672
 31
0.0
  0
LINE
  5
46D
  8
0
 10
-79.9147959993609
 20
-65.80465720605672
 30
0.0
 11
-80.3985738066953
 21
-65.23697210706547
 31
0.0
  0
LINE
  5
46E
  8
0
 10
-80.3985738066953
 20
-65.23697210706547
 30
0.0
 11
-80.79664103342554
 21
-64.77548190841691
 31
0.0
  0
LINE
  5
46F
  8
0
 10
-80.79664103342554
 20
-64.77548190841691
 30
0.0
 11
-81.12405339022874
 21
-64.4030404798444
 31
0.0
  0
LINE
  5
470
  8
0
 10
-123.8904940814333
 20
-30.25769845068058
 30
0.0
 11
-124.0543694463967
 21
-30.18546960519605
 31
0.0
  0
LINE
  5
471
  8
0
 10
-124.204928152878
 20
-30.08849426160504
 30
0.0
 11
-124.3384629458478
 21
-29.96916027470944
 31
0.0
  0
LINE
  5
472
  8
0
 10
-124.3384629458478
 20
-29.96916027470944
 30
0.0
 11
-124.4516857555268
 21
-29.83040604331342
 31
0.0
  0
LINE
  5
473
  8
0
 10
-124.4516857555268
 20
-29.83040604331342
 30
0.0
 11
-124.5646118994186
 21
-29.68662961814627
 31
0.0
  0
LINE
  5
474
  8
0
 10
-53.11831454542543
 20
-73.34151156606183
 30
0.0
 11
-52.77974781871917
 21
-73.41715752956706
 31
0.0
  0
LINE
  5
475
  8
0
 10
-52.77974781871917
 20
-73.41715752956706
 30
0.0
 11
-52.62216620737153
 21
-73.42626576344547
 31
0.0
  0
LINE
  5
476
  8
0
 10
-52.62216620737153
 20
-73.42626576344547
 30
0.0
 11
-52.45355813355766
 21
-73.4314425052319
 31
0.0
  0
LINE
  5
477
  8
0
 10
-52.45355813355766
 20
-73.4314425052319
 30
0.0
 11
-52.30712875622358
 21
-73.35509401009925
 31
0.0
  0
LINE
  5
478
  8
0
 10
-52.30712875622358
 20
-73.35509401009925
 30
0.0
 11
-52.17191586098158
 21
-73.28093432968976
 31
0.0
  0
LINE
  5
479
  8
0
 10
-52.17191586098158
 20
-73.28093432968976
 30
0.0
 11
-51.90641962815717
 21
-73.07349868789308
 31
0.0
  0
LINE
  5
47A
  8
0
 10
-51.90641962815717
 20
-73.07349868789308
 30
0.0
 11
-51.21112087108129
 21
-72.35156689607192
 31
0.0
  0
LINE
  5
47B
  8
0
 10
-51.21112087108129
 20
-72.35156689607192
 30
0.0
 11
-50.82966743883378
 21
-71.91825631134188
 31
0.0
  0
LINE
  5
47C
  8
0
 10
-50.82966743883378
 20
-71.91825631134188
 30
0.0
 11
-50.30788365620064
 21
-71.31190084901442
 31
0.0
  0
LINE
  5
47D
  8
0
 10
-50.30788365620064
 20
-71.31190084901442
 30
0.0
 11
-49.40549037614881
 21
-70.24748296178737
 31
0.0
  0
LINE
  5
47E
  8
0
 10
-49.40549037614881
 20
-70.24748296178737
 30
0.0
 11
-47.79279376117426
 21
-68.32763782529433
 31
0.0
  0
LINE
  5
47F
  8
0
 10
-47.79279376117426
 20
-68.32763782529433
 30
0.0
 11
-58.8672195919608
 21
-70.85530325378907
 31
0.0
  0
LINE
  5
480
  8
0
 10
-58.8672195919608
 20
-70.85530325378907
 30
0.0
 11
-57.63987918212603
 21
-71.40942870242414
 31
0.0
  0
LINE
  5
481
  8
0
 10
-57.63987918212603
 20
-71.40942870242414
 30
0.0
 11
-56.62944792922718
 21
-71.86369495558537
 31
0.0
  0
LINE
  5
482
  8
0
 10
-56.62944792922718
 20
-71.86369495558537
 30
0.0
 11
-55.79855054151034
 21
-72.23479991937351
 31
0.0
  0
LINE
  5
483
  8
0
 10
-55.79855054151034
 20
-72.23479991937351
 30
0.0
 11
-55.11637246472838
 21
-72.53636319638841
 31
0.0
  0
LINE
  5
484
  8
0
 10
-55.11637246472838
 20
-72.53636319638841
 30
0.0
 11
-54.55749319315633
 21
-72.77943660145895
 31
0.0
  0
LINE
  5
485
  8
0
 10
-54.55749319315633
 20
-72.77943660145895
 30
0.0
 11
-54.10090857307885
 21
-72.97293583611686
 31
0.0
  0
LINE
  5
486
  8
0
 10
-54.10090857307885
 20
-72.97293583611686
 30
0.0
 11
-53.11831454542543
 21
-73.34151156606183
 31
0.0
  0
LINE
  5
487
  8
0
 10
-47.79279376117426
 20
-68.32763782529433
 30
0.0
 11
-46.49136172039115
 21
-69.49629174259508
 31
0.0
  0
LINE
  5
488
  8
0
 10
-46.49136172039115
 20
-69.49629174259508
 30
0.0
 11
-45.49070307356956
 21
-70.93092047775284
 31
0.0
  0
LINE
  5
489
  8
0
 10
-45.49070307356956
 20
-70.93092047775284
 30
0.0
 11
-44.84354362947055
 21
-72.55593185897837
 31
0.0
  0
LINE
  5
48A
  8
0
 10
-44.84354362947055
 20
-72.55593185897837
 30
0.0
 11
-44.58398293362401
 21
-74.28570224269146
 31
0.0
  0
LINE
  5
48B
  8
0
 10
-44.58398293362401
 20
-74.28570224269146
 30
0.0
 11
-44.72569752563194
 21
-76.02908811782385
 31
0.0
  0
LINE
  5
48C
  8
0
 10
-44.72569752563194
 20
-76.02908811782385
 30
0.0
 11
-45.26122030719803
 21
-77.69422855803391
 31
0.0
  0
LINE
  5
48D
  8
0
 10
-45.26122030719803
 20
-77.69422855803391
 30
0.0
 11
-46.16233399178028
 21
-79.19338547532371
 31
0.0
  0
LINE
  5
48E
  8
0
 10
-46.16233399178028
 20
-79.19338547532371
 30
0.0
 11
-47.38155790456901
 21
-80.44756663675263
 31
0.0
  0
LINE
  5
48F
  8
0
 10
-47.38155790456901
 20
-80.44756663675263
 30
0.0
 11
-48.85464979165815
 21
-81.39068785239324
 31
0.0
  0
LINE
  5
490
  8
0
 10
-48.85464979165815
 20
-81.39068785239324
 30
0.0
 11
-50.50399081532236
 21
-81.9730550242509
 31
0.0
  0
LINE
  5
491
  8
0
 10
-50.50399081532236
 20
-81.9730550242509
 30
0.0
 11
-52.24267537626304
 21
-82.16398258314618
 31
0.0
  0
LINE
  5
492
  8
0
 10
-52.24267537626304
 20
-82.16398258314618
 30
0.0
 11
-53.9790902655732
 21
-81.95341034522968
 31
0.0
  0
LINE
  5
493
  8
0
 10
-53.9790902655732
 20
-81.95341034522968
 30
0.0
 11
-55.62174186584958
 21
-81.35243359417483
 31
0.0
  0
LINE
  5
494
  8
0
 10
-55.62174186584958
 20
-81.35243359417483
 30
0.0
 11
-57.0840770508967
 21
-80.3927184584327
 31
0.0
  0
LINE
  5
495
  8
0
 10
-57.0840770508967
 20
-80.3927184584327
 30
0.0
 11
-58.28904376549443
 21
-79.1248333879666
 31
0.0
  0
LINE
  5
496
  8
0
 10
-58.28904376549443
 20
-79.1248333879666
 30
0.0
 11
-59.17315098324826
 21
-77.6155846467994
 31
0.0
  0
LINE
  5
497
  8
0
 10
-59.17315098324826
 20
-77.6155846467994
 30
0.0
 11
-59.68981411885976
 21
-75.9444962172125
 31
0.0
  0
LINE
  5
498
  8
0
 10
-59.68981411885976
 20
-75.9444962172125
 30
0.0
 11
-59.81180962135212
 21
-74.19961959333024
 31
0.0
  0
LINE
  5
499
  8
0
 10
-59.81180962135212
 20
-74.19961959333024
 30
0.0
 11
-59.5327094130243
 21
-72.4728942506916
 31
0.0
  0
LINE
  5
49A
  8
0
 10
-59.5327094130243
 20
-72.4728942506916
 30
0.0
 11
-58.8672195919608
 21
-70.85530325378907
 31
0.0
  0
LINE
  5
49B
  8
0
 10
-52.45355813355766
 20
-73.4314425052319
 30
0.0
 11
-52.27637283373839
 21
-73.40541346587483
 31
0.0
  0
LINE
  5
49C
  8
0
 10
-52.27637283373839
 20
-73.40541346587483
 30
0.0
 11
-52.09729714013466
 21
-73.40742277477517
 31
0.0
  0
LINE
  5
49D
  8
0
 10
-52.09729714013466
 20
-73.40742277477517
 30
0.0
 11
-51.92074049064129
 21
-73.43742095607927
 31
0.0
  0
LINE
  5
49E
  8
0
 10
-51.75105029592654
 20
-73.4946693550052
 30
0.0
 11
-51.59240489175392
 21
-73.57775832597486
 31
0.0
  0
LINE
  5
49F
  8
0
 10
-51.92074049064129
 20
-73.43742095607927
 30
0.0
 11
-51.75105029592654
 21
-73.4946693550052
 31
0.0
  0
LINE
  5
4A0
  8
0
 10
-51.44871065448799
 20
-73.68464194276645
 30
0.0
 11
-51.3235058131441
 21
-73.81268837600821
 31
0.0
  0
LINE
  5
4A1
  8
0
 10
-51.59240489175392
 20
-73.57775832597486
 30
0.0
 11
-51.44871065448799
 21
-73.68464194276645
 31
0.0
  0
LINE
  5
4A2
  8
0
 10
-51.3235058131441
 20
-73.81268837600821
 30
0.0
 11
-51.21987332644721
 21
-73.95874469755199
 31
0.0
  0
LINE
  5
4A3
  8
0
 10
-51.14036497015606
 20
-74.11921451602821
 30
0.0
 11
-51.08693850387592
 21
-74.29014653193722
 31
0.0
  0
LINE
  5
4A4
  8
0
 10
-51.21987332644721
 20
-73.95874469755199
 30
0.0
 11
-51.14036497015606
 21
-74.11921451602821
 31
0.0
  0
LINE
  5
4A5
  8
0
 10
-51.06090946451889
 20
-74.46733183175648
 30
0.0
 11
-51.06291877341919
 21
-74.64640752536016
 31
0.0
  0
LINE
  5
4A6
  8
0
 10
-51.08693850387592
 20
-74.29014653193722
 30
0.0
 11
-51.06090946451889
 21
-74.46733183175648
 31
0.0
  0
LINE
  5
4A7
  8
0
 10
-51.06291877341919
 20
-74.64640752536016
 30
0.0
 11
-51.09291695472332
 21
-74.82296417485357
 31
0.0
  0
LINE
  5
4A8
  8
0
 10
-51.09291695472332
 20
-74.82296417485357
 30
0.0
 11
-51.15016535364926
 21
-74.99265436956829
 31
0.0
  0
LINE
  5
4A9
  8
0
 10
-123.6667517193424
 20
-28.04951987811206
 30
0.0
 11
-123.4879464903492
 21
-28.03947839183866
 31
0.0
  0
LINE
  5
4AA
  8
0
 10
-123.4879464903492
 20
-28.03947839183866
 30
0.0
 11
-123.3097718159017
 21
-28.05753183326813
 31
0.0
  0
LINE
  5
4AB
  8
0
 10
-123.3097718159017
 20
-28.05753183326813
 30
0.0
 11
-123.1366149478128
 21
-28.10323566675654
 31
0.0
  0
LINE
  5
4AC
  8
0
 10
-122.9727395828495
 20
-28.17546451224104
 30
0.0
 11
-122.8221808763683
 21
-28.27243985583207
 31
0.0
  0
LINE
  5
4AD
  8
0
 10
-123.1366149478128
 20
-28.10323566675654
 30
0.0
 11
-122.9727395828495
 21
-28.17546451224104
 31
0.0
  0
LINE
  5
4AE
  8
0
 10
-122.8221808763683
 20
-28.27243985583207
 30
0.0
 11
-122.6886460833984
 21
-28.39177384272767
 31
0.0
  0
LINE
  5
4AF
  8
0
 10
-122.5754232737195
 20
-28.53052807412369
 30
0.0
 11
-122.4853003686707
 21
-28.68528596034423
 31
0.0
  0
LINE
  5
4B0
  8
0
 10
-122.6886460833984
 20
-28.39177384272767
 30
0.0
 11
-122.5754232737195
 21
-28.53052807412369
 31
0.0
  0
LINE
  5
4B1
  8
0
 10
-122.420496493275
 20
-28.85223684861862
 30
0.0
 11
-122.3826073340167
 21
-29.02726985399926
 31
0.0
  0
LINE
  5
4B2
  8
0
 10
-122.4853003686707
 20
-28.68528596034423
 30
0.0
 11
-122.420496493275
 21
-28.85223684861862
 31
0.0
  0
LINE
  5
4B3
  8
0
 10
-122.3826073340167
 20
-29.02726985399926
 30
0.0
 11
-122.3725658477431
 21
-29.20607508299249
 31
0.0
  0
LINE
  5
4B4
  8
0
 10
-122.3906192891727
 20
-29.38424975743993
 30
0.0
 11
-122.436323122661
 21
-29.55740662552884
 31
0.0
  0
LINE
  5
4B5
  8
0
 10
-122.3725658477431
 20
-29.20607508299249
 30
0.0
 11
-122.3906192891727
 21
-29.38424975743993
 31
0.0
  0
LINE
  5
4B6
  8
0
 10
-122.436323122661
 20
-29.55740662552884
 30
0.0
 11
-122.5085519681456
 21
-29.72128199049216
 31
0.0
  0
LINE
  5
4B7
  8
0
 10
-122.5085519681456
 20
-29.72128199049216
 30
0.0
 11
-122.6055273117366
 21
-29.87184069697338
 31
0.0
  0
LINE
  5
4B8
  8
0
 10
-122.6055273117366
 20
-29.87184069697338
 30
0.0
 11
-122.7248612986322
 21
-30.00537548994322
 31
0.0
  0
LINE
  5
4B9
  8
0
 10
-122.8636155300282
 20
-30.11859829962217
 30
0.0
 11
-123.0183734162487
 21
-30.208721204671
 31
0.0
  0
LINE
  5
4BA
  8
0
 10
-122.7248612986322
 20
-30.00537548994322
 30
0.0
 11
-122.8636155300282
 21
-30.11859829962217
 31
0.0
  0
LINE
  5
4BB
  8
0
 10
-123.1853243045232
 20
-30.27352508006661
 30
0.0
 11
-123.3603573099038
 21
-30.31141423932504
 31
0.0
  0
LINE
  5
4BC
  8
0
 10
-123.0183734162487
 20
-30.208721204671
 30
0.0
 11
-123.1853243045232
 21
-30.27352508006661
 31
0.0
  0
LINE
  5
4BD
  8
0
 10
-123.3603573099038
 20
-30.31141423932504
 30
0.0
 11
-123.539162538897
 21
-30.32145572559845
 31
0.0
  0
LINE
  5
4BE
  8
0
 10
-123.7173372133445
 20
-30.30340228416898
 30
0.0
 11
-123.8904940814333
 21
-30.25769845068058
 31
0.0
  0
LINE
  5
4BF
  8
0
 10
-123.539162538897
 20
-30.32145572559845
 30
0.0
 11
-123.7173372133445
 21
-30.30340228416898
 31
0.0
  0
LINE
  5
4C0
  8
0
 10
-124.0543694463967
 20
-30.18546960519605
 30
0.0
 11
-124.204928152878
 21
-30.08849426160504
 31
0.0
  0
POLYLINE
  5
4C1
  8
PROFILEEDGES
 66
     1
 10
0.0
 20
0.0
 30
0.0
  0
VERTEX
  5
6C0
  8
PROFILEEDGES
 10
-147.1002077474566
 20
22.77843856353971
 30
0.0
 40
0.7534625946900548
 41
0.7534625946900548
  0
VERTEX
  5
6C1
  8
PROFILEEDGES
 10
-150.1241648434203
 20
10.18275076695885
 30
0.0
 40
0.7534625946900548
 41
0.7534625946900548
  0
SEQEND
  5
91D
  8
PROFILEEDGES
  0
POLYLINE
  5
4C2
  8
PROFILEEDGES
 66
     1
 10
0.0
 20
0.0
 30
0.0
  0
VERTEX
  5
6C2
  8
PROFILEEDGES
 10
-142.1430808990414
 20
34.74600143138738
 30
0.0
 40
0.7534625946900548
 41
0.7534625946900548
  0
VERTEX
  5
6C3
  8
PROFILEEDGES
 10
-147.1002077474566
 20
22.77843856353971
 30
0.0
 40
0.7534625946900548
 41
0.7534625946900548
  0
SEQEND
  5
91E
  8
PROFILEEDGES
  0
POLYLINE
  5
4C3
  8
PROFILEEDGES
 66
     1
 10
0.0
 20
0.0
 30
0.0
  0
VERTEX
  5
6C4
  8
PROFILEEDGES
 10
-135.3748452129435
 20
-51.25258689885587
 30
0.0
 40
0.7534625946900548
 41
0.7534625946900548
  0
VERTEX
  5
6C5
  8
PROFILEEDGES
 10
-126.9621571142412
 20
-61.10257910906173
 30
0.0
 40
0.7534625946900548
 41
0.7534625946900548
  0
SEQEND
  5
91F
  8
PROFILEEDGES
  0
POLYLINE
  5
4C4
  8
PROFILEEDGES
 66
     1
 10
0.0
 20
0.0
 30
0.0
  0
VERTEX
  5
6C6
  8
PROFILEEDGES
 10
-142.1430808990414
 20
-40.20783007561182
 30
0.0
 40
0.7534625946900548
 41
0.7534625946900548
  0
VERTEX
  5
6C7
  8
PROFILEEDGES
 10
-135.3748452129435
 20
-51.25258689885587
 30
0.0
 40
0.7534625946900548
 41
0.7534625946900548
  0
SEQEND
  5
920
  8
PROFILEEDGES
  0
POLYLINE
  5
4C5
  8
PROFILEEDGES
 66
     1
 10
0.0
 20
0.0
 30
0.0
  0
VERTEX
  5
6C8
  8
PROFILEEDGES
 10
-147.1002077474566
 20
-28.24026720776414
 30
0.0
 40
0.7534625946900548
 41
0.7534625946900548
  0
VERTEX
  5
6C9
  8
PROFILEEDGES
 10
-142.1430808990414
 20
-40.20783007561182
 30
0.0
 40
0.7534625946900548
 41
0.7534625946900548
  0
SEQEND
  5
921
  8
PROFILEEDGES
  0
POLYLINE
  5
4C6
  8
PROFILEEDGES
 66
     1
 10
0.0
 20
0.0
 30
0.0
  0
VERTEX
  5
6CA
  8
PROFILEEDGES
 10
-150.1241648434203
 20
10.18275076695885
 30
0.0
 40
0.7534625946900548
 41
0.7534625946900548
  0
VERTEX
  5
6CB
  8
PROFILEEDGES
 10
-151.1404923272916
 20
-2.730914322112234
 30
0.0
 40
0.7534625946900548
 41
0.7534625946900548
  0
SEQEND
  5
922
  8
PROFILEEDGES
  0
POLYLINE
  5
4C7
  8
PROFILEEDGES
 66
     1
 10
0.0
 20
0.0
 30
0.0
  0
VERTEX
  5
6CC
  8
PROFILEEDGES
 10
-151.1404923272916
 20
-2.730914322112234
 30
0.0
 40
0.7534625946900548
 41
0.7534625946900548
  0
VERTEX
  5
6CD
  8
PROFILEEDGES
 10
-150.1241648434203
 20
-15.64457941118329
 30
0.0
 40
0.7534625946900548
 41
0.7534625946900548
  0
SEQEND
  5
923
  8
PROFILEEDGES
  0
POLYLINE
  5
4C8
  8
PROFILEEDGES
 66
     1
 10
0.0
 20
0.0
 30
0.0
  0
VERTEX
  5
6CE
  8
PROFILEEDGES
 10
-150.1241648434203
 20
-15.64457941118329
 30
0.0
 40
0.7534625946900548
 41
0.7534625946900548
  0
VERTEX
  5
6CF
  8
PROFILEEDGES
 10
-147.1002077474566
 20
-28.24026720776414
 30
0.0
 40
0.7534625946900548
 41
0.7534625946900548
  0
SEQEND
  5
924
  8
PROFILEEDGES
  0
POLYLINE
  5
4C9
  8
PROFILEEDGES
 66
     1
 10
0.0
 20
0.0
 30
0.0
  0
VERTEX
  5
6D0
  8
PROFILEEDGES
 10
-23.50549232729159
 20
-2.730914322112211
 30
0.0
 40
0.7534625946900548
 41
0.7534625946900548
  0
VERTEX
  5
6D1
  8
PROFILEEDGES
 10
-24.06056349155987
 20
4.321933534226605
 30
0.0
 40
0.7534625946900548
 41
0.7534625946900548
  0
SEQEND
  5
925
  8
PROFILEEDGES
  0
POLYLINE
  5
4CA
  8
PROFILEEDGES
 66
     1
 10
0.0
 20
0.0
 30
0.0
  0
VERTEX
  5
6D2
  8
PROFILEEDGES
 10
-25.71210929012468
 20
11.2011168692823
 30
0.0
 40
0.7534625946900548
 41
0.7534625946900548
  0
VERTEX
  5
6D3
  8
PROFILEEDGES
 10
-24.06056349155987
 20
4.321933534226605
 30
0.0
 40
0.7534625946900548
 41
0.7534625946900548
  0
SEQEND
  5
926
  8
PROFILEEDGES
  0
POLYLINE
  5
4CB
  8
PROFILEEDGES
 66
     1
 10
0.0
 20
0.0
 30
0.0
  0
VERTEX
  5
6D4
  8
PROFILEEDGES
 10
-25.71210929012468
 20
11.2011168692823
 30
0.0
 40
0.7534625946900548
 41
0.7534625946900548
  0
VERTEX
  5
6D5
  8
PROFILEEDGES
 10
-28.41946318425908
 20
17.73724735864527
 30
0.0
 40
0.7534625946900548
 41
0.7534625946900548
  0
SEQEND
  5
927
  8
PROFILEEDGES
  0
POLYLINE
  5
4CC
  8
PROFILEEDGES
 66
     1
 10
0.0
 20
0.0
 30
0.0
  0
VERTEX
  5
6D6
  8
PROFILEEDGES
 10
-28.41946318425908
 20
17.73724735864527
 30
0.0
 40
0.7534625946900548
 41
0.7534625946900548
  0
VERTEX
  5
6D7
  8
PROFILEEDGES
 10
-32.11596113589709
 20
23.76938377749394
 30
0.0
 40
0.7534625946900548
 41
0.7534625946900548
  0
SEQEND
  5
928
  8
PROFILEEDGES
  0
POLYLINE
  5
4CD
  8
PROFILEEDGES
 66
     1
 10
0.0
 20
0.0
 30
0.0
  0
VERTEX
  5
6D8
  8
PROFILEEDGES
 10
-36.71058309749614
 20
29.14899490768327
 30
0.0
 40
0.7534625946900548
 41
0.7534625946900548
  0
VERTEX
  5
6D9
  8
PROFILEEDGES
 10
-32.11596113589709
 20
23.76938377749394
 30
0.0
 40
0.7534625946900548
 41
0.7534625946900548
  0
SEQEND
  5
929
  8
PROFILEEDGES
  0
POLYLINE
  5
4CE
  8
PROFILEEDGES
 66
     1
 10
0.0
 20
0.0
 30
0.0
  0
VERTEX
  5
6DA
  8
PROFILEEDGES
 10
-36.71058309749614
 20
29.14899490768327
 30
0.0
 40
0.7534625946900548
 41
0.7534625946900548
  0
VERTEX
  5
6DB
  8
PROFILEEDGES
 10
-42.09019422768553
 20
33.74361686928231
 30
0.0
 40
0.7534625946900548
 41
0.7534625946900548
  0
SEQEND
  5
92A
  8
PROFILEEDGES
  0
POLYLINE
  5
4CF
  8
PROFILEEDGES
 66
     1
 10
0.0
 20
0.0
 30
0.0
  0
VERTEX
  5
6DC
  8
PROFILEEDGES
 10
-48.12233064653419
 20
37.44011482092036
 30
0.0
 40
0.7534625946900548
 41
0.7534625946900548
  0
VERTEX
  5
6DD
  8
PROFILEEDGES
 10
-42.09019422768553
 20
33.74361686928231
 30
0.0
 40
0.7534625946900548
 41
0.7534625946900548
  0
SEQEND
  5
92B
  8
PROFILEEDGES
  0
POLYLINE
  5
4D0
  8
PROFILEEDGES
 66
     1
 10
0.0
 20
0.0
 30
0.0
  0
VERTEX
  5
6DE
  8
PROFILEEDGES
 10
-48.12233064653419
 20
37.44011482092036
 30
0.0
 40
0.7534625946900548
 41
0.7534625946900548
  0
VERTEX
  5
6DF
  8
PROFILEEDGES
 10
-54.65846113589712
 20
40.14746871505479
 30
0.0
 40
0.7534625946900548
 41
0.7534625946900548
  0
SEQEND
  5
92C
  8
PROFILEEDGES
  0
POLYLINE
  5
4D1
  8
PROFILEEDGES
 66
     1
 10
0.0
 20
0.0
 30
0.0
  0
VERTEX
  5
6E0
  8
PROFILEEDGES
 10
-54.65846113589712
 20
40.14746871505479
 30
0.0
 40
0.7534625946900548
 41
0.7534625946900548
  0
VERTEX
  5
6E1
  8
PROFILEEDGES
 10
-61.53764447095285
 20
41.79901451361957
 30
0.0
 40
0.7534625946900548
 41
0.7534625946900548
  0
SEQEND
  5
92D
  8
PROFILEEDGES
  0
POLYLINE
  5
4D2
  8
PROFILEEDGES
 66
     1
 10
0.0
 20
0.0
 30
0.0
  0
VERTEX
  5
6E2
  8
PROFILEEDGES
 10
-68.59049232729164
 20
42.35408567788778
 30
0.0
 40
0.7534625946900548
 41
0.7534625946900548
  0
VERTEX
  5
6E3
  8
PROFILEEDGES
 10
-61.53764447095285
 20
41.79901451361957
 30
0.0
 40
0.7534625946900548
 41
0.7534625946900548
  0
SEQEND
  5
92E
  8
PROFILEEDGES
  0
POLYLINE
  5
4D3
  8
PROFILEEDGES
 66
     1
 10
0.0
 20
0.0
 30
0.0
  0
VERTEX
  5
6E4
  8
PROFILEEDGES
 10
-68.59049232729164
 20
42.35408567788778
 30
0.0
 40
0.7534625946900548
 41
0.7534625946900548
  0
VERTEX
  5
6E5
  8
PROFILEEDGES
 10
-75.64334018363043
 20
41.79901451361957
 30
0.0
 40
0.7534625946900548
 41
0.7534625946900548
  0
SEQEND
  5
92F
  8
PROFILEEDGES
  0
POLYLINE
  5
4D4
  8
PROFILEEDGES
 66
     1
 10
0.0
 20
0.0
 30
0.0
  0
VERTEX
  5
6E6
  8
PROFILEEDGES
 10
-82.52252351868616
 20
40.14746871505479
 30
0.0
 40
0.7534625946900548
 41
0.7534625946900548
  0
VERTEX
  5
6E7
  8
PROFILEEDGES
 10
-75.64334018363043
 20
41.79901451361957
 30
0.0
 40
0.7534625946900548
 41
0.7534625946900548
  0
SEQEND
  5
930
  8
PROFILEEDGES
  0
POLYLINE
  5
4D5
  8
PROFILEEDGES
 66
     1
 10
0.0
 20
0.0
 30
0.0
  0
VERTEX
  5
6E8
  8
PROFILEEDGES
 10
-82.52252351868616
 20
40.14746871505479
 30
0.0
 40
0.7534625946900548
 41
0.7534625946900548
  0
VERTEX
  5
6E9
  8
PROFILEEDGES
 10
-89.05865400804913
 20
37.44011482092036
 30
0.0
 40
0.7534625946900548
 41
0.7534625946900548
  0
SEQEND
  5
931
  8
PROFILEEDGES
  0
POLYLINE
  5
4D6
  8
PROFILEEDGES
 66
     1
 10
0.0
 20
0.0
 30
0.0
  0
VERTEX
  5
6EA
  8
PROFILEEDGES
 10
-89.05865400804913
 20
37.44011482092036
 30
0.0
 40
0.7534625946900548
 41
0.7534625946900548
  0
VERTEX
  5
6EB
  8
PROFILEEDGES
 10
-95.0907904268978
 20
33.74361686928228
 30
0.0
 40
0.7534625946900548
 41
0.7534625946900548
  0
SEQEND
  5
932
  8
PROFILEEDGES
  0
POLYLINE
  5
4D7
  8
PROFILEEDGES
 66
     1
 10
0.0
 20
0.0
 30
0.0
  0
VERTEX
  5
6EC
  8
PROFILEEDGES
 10
-100.4704015570871
 20
29.14899490768327
 30
0.0
 40
0.7534625946900548
 41
0.7534625946900548
  0
VERTEX
  5
6ED
  8
PROFILEEDGES
 10
-95.0907904268978
 20
33.74361686928228
 30
0.0
 40
0.7534625946900548
 41
0.7534625946900548
  0
SEQEND
  5
933
  8
PROFILEEDGES
  0
POLYLINE
  5
4D8
  8
PROFILEEDGES
 66
     1
 10
0.0
 20
0.0
 30
0.0
  0
VERTEX
  5
6EE
  8
PROFILEEDGES
 10
-100.4704015570871
 20
29.14899490768327
 30
0.0
 40
0.7534625946900548
 41
0.7534625946900548
  0
VERTEX
  5
6EF
  8
PROFILEEDGES
 10
-105.0650235186861
 20
23.76938377749394
 30
0.0
 40
0.7534625946900548
 41
0.7534625946900548
  0
SEQEND
  5
934
  8
PROFILEEDGES
  0
POLYLINE
  5
4D9
  8
PROFILEEDGES
 66
     1
 10
0.0
 20
0.0
 30
0.0
  0
VERTEX
  5
6F0
  8
PROFILEEDGES
 10
-108.7615214703242
 20
17.73724735864527
 30
0.0
 40
0.7534625946900548
 41
0.7534625946900548
  0
VERTEX
  5
6F1
  8
PROFILEEDGES
 10
-105.0650235186861
 20
23.76938377749394
 30
0.0
 40
0.7534625946900548
 41
0.7534625946900548
  0
SEQEND
  5
935
  8
PROFILEEDGES
  0
POLYLINE
  5
4DA
  8
PROFILEEDGES
 66
     1
 10
0.0
 20
0.0
 30
0.0
  0
VERTEX
  5
6F2
  8
PROFILEEDGES
 10
-108.7615214703242
 20
17.73724735864527
 30
0.0
 40
0.7534625946900548
 41
0.7534625946900548
  0
VERTEX
  5
6F3
  8
PROFILEEDGES
 10
-111.4688753644587
 20
11.2011168692823
 30
0.0
 40
0.7534625946900548
 41
0.7534625946900548
  0
SEQEND
  5
936
  8
PROFILEEDGES
  0
POLYLINE
  5
4DB
  8
PROFILEEDGES
 66
     1
 10
0.0
 20
0.0
 30
0.0
  0
VERTEX
  5
6F4
  8
PROFILEEDGES
 10
-111.4688753644587
 20
11.2011168692823
 30
0.0
 40
0.7534625946900548
 41
0.7534625946900548
  0
VERTEX
  5
6F5
  8
PROFILEEDGES
 10
-113.1204211630234
 20
4.321933534226593
 30
0.0
 40
0.7534625946900548
 41
0.7534625946900548
  0
SEQEND
  5
937
  8
PROFILEEDGES
  0
POLYLINE
  5
4DC
  8
PROFILEEDGES
 66
     1
 10
0.0
 20
0.0
 30
0.0
  0
VERTEX
  5
6F6
  8
PROFILEEDGES
 10
-111.4688753644587
 20
-16.66294551350672
 30
0.0
 40
0.7534625946900548
 41
0.7534625946900548
  0
VERTEX
  5
6F7
  8
PROFILEEDGES
 10
-113.1204211630234
 20
-9.783762178451038
 30
0.0
 40
0.7534625946900548
 41
0.7534625946900548
  0
SEQEND
  5
938
  8
PROFILEEDGES
  0
POLYLINE
  5
4DD
  8
PROFILEEDGES
 66
     1
 10
0.0
 20
0.0
 30
0.0
  0
VERTEX
  5
6F8
  8
PROFILEEDGES
 10
-113.6754923272916
 20
-2.730914322112222
 30
0.0
 40
0.7534625946900548
 41
0.7534625946900548
  0
VERTEX
  5
6F9
  8
PROFILEEDGES
 10
-113.1204211630234
 20
-9.783762178451038
 30
0.0
 40
0.7534625946900548
 41
0.7534625946900548
  0
SEQEND
  5
939
  8
PROFILEEDGES
  0
POLYLINE
  5
4DE
  8
PROFILEEDGES
 66
     1
 10
0.0
 20
0.0
 30
0.0
  0
VERTEX
  5
6FA
  8
PROFILEEDGES
 10
-113.1204211630234
 20
4.321933534226593
 30
0.0
 40
0.7534625946900548
 41
0.7534625946900548
  0
VERTEX
  5
6FB
  8
PROFILEEDGES
 10
-113.6754923272916
 20
-2.730914322112222
 30
0.0
 40
0.7534625946900548
 41
0.7534625946900548
  0
SEQEND
  5
93A
  8
PROFILEEDGES
  0
POLYLINE
  5
4DF
  8
PROFILEEDGES
 66
     1
 10
0.0
 20
0.0
 30
0.0
  0
VERTEX
  5
6FC
  8
PROFILEEDGES
 10
-111.4688753644587
 20
-16.66294551350672
 30
0.0
 40
0.7534625946900548
 41
0.7534625946900548
  0
VERTEX
  5
6FD
  8
PROFILEEDGES
 10
-108.7615214703242
 20
-23.19907600286969
 30
0.0
 40
0.7534625946900548
 41
0.7534625946900548
  0
SEQEND
  5
93B
  8
PROFILEEDGES
  0
POLYLINE
  5
4E0
  8
PROFILEEDGES
 66
     1
 10
0.0
 20
0.0
 30
0.0
  0
VERTEX
  5
6FE
  8
PROFILEEDGES
 10
-108.7615214703242
 20
-23.19907600286969
 30
0.0
 40
0.7534625946900548
 41
0.7534625946900548
  0
VERTEX
  5
6FF
  8
PROFILEEDGES
 10
-105.0650235186861
 20
-29.23121242171837
 30
0.0
 40
0.7534625946900548
 41
0.7534625946900548
  0
SEQEND
  5
93C
  8
PROFILEEDGES
  0
POLYLINE
  5
4E1
  8
PROFILEEDGES
 66
     1
 10
0.0
 20
0.0
 30
0.0
  0
VERTEX
  5
700
  8
PROFILEEDGES
 10
-100.4704015570871
 20
-34.61082355190772
 30
0.0
 40
0.7534625946900548
 41
0.7534625946900548
  0
VERTEX
  5
701
  8
PROFILEEDGES
 10
-105.0650235186861
 20
-29.23121242171837
 30
0.0
 40
0.7534625946900548
 41
0.7534625946900548
  0
SEQEND
  5
93D
  8
PROFILEEDGES
  0
POLYLINE
  5
4E2
  8
PROFILEEDGES
 66
     1
 10
0.0
 20
0.0
 30
0.0
  0
VERTEX
  5
702
  8
PROFILEEDGES
 10
-100.4704015570871
 20
-34.61082355190772
 30
0.0
 40
0.7534625946900548
 41
0.7534625946900548
  0
VERTEX
  5
703
  8
PROFILEEDGES
 10
-95.0907904268978
 20
-39.20544551350672
 30
0.0
 40
0.7534625946900548
 41
0.7534625946900548
  0
SEQEND
  5
93E
  8
PROFILEEDGES
  0
POLYLINE
  5
4E3
  8
PROFILEEDGES
 66
     1
 10
0.0
 20
0.0
 30
0.0
  0
VERTEX
  5
704
  8
PROFILEEDGES
 10
-89.05865400804909
 20
-42.90194346514479
 30
0.0
 40
0.7534625946900548
 41
0.7534625946900548
  0
VERTEX
  5
705
  8
PROFILEEDGES
 10
-95.0907904268978
 20
-39.20544551350672
 30
0.0
 40
0.7534625946900548
 41
0.7534625946900548
  0
SEQEND
  5
93F
  8
PROFILEEDGES
  0
POLYLINE
  5
4E4
  8
PROFILEEDGES
 66
     1
 10
0.0
 20
0.0
 30
0.0
  0
VERTEX
  5
706
  8
PROFILEEDGES
 10
-89.05865400804909
 20
-42.90194346514479
 30
0.0
 40
0.7534625946900548
 41
0.7534625946900548
  0
VERTEX
  5
707
  8
PROFILEEDGES
 10
-82.52252351868611
 20
-45.60929735927922
 30
0.0
 40
0.7534625946900548
 41
0.7534625946900548
  0
SEQEND
  5
940
  8
PROFILEEDGES
  0
POLYLINE
  5
4E5
  8
PROFILEEDGES
 66
     1
 10
0.0
 20
0.0
 30
0.0
  0
VERTEX
  5
708
  8
PROFILEEDGES
 10
-82.52252351868611
 20
-45.60929735927922
 30
0.0
 40
0.7534625946900548
 41
0.7534625946900548
  0
VERTEX
  5
709
  8
PROFILEEDGES
 10
-75.64334018363043
 20
-47.260843157844
 30
0.0
 40
0.7534625946900548
 41
0.7534625946900548
  0
SEQEND
  5
941
  8
PROFILEEDGES
  0
POLYLINE
  5
4E6
  8
PROFILEEDGES
 66
     1
 10
0.0
 20
0.0
 30
0.0
  0
VERTEX
  5
70A
  8
PROFILEEDGES
 10
-68.59049232729164
 20
-47.81591432211222
 30
0.0
 40
0.7534625946900548
 41
0.7534625946900548
  0
VERTEX
  5
70B
  8
PROFILEEDGES
 10
-75.64334018363043
 20
-47.260843157844
 30
0.0
 40
0.7534625946900548
 41
0.7534625946900548
  0
SEQEND
  5
942
  8
PROFILEEDGES
  0
POLYLINE
  5
4E7
  8
PROFILEEDGES
 66
     1
 10
0.0
 20
0.0
 30
0.0
  0
VERTEX
  5
70C
  8
PROFILEEDGES
 10
-68.59049232729164
 20
-47.81591432211222
 30
0.0
 40
0.7534625946900548
 41
0.7534625946900548
  0
VERTEX
  5
70D
  8
PROFILEEDGES
 10
-61.53764447095281
 20
-47.26084315784399
 30
0.0
 40
0.7534625946900548
 41
0.7534625946900548
  0
SEQEND
  5
943
  8
PROFILEEDGES
  0
POLYLINE
  5
4E8
  8
PROFILEEDGES
 66
     1
 10
0.0
 20
0.0
 30
0.0
  0
VERTEX
  5
70E
  8
PROFILEEDGES
 10
-54.65846113589712
 20
-45.60929735927921
 30
0.0
 40
0.7534625946900548
 41
0.7534625946900548
  0
VERTEX
  5
70F
  8
PROFILEEDGES
 10
-61.53764447095281
 20
-47.26084315784399
 30
0.0
 40
0.7534625946900548
 41
0.7534625946900548
  0
SEQEND
  5
944
  8
PROFILEEDGES
  0
POLYLINE
  5
4E9
  8
PROFILEEDGES
 66
     1
 10
0.0
 20
0.0
 30
0.0
  0
VERTEX
  5
710
  8
PROFILEEDGES
 10
-54.65846113589712
 20
-45.60929735927921
 30
0.0
 40
0.7534625946900548
 41
0.7534625946900548
  0
VERTEX
  5
711
  8
PROFILEEDGES
 10
-48.12233064653419
 20
-42.90194346514478
 30
0.0
 40
0.7534625946900548
 41
0.7534625946900548
  0
SEQEND
  5
945
  8
PROFILEEDGES
  0
POLYLINE
  5
4EA
  8
PROFILEEDGES
 66
     1
 10
0.0
 20
0.0
 30
0.0
  0
VERTEX
  5
712
  8
PROFILEEDGES
 10
-48.12233064653419
 20
-42.90194346514478
 30
0.0
 40
0.7534625946900548
 41
0.7534625946900548
  0
VERTEX
  5
713
  8
PROFILEEDGES
 10
-42.09019422768544
 20
-39.20544551350671
 30
0.0
 40
0.7534625946900548
 41
0.7534625946900548
  0
SEQEND
  5
946
  8
PROFILEEDGES
  0
POLYLINE
  5
4EB
  8
PROFILEEDGES
 66
     1
 10
0.0
 20
0.0
 30
0.0
  0
VERTEX
  5
714
  8
PROFILEEDGES
 10
-36.71058309749614
 20
-34.6108235519077
 30
0.0
 40
0.7534625946900548
 41
0.7534625946900548
  0
VERTEX
  5
715
  8
PROFILEEDGES
 10
-42.09019422768544
 20
-39.20544551350671
 30
0.0
 40
0.7534625946900548
 41
0.7534625946900548
  0
SEQEND
  5
947
  8
PROFILEEDGES
  0
POLYLINE
  5
4EC
  8
PROFILEEDGES
 66
     1
 10
0.0
 20
0.0
 30
0.0
  0
VERTEX
  5
716
  8
PROFILEEDGES
 10
-36.71058309749614
 20
-34.6108235519077
 30
0.0
 40
0.7534625946900548
 41
0.7534625946900548
  0
VERTEX
  5
717
  8
PROFILEEDGES
 10
-32.11596113589709
 20
-29.23121242171836
 30
0.0
 40
0.7534625946900548
 41
0.7534625946900548
  0
SEQEND
  5
948
  8
PROFILEEDGES
  0
POLYLINE
  5
4ED
  8
PROFILEEDGES
 66
     1
 10
0.0
 20
0.0
 30
0.0
  0
VERTEX
  5
718
  8
PROFILEEDGES
 10
-28.41946318425908
 20
-23.19907600286967
 30
0.0
 40
0.7534625946900548
 41
0.7534625946900548
  0
VERTEX
  5
719
  8
PROFILEEDGES
 10
-32.11596113589709
 20
-29.23121242171836
 30
0.0
 40
0.7534625946900548
 41
0.7534625946900548
  0
SEQEND
  5
949
  8
PROFILEEDGES
  0
POLYLINE
  5
4EE
  8
PROFILEEDGES
 66
     1
 10
0.0
 20
0.0
 30
0.0
  0
VERTEX
  5
71A
  8
PROFILEEDGES
 10
-28.41946318425908
 20
-23.19907600286967
 30
0.0
 40
0.7534625946900548
 41
0.7534625946900548
  0
VERTEX
  5
71B
  8
PROFILEEDGES
 10
-25.71210929012468
 20
-16.66294551350671
 30
0.0
 40
0.7534625946900548
 41
0.7534625946900548
  0
SEQEND
  5
94A
  8
PROFILEEDGES
  0
POLYLINE
  5
4EF
  8
PROFILEEDGES
 66
     1
 10
0.0
 20
0.0
 30
0.0
  0
VERTEX
  5
71C
  8
PROFILEEDGES
 10
-25.71210929012468
 20
-16.66294551350671
 30
0.0
 40
0.7534625946900548
 41
0.7534625946900548
  0
VERTEX
  5
71D
  8
PROFILEEDGES
 10
-24.06056349155987
 20
-9.783762178451015
 30
0.0
 40
0.7534625946900548
 41
0.7534625946900548
  0
SEQEND
  5
94B
  8
PROFILEEDGES
  0
POLYLINE
  5
4F0
  8
PROFILEEDGES
 66
     1
 10
0.0
 20
0.0
 30
0.0
  0
VERTEX
  5
71E
  8
PROFILEEDGES
 10
-23.50549232729159
 20
-2.730914322112211
 30
0.0
 40
0.7534625946900548
 41
0.7534625946900548
  0
VERTEX
  5
71F
  8
PROFILEEDGES
 10
-24.06056349155987
 20
-9.783762178451015
 30
0.0
 40
0.7534625946900548
 41
0.7534625946900548
  0
SEQEND
  5
94C
  8
PROFILEEDGES
  0
POLYLINE
  5
4F1
  8
PROFILEEDGES
 66
     1
 10
0.0
 20
0.0
 30
0.0
  0
VERTEX
  5
720
  8
PROFILEEDGES
 10
12.94318018883704
 20
-15.64457941118326
 30
0.0
 40
0.7534625946900548
 41
0.7534625946900548
  0
VERTEX
  5
721
  8
PROFILEEDGES
 10
13.95950767270835
 20
-2.730914322112199
 30
0.0
 40
0.7534625946900548
 41
0.7534625946900548
  0
SEQEND
  5
94D
  8
PROFILEEDGES
  0
POLYLINE
  5
4F2
  8
PROFILEEDGES
 66
     1
 10
0.0
 20
0.0
 30
0.0
  0
VERTEX
  5
722
  8
PROFILEEDGES
 10
9.919223092873287
 20
-28.24026720776411
 30
0.0
 40
0.7534625946900548
 41
0.7534625946900548
  0
VERTEX
  5
723
  8
PROFILEEDGES
 10
12.94318018883704
 20
-15.64457941118326
 30
0.0
 40
0.7534625946900548
 41
0.7534625946900548
  0
SEQEND
  5
94E
  8
PROFILEEDGES
  0
POLYLINE
  5
4F3
  8
PROFILEEDGES
 66
     1
 10
0.0
 20
0.0
 30
0.0
  0
VERTEX
  5
724
  8
PROFILEEDGES
 10
4.962096244458118
 20
-40.2078300756118
 30
0.0
 40
0.7534625946900548
 41
0.7534625946900548
  0
VERTEX
  5
725
  8
PROFILEEDGES
 10
9.919223092873287
 20
-28.24026720776411
 30
0.0
 40
0.7534625946900548
 41
0.7534625946900548
  0
SEQEND
  5
94F
  8
PROFILEEDGES
  0
POLYLINE
  5
4F4
  8
PROFILEEDGES
 66
     1
 10
0.0
 20
0.0
 30
0.0
  0
VERTEX
  5
726
  8
PROFILEEDGES
 10
-1.806139441639739
 20
-51.25258689885586
 30
0.0
 40
0.7534625946900548
 41
0.7534625946900548
  0
VERTEX
  5
727
  8
PROFILEEDGES
 10
4.962096244458118
 20
-40.2078300756118
 30
0.0
 40
0.7534625946900548
 41
0.7534625946900548
  0
SEQEND
  5
950
  8
PROFILEEDGES
  0
POLYLINE
  5
4F5
  8
PROFILEEDGES
 66
     1
 10
0.0
 20
0.0
 30
0.0
  0
VERTEX
  5
728
  8
PROFILEEDGES
 10
-10.21882754034213
 20
-61.10257910906171
 30
0.0
 40
0.7534625946900548
 41
0.7534625946900548
  0
VERTEX
  5
729
  8
PROFILEEDGES
 10
-1.806139441639739
 20
-51.25258689885586
 30
0.0
 40
0.7534625946900548
 41
0.7534625946900548
  0
SEQEND
  5
951
  8
PROFILEEDGES
  0
POLYLINE
  5
4F6
  8
PROFILEEDGES
 66
     1
 10
0.0
 20
0.0
 30
0.0
  0
VERTEX
  5
72A
  8
PROFILEEDGES
 10
-20.06881975054795
 20
-69.51526720776413
 30
0.0
 40
0.7534625946900548
 41
0.7534625946900548
  0
VERTEX
  5
72B
  8
PROFILEEDGES
 10
-10.21882754034213
 20
-61.10257910906171
 30
0.0
 40
0.7534625946900548
 41
0.7534625946900548
  0
SEQEND
  5
952
  8
PROFILEEDGES
  0
POLYLINE
  5
4F7
  8
PROFILEEDGES
 66
     1
 10
0.0
 20
0.0
 30
0.0
  0
VERTEX
  5
72C
  8
PROFILEEDGES
 10
-31.11357657379206
 20
-76.28350289386198
 30
0.0
 40
0.7534625946900548
 41
0.7534625946900548
  0
VERTEX
  5
72D
  8
PROFILEEDGES
 10
-20.06881975054795
 20
-69.51526720776413
 30
0.0
 40
0.7534625946900548
 41
0.7534625946900548
  0
SEQEND
  5
953
  8
PROFILEEDGES
  0
POLYLINE
  5
4F8
  8
PROFILEEDGES
 66
     1
 10
0.0
 20
0.0
 30
0.0
  0
VERTEX
  5
72E
  8
PROFILEEDGES
 10
-43.08113944163973
 20
-81.24062974227715
 30
0.0
 40
0.7534625946900548
 41
0.7534625946900548
  0
VERTEX
  5
72F
  8
PROFILEEDGES
 10
-31.11357657379206
 20
-76.28350289386198
 30
0.0
 40
0.7534625946900548
 41
0.7534625946900548
  0
SEQEND
  5
954
  8
PROFILEEDGES
  0
POLYLINE
  5
4F9
  8
PROFILEEDGES
 66
     1
 10
0.0
 20
0.0
 30
0.0
  0
VERTEX
  5
730
  8
PROFILEEDGES
 10
-55.67682723822058
 20
-84.26458683824083
 30
0.0
 40
0.7534625946900548
 41
0.7534625946900548
  0
VERTEX
  5
731
  8
PROFILEEDGES
 10
-43.08113944163973
 20
-81.24062974227715
 30
0.0
 40
0.7534625946900548
 41
0.7534625946900548
  0
SEQEND
  5
955
  8
PROFILEEDGES
  0
POLYLINE
  5
4FA
  8
PROFILEEDGES
 66
     1
 10
0.0
 20
0.0
 30
0.0
  0
VERTEX
  5
732
  8
PROFILEEDGES
 10
-68.59049232729164
 20
-85.28091432211222
 30
0.0
 40
0.7534625946900548
 41
0.7534625946900548
  0
VERTEX
  5
733
  8
PROFILEEDGES
 10
-55.67682723822058
 20
-84.26458683824083
 30
0.0
 40
0.7534625946900548
 41
0.7534625946900548
  0
SEQEND
  5
956
  8
PROFILEEDGES
  0
POLYLINE
  5
4FB
  8
PROFILEEDGES
 66
     1
 10
0.0
 20
0.0
 30
0.0
  0
VERTEX
  5
734
  8
PROFILEEDGES
 10
-81.5041574163627
 20
-84.26458683824086
 30
0.0
 40
0.7534625946900548
 41
0.7534625946900548
  0
VERTEX
  5
735
  8
PROFILEEDGES
 10
-68.59049232729164
 20
-85.28091432211222
 30
0.0
 40
0.7534625946900548
 41
0.7534625946900548
  0
SEQEND
  5
957
  8
PROFILEEDGES
  0
POLYLINE
  5
4FC
  8
PROFILEEDGES
 66
     1
 10
0.0
 20
0.0
 30
0.0
  0
VERTEX
  5
736
  8
PROFILEEDGES
 10
-94.09984521294355
 20
-81.24062974227715
 30
0.0
 40
0.7534625946900548
 41
0.7534625946900548
  0
VERTEX
  5
737
  8
PROFILEEDGES
 10
-81.5041574163627
 20
-84.26458683824086
 30
0.0
 40
0.7534625946900548
 41
0.7534625946900548
  0
SEQEND
  5
958
  8
PROFILEEDGES
  0
POLYLINE
  5
4FD
  8
PROFILEEDGES
 66
     1
 10
0.0
 20
0.0
 30
0.0
  0
VERTEX
  5
738
  8
PROFILEEDGES
 10
-106.0674080807912
 20
-76.283502893862
 30
0.0
 40
0.7534625946900548
 41
0.7534625946900548
  0
VERTEX
  5
739
  8
PROFILEEDGES
 10
-94.09984521294355
 20
-81.24062974227715
 30
0.0
 40
0.7534625946900548
 41
0.7534625946900548
  0
SEQEND
  5
959
  8
PROFILEEDGES
  0
POLYLINE
  5
4FE
  8
PROFILEEDGES
 66
     1
 10
0.0
 20
0.0
 30
0.0
  0
VERTEX
  5
73A
  8
PROFILEEDGES
 10
-117.1121649040353
 20
-69.51526720776415
 30
0.0
 40
0.7534625946900548
 41
0.7534625946900548
  0
VERTEX
  5
73B
  8
PROFILEEDGES
 10
-106.0674080807912
 20
-76.283502893862
 30
0.0
 40
0.7534625946900548
 41
0.7534625946900548
  0
SEQEND
  5
95A
  8
PROFILEEDGES
  0
POLYLINE
  5
4FF
  8
PROFILEEDGES
 66
     1
 10
0.0
 20
0.0
 30
0.0
  0
VERTEX
  5
73C
  8
PROFILEEDGES
 10
-126.9621571142412
 20
-61.10257910906173
 30
0.0
 40
0.7534625946900548
 41
0.7534625946900548
  0
VERTEX
  5
73D
  8
PROFILEEDGES
 10
-117.1121649040353
 20
-69.51526720776415
 30
0.0
 40
0.7534625946900548
 41
0.7534625946900548
  0
SEQEND
  5
95B
  8
PROFILEEDGES
  0
POLYLINE
  5
500
  8
PROFILEEDGES
 66
     1
 10
0.0
 20
0.0
 30
0.0
  0
VERTEX
  5
73E
  8
PROFILEEDGES
 10
117.7195076727076
 20
31.0399220001831
 30
0.0
 40
0.7534625946900548
 41
0.7534625946900548
  0
VERTEX
  5
73F
  8
PROFILEEDGES
 10
117.7195076727076
 20
31.32877874262067
 30
0.0
 40
0.7534625946900548
 41
0.7534625946900548
  0
SEQEND
  5
95C
  8
PROFILEEDGES
  0
POLYLINE
  5
501
  8
PROFILEEDGES
 66
     1
 10
0.0
 20
0.0
 30
0.0
  0
VERTEX
  5
740
  8
PROFILEEDGES
 10
136.9097582294921
 20
-56.78839091649435
 30
0.0
 40
0.7534625946900548
 41
0.7534625946900548
  0
VERTEX
  5
741
  8
PROFILEEDGES
 10
139.7131055447625
 20
-57.37689411507273
 30
0.0
 40
0.7534625946900548
 41
0.7534625946900548
  0
SEQEND
  5
95D
  8
PROFILEEDGES
  0
POLYLINE
  5
502
  8
PROFILEEDGES
 66
     1
 10
0.0
 20
0.0
 30
0.0
  0
VERTEX
  5
742
  8
PROFILEEDGES
 10
139.7131055447625
 20
-57.37689411507273
 30
0.0
 40
0.7534625946900548
 41
0.7534625946900548
  0
VERTEX
  5
743
  8
PROFILEEDGES
 10
141.964894071014
 20
-57.85451114493671
 30
0.0
 40
0.7534625946900548
 41
0.7534625946900548
  0
SEQEND
  5
95E
  8
PROFILEEDGES
  0
LINE
  5
503
  8
0
 10
146.4489797007724
 20
-30.34374925440032
 30
0.0
 11
147.6056259859866
 21
-29.99683829194908
 31
0.0
  0
LINE
  5
504
  8
0
 10
147.6056259859866
 20
-29.99683829194908
 30
0.0
 11
147.9465593077007
 21
-29.84118080789037
 31
0.0
  0
LINE
  5
505
  8
0
 10
147.9465593077007
 20
-29.84118080789037
 30
0.0
 11
148.0804349634538
 21
-29.68662961814627
 31
0.0
  0
LINE
  5
506
  8
0
 10
148.0804349634538
 20
-29.68662961814627
 30
0.0
 11
147.9521071658942
 21
-29.54987920840957
 31
0.0
  0
LINE
  5
507
  8
0
 10
147.9521071658942
 20
-29.54987920840957
 30
0.0
 11
147.6246143752947
 21
-29.43455846409782
 31
0.0
  0
LINE
  5
508
  8
0
 10
147.6246143752947
 20
-29.43455846409782
 30
0.0
 11
146.513983478328
 21
-29.22187754888665
 31
0.0
  0
LINE
  5
509
  8
0
 10
146.513983478328
 20
-29.22187754888665
 30
0.0
 11
142.2538729265648
 21
-28.70465631987679
 31
0.0
  0
LINE
  5
50A
  8
0
 10
142.2538729265648
 20
-28.70465631987679
 30
0.0
 11
139.6349851817614
 21
-28.42918739758848
 31
0.0
  0
LINE
  5
50B
  8
0
 10
139.6349851817614
 20
-28.42918739758848
 30
0.0
 11
135.9495056811562
 21
-28.05541260756221
 31
0.0
  0
LINE
  5
50C
  8
0
 10
135.9495056811562
 20
-28.05541260756221
 30
0.0
 11
129.4564671269017
 21
-27.41249947346
 31
0.0
  0
LINE
  5
50D
  8
0
 10
129.4564671269017
 20
-27.41249947346
 30
0.0
 11
117.7195076727075
 21
-26.26744226246404
 31
0.0
  0
LINE
  5
50E
  8
0
 10
133.4511562121343
 20
-33.20305264745932
 30
0.0
 11
136.909758229492
 21
-32.4708740572778
 31
0.0
  0
LINE
  5
50F
  8
0
 10
136.909758229492
 20
-32.4708740572778
 30
0.0
 11
139.7131055447624
 21
-31.87191813476617
 31
0.0
  0
LINE
  5
510
  8
0
 10
139.7131055447624
 20
-31.87191813476617
 30
0.0
 11
141.9648940710139
 21
-31.38372341396374
 31
0.0
  0
LINE
  5
511
  8
0
 10
141.9648940710139
 20
-31.38372341396374
 30
0.0
 11
146.4489797007724
 21
-30.34374925440032
 31
0.0
  0
POLYLINE
  5
512
  8
PROFILEEDGES
 66
     1
 10
0.0
 20
0.0
 30
0.0
  0
VERTEX
  5
744
  8
PROFILEEDGES
 10
117.7195076727076
 20
-36.79060738684507
 30
0.0
 40
0.7534625946900548
 41
0.7534625946900548
  0
VERTEX
  5
745
  8
PROFILEEDGES
 10
117.7195076727076
 20
-36.50175064440749
 30
0.0
 40
0.7534625946900548
 41
0.7534625946900548
  0
SEQEND
  5
95F
  8
PROFILEEDGES
  0
LINE
  5
513
  8
0
 10
148.0804349634538
 20
-29.68662961814627
 30
0.0
 11
148.1995076727076
 21
-29.67564815709288
 31
0.0
  0
LINE
  5
514
  8
0
 10
147.9521071658942
 20
24.37590511812887
 30
0.0
 11
147.6246143752947
 21
24.52785662090918
 31
0.0
  0
LINE
  5
515
  8
0
 10
147.6246143752947
 20
24.52785662090918
 30
0.0
 11
146.513983478328
 21
24.86476394141019
 31
0.0
  0
LINE
  5
516
  8
0
 10
146.513983478328
 20
24.86476394141019
 30
0.0
 11
142.2538729265648
 21
25.85848750925111
 31
0.0
  0
LINE
  5
517
  8
0
 10
142.2538729265648
 20
25.85848750925111
 30
0.0
 11
139.6349851817614
 21
26.42688454229434
 31
0.0
  0
LINE
  5
518
  8
0
 10
139.6349851817614
 20
26.42688454229434
 30
0.0
 11
135.9495056811563
 21
27.21288797766068
 31
0.0
  0
POLYLINE
  5
519
  8
PROFILEEDGES
 66
     1
 10
0.0
 20
0.0
 30
0.0
  0
VERTEX
  5
746
  8
PROFILEEDGES
 10
148.1995076727076
 20
22.57764974761428
 30
0.0
 40
0.7534625946900548
 41
0.7534625946900548
  0
VERTEX
  5
747
  8
PROFILEEDGES
 10
117.7195076727076
 20
16.10168197694988
 30
0.0
 40
0.7534625946900548
 41
0.7534625946900548
  0
SEQEND
  5
960
  8
PROFILEEDGES
  0
LINE
  5
51A
  8
0
 10
133.4511562121343
 20
22.34469358846706
 30
0.0
 11
136.909758229492
 21
22.69002025771084
 31
0.0
  0
LINE
  5
51B
  8
0
 10
136.909758229492
 20
22.69002025771084
 30
0.0
 11
139.7131055447624
 21
22.97541587796007
 31
0.0
  0
LINE
  5
51C
  8
0
 10
139.7131055447624
 20
22.97541587796007
 30
0.0
 11
141.9648940710139
 21
23.21174330887071
 31
0.0
  0
LINE
  5
51D
  8
0
 10
141.9648940710139
 20
23.21174330887071
 30
0.0
 11
146.4489797007724
 21
23.75016304534188
 31
0.0
  0
LINE
  5
51E
  8
0
 10
146.4489797007724
 20
23.75016304534188
 30
0.0
 11
147.6056259859866
 21
23.96770068439972
 31
0.0
  0
LINE
  5
51F
  8
0
 10
147.6056259859866
 20
23.96770068439972
 30
0.0
 11
147.9465593077007
 21
24.08522405827321
 31
0.0
  0
LINE
  5
520
  8
0
 10
148.0804349634538
 20
24.22480097392187
 30
0.0
 11
148.1995076727076
 21
24.21381951286849
 31
0.0
  0
LINE
  5
521
  8
0
 10
147.9465593077007
 20
24.08522405827321
 30
0.0
 11
148.0804349634538
 21
24.22480097392187
 31
0.0
  0
LINE
  5
522
  8
0
 10
141.9648940710144
 20
58.27185970180033
 30
0.0
 11
146.4489797007729
 21
57.90328397185534
 31
0.0
  0
LINE
  5
523
  8
0
 10
146.4489797007729
 20
57.90328397185534
 30
0.0
 11
147.6056259859872
 21
57.82763800835011
 31
0.0
  0
LINE
  5
524
  8
0
 10
147.6056259859872
 20
57.82763800835011
 30
0.0
 11
147.9465593077012
 21
57.81852977447171
 31
0.0
  0
LINE
  5
525
  8
0
 10
148.0804349634543
 20
57.83802815169128
 30
0.0
 11
148.1995076727081
 21
57.81335303268526
 31
0.0
  0
LINE
  5
526
  8
0
 10
147.9465593077012
 20
57.81852977447171
 30
0.0
 11
148.0804349634543
 21
57.83802815169128
 31
0.0
  0
POLYLINE
  5
527
  8
PROFILEEDGES
 66
     1
 10
0.0
 20
0.0
 30
0.0
  0
VERTEX
  5
748
  8
PROFILEEDGES
 10
148.1995076727081
 20
57.81335303268526
 30
0.0
 40
0.7534625946900548
 41
0.7534625946900548
  0
VERTEX
  5
749
  8
PROFILEEDGES
 10
148.1995076727081
 20
57.83938207204237
 30
0.0
 40
0.7534625946900548
 41
0.7534625946900548
  0
SEQEND
  5
961
  8
PROFILEEDGES
  0
POLYLINE
  5
528
  8
PROFILEEDGES
 66
     1
 10
0.0
 20
0.0
 30
0.0
  0
VERTEX
  5
74A
  8
PROFILEEDGES
 10
148.1995076727074
 20
-3.872190322409902
 30
0.0
 40
0.7534625946900548
 41
0.7534625946900548
  0
VERTEX
  5
74B
  8
PROFILEEDGES
 10
117.7195076727074
 20
-10.3449493209483
 30
0.0
 40
0.7534625946900548
 41
0.7534625946900548
  0
SEQEND
  5
962
  8
PROFILEEDGES
  0
POLYLINE
  5
529
  8
PROFILEEDGES
 66
     1
 10
0.0
 20
0.0
 30
0.0
  0
VERTEX
  5
74C
  8
PROFILEEDGES
 10
148.1995076727074
 20
-1.589638321814441
 30
0.0
 40
0.7534625946900548
 41
0.7534625946900548
  0
VERTEX
  5
74D
  8
PROFILEEDGES
 10
117.7195076727074
 20
4.883120676723941
 30
0.0
 40
0.7534625946900548
 41
0.7534625946900548
  0
SEQEND
  5
963
  8
PROFILEEDGES
  0
LINE
  5
52A
  8
0
 10
148.0804349634538
 20
24.22480097392187
 30
0.0
 11
147.9521071658942
 21
24.37590511812887
 31
0.0
  0
POLYLINE
  5
52B
  8
PROFILEEDGES
 66
     1
 10
0.0
 20
0.0
 30
0.0
  0
VERTEX
  5
74E
  8
PROFILEEDGES
 10
148.0804349634543
 20
57.83802815169128
 30
0.0
 40
0.7534625946900548
 41
0.7534625946900548
  0
VERTEX
  5
74F
  8
PROFILEEDGES
 10
147.9521071658947
 20
57.88970152781792
 30
0.0
 40
0.7534625946900548
 41
0.7534625946900548
  0
SEQEND
  5
964
  8
PROFILEEDGES
  0
POLYLINE
  5
52C
  8
PROFILEEDGES
 66
     1
 10
0.0
 20
0.0
 30
0.0
  0
VERTEX
  5
750
  8
PROFILEEDGES
 10
147.9521071658947
 20
57.88970152781792
 30
0.0
 40
0.7534625946900548
 41
0.7534625946900548
  0
VERTEX
  5
751
  8
PROFILEEDGES
 10
147.6246143752952
 20
57.96386120822745
 30
0.0
 40
0.7534625946900548
 41
0.7534625946900548
  0
SEQEND
  5
965
  8
PROFILEEDGES
  0
POLYLINE
  5
52D
  8
PROFILEEDGES
 66
     1
 10
0.0
 20
0.0
 30
0.0
  0
VERTEX
  5
752
  8
PROFILEEDGES
 10
147.6246143752952
 20
57.96386120822745
 30
0.0
 40
0.7534625946900548
 41
0.7534625946900548
  0
VERTEX
  5
753
  8
PROFILEEDGES
 10
146.5139834783285
 20
58.17129685002416
 30
0.0
 40
0.7534625946900548
 41
0.7534625946900548
  0
SEQEND
  5
966
  8
PROFILEEDGES
  0
POLYLINE
  5
52E
  8
PROFILEEDGES
 66
     1
 10
0.0
 20
0.0
 30
0.0
  0
VERTEX
  5
754
  8
PROFILEEDGES
 10
146.5139834783285
 20
58.17129685002416
 30
0.0
 40
0.7534625946900548
 41
0.7534625946900548
  0
VERTEX
  5
755
  8
PROFILEEDGES
 10
142.2538729265654
 20
58.89322864184524
 30
0.0
 40
0.7534625946900548
 41
0.7534625946900548
  0
SEQEND
  5
967
  8
PROFILEEDGES
  0
POLYLINE
  5
52F
  8
PROFILEEDGES
 66
     1
 10
0.0
 20
0.0
 30
0.0
  0
VERTEX
  5
756
  8
PROFILEEDGES
 10
136.9097582294931
 20
48.46176325335186
 30
0.0
 40
0.7534625946900548
 41
0.7534625946900548
  0
VERTEX
  5
757
  8
PROFILEEDGES
 10
139.7131055447635
 20
47.87326005477349
 30
0.0
 40
0.7534625946900548
 41
0.7534625946900548
  0
SEQEND
  5
968
  8
PROFILEEDGES
  0
POLYLINE
  5
530
  8
PROFILEEDGES
 66
     1
 10
0.0
 20
0.0
 30
0.0
  0
VERTEX
  5
758
  8
PROFILEEDGES
 10
139.7131055447635
 20
47.87326005477349
 30
0.0
 40
0.7534625946900548
 41
0.7534625946900548
  0
VERTEX
  5
759
  8
PROFILEEDGES
 10
141.964894071015
 20
47.39564302490952
 30
0.0
 40
0.7534625946900548
 41
0.7534625946900548
  0
SEQEND
  5
969
  8
PROFILEEDGES
  0
POLYLINE
  5
531
  8
PROFILEEDGES
 66
     1
 10
0.0
 20
0.0
 30
0.0
  0
VERTEX
  5
75A
  8
PROFILEEDGES
 10
139.6349851817616
 20
51.89859375068529
 30
0.0
 40
0.7534625946900548
 41
0.7534625946900548
  0
VERTEX
  5
75B
  8
PROFILEEDGES
 10
135.9495056811564
 20
51.12589285762592
 30
0.0
 40
0.7534625946900548
 41
0.7534625946900548
  0
SEQEND
  5
96A
  8
PROFILEEDGES
  0
POLYLINE
  5
532
  8
PROFILEEDGES
 66
     1
 10
0.0
 20
0.0
 30
0.0
  0
VERTEX
  5
75C
  8
PROFILEEDGES
 10
117.7195076727085
 20
76.70215393892177
 30
0.0
 40
0.7534625946900548
 41
0.7534625946900548
  0
VERTEX
  5
75D
  8
PROFILEEDGES
 10
148.1995076727085
 20
70.21895724785121
 30
0.0
 40
0.7534625946900548
 41
0.7534625946900548
  0
SEQEND
  5
96B
  8
PROFILEEDGES
  0
POLYLINE
  5
533
  8
PROFILEEDGES
 66
     1
 10
0.0
 20
0.0
 30
0.0
  0
VERTEX
  5
75E
  8
PROFILEEDGES
 10
139.7131055447632
 20
66.46931362950028
 30
0.0
 40
0.7534625946900548
 41
0.7534625946900548
  0
VERTEX
  5
75F
  8
PROFILEEDGES
 10
141.9648940710148
 20
66.84175505807279
 30
0.0
 40
0.7534625946900548
 41
0.7534625946900548
  0
SEQEND
  5
96C
  8
PROFILEEDGES
  0
POLYLINE
  5
534
  8
PROFILEEDGES
 66
     1
 10
0.0
 20
0.0
 30
0.0
  0
VERTEX
  5
760
  8
PROFILEEDGES
 10
141.9648940710148
 20
66.84175505807279
 30
0.0
 40
0.7534625946900548
 41
0.7534625946900548
  0
VERTEX
  5
761
  8
PROFILEEDGES
 10
146.4489797007733
 20
67.60016188697041
 30
0.0
 40
0.7534625946900548
 41
0.7534625946900548
  0
SEQEND
  5
96D
  8
PROFILEEDGES
  0
POLYLINE
  5
535
  8
PROFILEEDGES
 66
     1
 10
0.0
 20
0.0
 30
0.0
  0
VERTEX
  5
762
  8
PROFILEEDGES
 10
146.4489797007733
 20
67.60016188697041
 30
0.0
 40
0.7534625946900548
 41
0.7534625946900548
  0
VERTEX
  5
763
  8
PROFILEEDGES
 10
147.6056259859875
 20
67.81521514239527
 30
0.0
 40
0.7534625946900548
 41
0.7534625946900548
  0
SEQEND
  5
96E
  8
PROFILEEDGES
  0
POLYLINE
  5
536
  8
PROFILEEDGES
 66
     1
 10
0.0
 20
0.0
 30
0.0
  0
VERTEX
  5
764
  8
PROFILEEDGES
 10
147.6056259859875
 20
67.81521514239527
 30
0.0
 40
0.7534625946900548
 41
0.7534625946900548
  0
VERTEX
  5
765
  8
PROFILEEDGES
 10
147.9465593077016
 20
67.89179347630899
 30
0.0
 40
0.7534625946900548
 41
0.7534625946900548
  0
SEQEND
  5
96F
  8
PROFILEEDGES
  0
POLYLINE
  5
537
  8
PROFILEEDGES
 66
     1
 10
0.0
 20
0.0
 30
0.0
  0
VERTEX
  5
766
  8
PROFILEEDGES
 10
148.1995076727085
 20
67.94358482165038
 30
0.0
 40
0.7534625946900548
 41
0.7534625946900548
  0
VERTEX
  5
767
  8
PROFILEEDGES
 10
148.1995076727085
 20
67.96961386100746
 30
0.0
 40
0.7534625946900548
 41
0.7534625946900548
  0
SEQEND
  5
970
  8
PROFILEEDGES
  0
LINE
  5
538
  8
0
 10
148.0804349634546
 20
67.94493874200147
 30
0.0
 11
148.1995076727085
 21
67.96961386100746
 31
0.0
  0
POLYLINE
  5
539
  8
PROFILEEDGES
 66
     1
 10
0.0
 20
0.0
 30
0.0
  0
VERTEX
  5
768
  8
PROFILEEDGES
 10
117.7195076727087
 20
37.31062857830857
 30
0.0
 40
0.7534625946900548
 41
0.7534625946900548
  0
VERTEX
  5
769
  8
PROFILEEDGES
 10
148.1995076727088
 20
43.81145282883637
 30
0.0
 40
0.7534625946900548
 41
0.7534625946900548
  0
SEQEND
  5
971
  8
PROFILEEDGES
  0
LINE
  5
53A
  8
0
 10
148.0804349634546
 20
67.94493874200147
 30
0.0
 11
147.9521071658951
 21
67.96435956953611
 31
0.0
  0
LINE
  5
53B
  8
0
 10
147.9521071658951
 20
67.96435956953611
 30
0.0
 11
147.6246143752956
 21
67.95621068279809
 31
0.0
  0
LINE
  5
53C
  8
0
 10
147.6246143752956
 20
67.95621068279809
 30
0.0
 11
146.5139834783288
 21
67.8845121256654
 31
0.0
  0
LINE
  5
53D
  8
0
 10
146.5139834783288
 20
67.8845121256654
 30
0.0
 11
142.2538729265657
 21
67.53575288100943
 31
0.0
  0
LINE
  5
53E
  8
0
 10
139.6349851817629
 20
29.98024156241724
 30
0.0
 11
135.9495056811577
 21
30.35401635244344
 31
0.0
  0
LINE
  5
53F
  8
0
 10
135.9495056811577
 20
30.35401635244344
 30
0.0
 11
129.4564671269032
 21
30.99692948654572
 31
0.0
  0
LINE
  5
540
  8
0
 10
129.4564671269032
 20
30.99692948654572
 30
0.0
 11
117.719507672709
 21
32.14198669754168
 31
0.0
  0
POLYLINE
  5
541
  8
PROFILEEDGES
 66
     1
 10
0.0
 20
0.0
 30
0.0
  0
VERTEX
  5
76A
  8
PROFILEEDGES
 10
148.1995076727091
 20
30.35990908189364
 30
0.0
 40
0.7534625946900548
 41
0.7534625946900548
  0
VERTEX
  5
76B
  8
PROFILEEDGES
 10
117.7195076727091
 20
36.84591833883142
 30
0.0
 40
0.7534625946900548
 41
0.7534625946900548
  0
SEQEND
  5
972
  8
PROFILEEDGES
  0
POLYLINE
  5
542
  8
PROFILEEDGES
 66
     1
 10
0.0
 20
0.0
 30
0.0
  0
VERTEX
  5
76C
  8
PROFILEEDGES
 10
148.1995076727091
 20
28.08797323440724
 30
0.0
 40
0.7534625946900548
 41
0.7534625946900548
  0
VERTEX
  5
76D
  8
PROFILEEDGES
 10
140.594183520709
 20
26.4738001578905
 30
0.0
 40
0.7534625946900548
 41
0.7534625946900548
  0
SEQEND
  5
973
  8
PROFILEEDGES
  0
LINE
  5
543
  8
0
 10
140.0004678475364
 20
26.59981186174262
 30
0.0
 11
141.9648940710154
 21
27.02570554604197
 31
0.0
  0
LINE
  5
544
  8
0
 10
141.9648940710154
 20
27.02570554604197
 30
0.0
 11
146.4489797007739
 21
28.0656797056054
 31
0.0
  0
LINE
  5
545
  8
0
 10
146.4489797007739
 20
28.0656797056054
 30
0.0
 11
147.6056259859881
 21
28.41259066805662
 31
0.0
  0
LINE
  5
546
  8
0
 10
147.6056259859881
 20
28.41259066805662
 30
0.0
 11
147.9465593077022
 21
28.56824815211533
 31
0.0
  0
LINE
  5
547
  8
0
 10
148.0804349634552
 20
28.72279934185945
 30
0.0
 11
148.1995076727091
 21
28.73378080291281
 31
0.0
  0
LINE
  5
548
  8
0
 10
147.9465593077022
 20
28.56824815211533
 30
0.0
 11
148.0804349634552
 21
28.72279934185945
 31
0.0
  0
POLYLINE
  5
549
  8
PROFILEEDGES
 66
     1
 10
0.0
 20
0.0
 30
0.0
  0
VERTEX
  5
76E
  8
PROFILEEDGES
 10
117.7195076727087
 20
-42.77245722253299
 30
0.0
 40
0.7534625946900548
 41
0.7534625946900548
  0
VERTEX
  5
76F
  8
PROFILEEDGES
 10
148.1995076727088
 20
-49.2732814730608
 30
0.0
 40
0.7534625946900548
 41
0.7534625946900548
  0
SEQEND
  5
974
  8
PROFILEEDGES
  0
LINE
  5
54A
  8
0
 10
148.0804349634552
 20
28.72279934185945
 30
0.0
 11
147.9521071658957
 21
28.85954975159613
 31
0.0
  0
LINE
  5
54B
  8
0
 10
147.9521071658957
 20
28.85954975159613
 30
0.0
 11
147.6246143752961
 21
28.97487049590787
 31
0.0
  0
LINE
  5
54C
  8
0
 10
147.6246143752961
 20
28.97487049590787
 30
0.0
 11
146.5139834783294
 21
29.18755141111905
 31
0.0
  0
LINE
  5
54D
  8
0
 10
146.5139834783294
 20
29.18755141111905
 30
0.0
 11
142.2538729265663
 21
29.70477264012889
 31
0.0
  0
LINE
  5
54E
  8
0
 10
142.2538729265663
 20
29.70477264012889
 30
0.0
 11
139.6349851817629
 21
29.98024156241724
 31
0.0
  0
POLYLINE
  5
54F
  8
PROFILEEDGES
 66
     1
 10
0.0
 20
0.0
 30
0.0
  0
VERTEX
  5
770
  8
PROFILEEDGES
 10
139.6349851817626
 20
-53.35156041916096
 30
0.0
 40
0.7534625946900548
 41
0.7534625946900548
  0
VERTEX
  5
771
  8
PROFILEEDGES
 10
135.9495056811574
 20
-54.12426131222035
 30
0.0
 40
0.7534625946900548
 41
0.7534625946900548
  0
SEQEND
  5
975
  8
PROFILEEDGES
  0
POLYLINE
  5
550
  8
PROFILEEDGES
 66
     1
 10
0.0
 20
0.0
 30
0.0
  0
VERTEX
  5
772
  8
PROFILEEDGES
 10
135.9495056811574
 20
-54.12426131222035
 30
0.0
 40
0.7534625946900548
 41
0.7534625946900548
  0
VERTEX
  5
773
  8
PROFILEEDGES
 10
130.0278922307528
 20
-55.35594699657191
 30
0.0
 40
0.7534625946900548
 41
0.7534625946900548
  0
SEQEND
  5
976
  8
PROFILEEDGES
  0
POLYLINE
  5
551
  8
PROFILEEDGES
 66
     1
 10
0.0
 20
0.0
 30
0.0
  0
VERTEX
  5
774
  8
PROFILEEDGES
 10
148.1995076727091
 20
-33.54980187863166
 30
0.0
 40
0.7534625946900548
 41
0.7534625946900548
  0
VERTEX
  5
775
  8
PROFILEEDGES
 10
140.5941835207089
 20
-31.9356288021149
 30
0.0
 40
0.7534625946900548
 41
0.7534625946900548
  0
SEQEND
  5
977
  8
PROFILEEDGES
  0
POLYLINE
  5
552
  8
PROFILEEDGES
 66
     1
 10
0.0
 20
0.0
 30
0.0
  0
VERTEX
  5
776
  8
PROFILEEDGES
 10
148.1995076727091
 20
-35.83177921239146
 30
0.0
 40
0.7534625946900548
 41
0.7534625946900548
  0
VERTEX
  5
777
  8
PROFILEEDGES
 10
117.7195076727091
 20
-42.30774698305584
 30
0.0
 40
0.7534625946900548
 41
0.7534625946900548
  0
SEQEND
  5
978
  8
PROFILEEDGES
  0
POLYLINE
  5
553
  8
PROFILEEDGES
 66
     1
 10
0.0
 20
0.0
 30
0.0
  0
VERTEX
  5
778
  8
PROFILEEDGES
 10
148.1995076727081
 20
-63.30121071626678
 30
0.0
 40
0.7534625946900548
 41
0.7534625946900548
  0
VERTEX
  5
779
  8
PROFILEEDGES
 10
148.1995076727081
 20
-63.27518167690969
 30
0.0
 40
0.7534625946900548
 41
0.7534625946900548
  0
SEQEND
  5
979
  8
PROFILEEDGES
  0
LINE
  5
554
  8
0
 10
146.4489797007739
 20
-34.65926591466386
 30
0.0
 11
147.6056259859881
 21
-34.44172827560602
 31
0.0
  0
LINE
  5
555
  8
0
 10
147.6056259859881
 20
-34.44172827560602
 30
0.0
 11
147.9465593077022
 21
-34.32420490173254
 31
0.0
  0
LINE
  5
556
  8
0
 10
147.9465593077022
 20
-34.32420490173254
 30
0.0
 11
148.0804349634552
 21
-34.18462798608385
 31
0.0
  0
LINE
  5
557
  8
0
 10
148.0804349634552
 20
-34.18462798608385
 30
0.0
 11
147.9521071658957
 21
-34.03352384187685
 31
0.0
  0
LINE
  5
558
  8
0
 10
147.9521071658957
 20
-34.03352384187685
 30
0.0
 11
147.6246143752961
 21
-33.88157233909655
 31
0.0
  0
LINE
  5
559
  8
0
 10
147.6246143752961
 20
-33.88157233909655
 30
0.0
 11
146.5139834783294
 21
-33.54466501859555
 31
0.0
  0
LINE
  5
55A
  8
0
 10
146.5139834783294
 20
-33.54466501859555
 30
0.0
 11
142.2538729265663
 21
-32.55094145075461
 31
0.0
  0
LINE
  5
55B
  8
0
 10
142.2538729265663
 20
-32.55094145075461
 30
0.0
 11
139.9999381665076
 21
-32.0617529267973
 31
0.0
  0
LINE
  5
55C
  8
0
 10
133.4511562121357
 20
-36.06473537153865
 30
0.0
 11
136.9097582294935
 21
-35.71940870229488
 31
0.0
  0
LINE
  5
55D
  8
0
 10
136.9097582294935
 20
-35.71940870229488
 30
0.0
 11
139.7131055447638
 21
-35.43401308204567
 31
0.0
  0
LINE
  5
55E
  8
0
 10
139.7131055447638
 20
-35.43401308204567
 30
0.0
 11
141.9648940710154
 21
-35.19768565113502
 31
0.0
  0
LINE
  5
55F
  8
0
 10
141.9648940710154
 20
-35.19768565113502
 30
0.0
 11
146.4489797007739
 21
-34.65926591466386
 31
0.0
  0
LINE
  5
560
  8
0
 10
148.0804349634552
 20
-34.18462798608385
 30
0.0
 11
148.1995076727091
 21
-34.19560944713726
 31
0.0
  0
POLYLINE
  5
561
  8
PROFILEEDGES
 66
     1
 10
0.0
 20
0.0
 30
0.0
  0
VERTEX
  5
77A
  8
PROFILEEDGES
 10
141.9648940710144
 20
-64.4030404798444
 30
0.0
 40
0.7534625946900548
 41
0.7534625946900548
  0
VERTEX
  5
77B
  8
PROFILEEDGES
 10
146.4489797007729
 20
-63.64463365094676
 30
0.0
 40
0.7534625946900548
 41
0.7534625946900548
  0
SEQEND
  5
97A
  8
PROFILEEDGES
  0
LINE
  5
562
  8
0
 10
148.0804349634543
 20
-63.29985679591572
 30
0.0
 11
148.1995076727081
 21
-63.27518167690969
 31
0.0
  0
POLYLINE
  5
563
  8
PROFILEEDGES
 66
     1
 10
0.0
 20
0.0
 30
0.0
  0
VERTEX
  5
77C
  8
PROFILEEDGES
 10
117.7195076727085
 20
-82.16398258314618
 30
0.0
 40
0.7534625946900548
 41
0.7534625946900548
  0
VERTEX
  5
77D
  8
PROFILEEDGES
 10
148.1995076727085
 20
-75.68279520097597
 30
0.0
 40
0.7534625946900548
 41
0.7534625946900548
  0
SEQEND
  5
97B
  8
PROFILEEDGES
  0
POLYLINE
  5
564
  8
PROFILEEDGES
 66
     1
 10
0.0
 20
0.0
 30
0.0
  0
VERTEX
  5
77E
  8
PROFILEEDGES
 10
146.4489797007729
 20
-63.64463365094676
 30
0.0
 40
0.7534625946900548
 41
0.7534625946900548
  0
VERTEX
  5
77F
  8
PROFILEEDGES
 10
147.6056259859872
 20
-63.42958039552191
 30
0.0
 40
0.7534625946900548
 41
0.7534625946900548
  0
SEQEND
  5
97C
  8
PROFILEEDGES
  0
POLYLINE
  5
565
  8
PROFILEEDGES
 66
     1
 10
0.0
 20
0.0
 30
0.0
  0
VERTEX
  5
780
  8
PROFILEEDGES
 10
147.6056259859872
 20
-63.42958039552191
 30
0.0
 40
0.7534625946900548
 41
0.7534625946900548
  0
VERTEX
  5
781
  8
PROFILEEDGES
 10
147.9465593077012
 20
-63.35300206160817
 30
0.0
 40
0.7534625946900548
 41
0.7534625946900548
  0
SEQEND
  5
97D
  8
PROFILEEDGES
  0
LINE
  5
566
  8
0
 10
148.0804349634543
 20
-63.29985679591572
 30
0.0
 11
147.9521071658947
 21
-63.28043596838107
 31
0.0
  0
LINE
  5
567
  8
0
 10
147.9521071658947
 20
-63.28043596838107
 30
0.0
 11
147.6246143752952
 21
-63.2885848551191
 31
0.0
  0
LINE
  5
568
  8
0
 10
147.6246143752952
 20
-63.2885848551191
 30
0.0
 11
146.5139834783284
 21
-63.36028341225179
 31
0.0
  0
LINE
  5
569
  8
0
 10
146.5139834783284
 20
-63.36028341225179
 30
0.0
 11
142.2538729265653
 21
-63.70904265690776
 31
0.0
  0
POLYLINE
  5
56A
  8
PROFILEEDGES
 66
     1
 10
0.0
 20
0.0
 30
0.0
  0
VERTEX
  5
782
  8
PROFILEEDGES
 10
139.7131055447629
 20
-64.77548190841691
 30
0.0
 40
0.7534625946900548
 41
0.7534625946900548
  0
VERTEX
  5
783
  8
PROFILEEDGES
 10
141.9648940710144
 20
-64.4030404798444
 30
0.0
 40
0.7534625946900548
 41
0.7534625946900548
  0
SEQEND
  5
97E
  8
PROFILEEDGES
  0
LINE
  5
56B
  8
0
 10
146.4489797007733
 20
-73.34151156606183
 30
0.0
 11
147.6056259859875
 21
-73.41715752956706
 31
0.0
  0
LINE
  5
56C
  8
0
 10
147.6056259859875
 20
-73.41715752956706
 30
0.0
 11
147.9465593077016
 21
-73.42626576344547
 31
0.0
  0
LINE
  5
56D
  8
0
 10
147.9465593077016
 20
-73.42626576344547
 30
0.0
 11
148.0804349634546
 21
-73.4067673862259
 31
0.0
  0
POLYLINE
  5
56E
  8
PROFILEEDGES
 66
     1
 10
0.0
 20
0.0
 30
0.0
  0
VERTEX
  5
784
  8
PROFILEEDGES
 10
148.0804349634546
 20
-73.4067673862259
 30
0.0
 40
0.7534625946900548
 41
0.7534625946900548
  0
VERTEX
  5
785
  8
PROFILEEDGES
 10
147.9521071658951
 20
-73.35509401009925
 30
0.0
 40
0.7534625946900548
 41
0.7534625946900548
  0
SEQEND
  5
97F
  8
PROFILEEDGES
  0
POLYLINE
  5
56F
  8
PROFILEEDGES
 66
     1
 10
0.0
 20
0.0
 30
0.0
  0
VERTEX
  5
786
  8
PROFILEEDGES
 10
147.9521071658951
 20
-73.35509401009925
 30
0.0
 40
0.7534625946900548
 41
0.7534625946900548
  0
VERTEX
  5
787
  8
PROFILEEDGES
 10
147.6246143752956
 20
-73.28093432968976
 30
0.0
 40
0.7534625946900548
 41
0.7534625946900548
  0
SEQEND
  5
980
  8
PROFILEEDGES
  0
POLYLINE
  5
570
  8
PROFILEEDGES
 66
     1
 10
0.0
 20
0.0
 30
0.0
  0
VERTEX
  5
788
  8
PROFILEEDGES
 10
147.6246143752956
 20
-73.28093432968976
 30
0.0
 40
0.7534625946900548
 41
0.7534625946900548
  0
VERTEX
  5
789
  8
PROFILEEDGES
 10
146.5139834783288
 20
-73.07349868789308
 30
0.0
 40
0.7534625946900548
 41
0.7534625946900548
  0
SEQEND
  5
981
  8
PROFILEEDGES
  0
POLYLINE
  5
571
  8
PROFILEEDGES
 66
     1
 10
0.0
 20
0.0
 30
0.0
  0
VERTEX
  5
78A
  8
PROFILEEDGES
 10
146.5139834783288
 20
-73.07349868789308
 30
0.0
 40
0.7534625946900548
 41
0.7534625946900548
  0
VERTEX
  5
78B
  8
PROFILEEDGES
 10
142.2538729265657
 20
-72.35156689607192
 30
0.0
 40
0.7534625946900548
 41
0.7534625946900548
  0
SEQEND
  5
982
  8
PROFILEEDGES
  0
LINE
  5
572
  8
0
 10
139.7131055447632
 20
-72.77943660145895
 30
0.0
 11
141.9648940710148
 21
-72.97293583611686
 31
0.0
  0
LINE
  5
573
  8
0
 10
141.9648940710148
 20
-72.97293583611686
 30
0.0
 11
146.4489797007733
 21
-73.34151156606183
 31
0.0
  0
LINE
  5
574
  8
0
 10
148.0804349634546
 20
-73.4067673862259
 30
0.0
 11
148.1995076727085
 21
-73.4314425052319
 31
0.0
  0
POLYLINE
  5
575
  8
PROFILEEDGES
 66
     1
 10
0.0
 20
0.0
 30
0.0
  0
VERTEX
  5
78C
  8
PROFILEEDGES
 10
148.1995076727085
 20
-73.4314425052319
 30
0.0
 40
0.7534625946900548
 41
0.7534625946900548
  0
VERTEX
  5
78D
  8
PROFILEEDGES
 10
148.1995076727085
 20
-73.40541346587483
 30
0.0
 40
0.7534625946900548
 41
0.7534625946900548
  0
SEQEND
  5
983
  8
PROFILEEDGES
  0
POLYLINE
  5
576
  8
PROFILEEDGES
 66
     1
 10
0.0
 20
0.0
 30
0.0
  0
VERTEX
  5
78E
  8
PROFILEEDGES
 10
148.1995076727076
 20
-28.04951987811206
 30
0.0
 40
0.7534625946900548
 41
0.7534625946900548
  0
VERTEX
  5
78F
  8
PROFILEEDGES
 10
117.7195076727076
 20
-21.56351062117428
 30
0.0
 40
0.7534625946900548
 41
0.7534625946900548
  0
SEQEND
  5
984
  8
PROFILEEDGES
  0
POLYLINE
  5
577
  8
PROFILEEDGES
 66
     1
 10
0.0
 20
0.0
 30
0.0
  0
VERTEX
  5
790
  8
PROFILEEDGES
 10
91.86950966425901
 20
51.1258928576259
 30
0.0
 40
0.7534625946900548
 41
0.7534625946900548
  0
VERTEX
  5
791
  8
PROFILEEDGES
 10
88.18403016365386
 20
51.89859375068527
 30
0.0
 40
0.7534625946900548
 41
0.7534625946900548
  0
SEQEND
  5
985
  8
PROFILEEDGES
  0
POLYLINE
  5
578
  8
PROFILEEDGES
 66
     1
 10
0.0
 20
0.0
 30
0.0
  0
VERTEX
  5
792
  8
PROFILEEDGES
 10
79.6195076727087
 20
46.06363274549287
 30
0.0
 40
0.7534625946900548
 41
0.7534625946900548
  0
VERTEX
  5
793
  8
PROFILEEDGES
 10
79.86888765571466
 20
46.11638040118788
 30
0.0
 40
0.7534625946900548
 41
0.7534625946900548
  0
SEQEND
  5
986
  8
PROFILEEDGES
  0
POLYLINE
  5
579
  8
PROFILEEDGES
 66
     1
 10
0.0
 20
0.0
 30
0.0
  0
VERTEX
  5
794
  8
PROFILEEDGES
 10
110.0995076727073
 20
4.883120676723531
 30
0.0
 40
0.7534625946900548
 41
0.7534625946900548
  0
VERTEX
  5
795
  8
PROFILEEDGES
 10
79.61950767270898
 20
-1.603689323217097
 30
0.0
 40
0.7534625946900548
 41
0.7534625946900548
  0
SEQEND
  5
987
  8
PROFILEEDGES
  0
LINE
  5
57A
  8
0
 10
88.18403016365458
 20
67.31085997551776
 30
0.0
 11
85.5651424188512
 21
67.53575288100939
 31
0.0
  0
LINE
  5
57B
  8
0
 10
85.5651424188512
 20
67.53575288100939
 30
0.0
 11
81.30503186708809
 21
67.88451212566537
 31
0.0
  0
LINE
  5
57C
  8
0
 10
81.30503186708809
 20
67.88451212566537
 30
0.0
 11
80.19440097012136
 21
67.95621068279804
 31
0.0
  0
LINE
  5
57D
  8
0
 10
80.19440097012136
 20
67.95621068279804
 30
0.0
 11
79.86690817952184
 21
67.96435956953609
 31
0.0
  0
LINE
  5
57E
  8
0
 10
79.86690817952184
 20
67.96435956953609
 30
0.0
 11
79.73858038196228
 21
67.94493874200144
 31
0.0
  0
POLYLINE
  5
57F
  8
PROFILEEDGES
 66
     1
 10
0.0
 20
0.0
 30
0.0
  0
VERTEX
  5
796
  8
PROFILEEDGES
 10
79.87245603771535
 20
67.89179347630896
 30
0.0
 40
0.7534625946900548
 41
0.7534625946900548
  0
VERTEX
  5
797
  8
PROFILEEDGES
 10
80.2133893594294
 20
67.81521514239526
 30
0.0
 40
0.7534625946900548
 41
0.7534625946900548
  0
SEQEND
  5
988
  8
PROFILEEDGES
  0
POLYLINE
  5
580
  8
PROFILEEDGES
 66
     1
 10
0.0
 20
0.0
 30
0.0
  0
VERTEX
  5
798
  8
PROFILEEDGES
 10
80.2133893594294
 20
67.81521514239526
 30
0.0
 40
0.7534625946900548
 41
0.7534625946900548
  0
VERTEX
  5
799
  8
PROFILEEDGES
 10
81.37003564464364
 20
67.6001618869704
 30
0.0
 40
0.7534625946900548
 41
0.7534625946900548
  0
SEQEND
  5
989
  8
PROFILEEDGES
  0
POLYLINE
  5
581
  8
PROFILEEDGES
 66
     1
 10
0.0
 20
0.0
 30
0.0
  0
VERTEX
  5
79A
  8
PROFILEEDGES
 10
81.37003564464364
 20
67.6001618869704
 30
0.0
 40
0.7534625946900548
 41
0.7534625946900548
  0
VERTEX
  5
79B
  8
PROFILEEDGES
 10
85.85412127440215
 20
66.84175505807276
 30
0.0
 40
0.7534625946900548
 41
0.7534625946900548
  0
SEQEND
  5
98A
  8
PROFILEEDGES
  0
LINE
  5
582
  8
0
 10
79.61950767270844
 20
67.96961386100743
 30
0.0
 11
79.73858038196228
 21
67.94493874200144
 31
0.0
  0
POLYLINE
  5
583
  8
PROFILEEDGES
 66
     1
 10
0.0
 20
0.0
 30
0.0
  0
VERTEX
  5
79C
  8
PROFILEEDGES
 10
79.6195076727087
 20
43.78940603783146
 30
0.0
 40
0.7534625946900548
 41
0.7534625946900548
  0
VERTEX
  5
79D
  8
PROFILEEDGES
 10
110.0995076727074
 20
37.31062857830882
 30
0.0
 40
0.7534625946900548
 41
0.7534625946900548
  0
SEQEND
  5
98B
  8
PROFILEEDGES
  0
POLYLINE
  5
584
  8
PROFILEEDGES
 66
     1
 10
0.0
 20
0.0
 30
0.0
  0
VERTEX
  5
79E
  8
PROFILEEDGES
 10
85.85412127440242
 20
47.3956430249095
 30
0.0
 40
0.7534625946900548
 41
0.7534625946900548
  0
VERTEX
  5
79F
  8
PROFILEEDGES
 10
88.10590980065395
 20
47.87326005477347
 30
0.0
 40
0.7534625946900548
 41
0.7534625946900548
  0
SEQEND
  5
98C
  8
PROFILEEDGES
  0
POLYLINE
  5
585
  8
PROFILEEDGES
 66
     1
 10
0.0
 20
0.0
 30
0.0
  0
VERTEX
  5
7A0
  8
PROFILEEDGES
 10
79.61950767270844
 20
70.21895724785116
 30
0.0
 40
0.7534625946900548
 41
0.7534625946900548
  0
VERTEX
  5
7A1
  8
PROFILEEDGES
 10
110.0995076727084
 20
76.70215393892171
 30
0.0
 40
0.7534625946900548
 41
0.7534625946900548
  0
SEQEND
  5
98D
  8
PROFILEEDGES
  0
POLYLINE
  5
586
  8
PROFILEEDGES
 66
     1
 10
0.0
 20
0.0
 30
0.0
  0
VERTEX
  5
7A2
  8
PROFILEEDGES
 10
79.61950767270844
 20
67.96961386100743
 30
0.0
 40
0.7534625946900548
 41
0.7534625946900548
  0
VERTEX
  5
7A3
  8
PROFILEEDGES
 10
79.61950767270844
 20
67.94358482165036
 30
0.0
 40
0.7534625946900548
 41
0.7534625946900548
  0
SEQEND
  5
98E
  8
PROFILEEDGES
  0
POLYLINE
  5
587
  8
PROFILEEDGES
 66
     1
 10
0.0
 20
0.0
 30
0.0
  0
VERTEX
  5
7A4
  8
PROFILEEDGES
 10
117.7195076727091
 20
36.84591833883142
 30
0.0
 40
0.7534625946900548
 41
0.7534625946900548
  0
VERTEX
  5
7A5
  8
PROFILEEDGES
 10
117.7195076727087
 20
37.31062857830857
 30
0.0
 40
0.7534625946900548
 41
0.7534625946900548
  0
SEQEND
  5
98F
  8
PROFILEEDGES
  0
POLYLINE
  5
588
  8
PROFILEEDGES
 66
     1
 10
0.0
 20
0.0
 30
0.0
  0
VERTEX
  5
7A6
  8
PROFILEEDGES
 10
117.7195076727087
 20
-42.77245722253299
 30
0.0
 40
0.7534625946900548
 41
0.7534625946900548
  0
VERTEX
  5
7A7
  8
PROFILEEDGES
 10
117.7195076727091
 20
-42.30774698305584
 30
0.0
 40
0.7534625946900548
 41
0.7534625946900548
  0
SEQEND
  5
990
  8
PROFILEEDGES
  0
POLYLINE
  5
589
  8
PROFILEEDGES
 66
     1
 10
0.0
 20
0.0
 30
0.0
  0
VERTEX
  5
7A8
  8
PROFILEEDGES
 10
110.0995076727083
 20
79.8190856778878
 30
0.0
 40
0.7534625946900548
 41
0.7534625946900548
  0
VERTEX
  5
7A9
  8
PROFILEEDGES
 10
117.7195076727083
 20
79.8190856778878
 30
0.0
 40
0.7534625946900548
 41
0.7534625946900548
  0
SEQEND
  5
991
  8
PROFILEEDGES
  0
POLYLINE
  5
58A
  8
PROFILEEDGES
 66
     1
 10
0.0
 20
0.0
 30
0.0
  0
VERTEX
  5
7AA
  8
PROFILEEDGES
 10
110.0995076727083
 20
-85.28091432211222
 30
0.0
 40
0.7534625946900548
 41
0.7534625946900548
  0
VERTEX
  5
7AB
  8
PROFILEEDGES
 10
117.7195076727083
 20
-85.28091432211222
 30
0.0
 40
0.7534625946900548
 41
0.7534625946900548
  0
SEQEND
  5
992
  8
PROFILEEDGES
  0
POLYLINE
  5
58B
  8
PROFILEEDGES
 66
     1
 10
0.0
 20
0.0
 30
0.0
  0
VERTEX
  5
7AC
  8
PROFILEEDGES
 10
110.0995076727076
 20
-36.50175064440747
 30
0.0
 40
0.7534625946900548
 41
0.7534625946900548
  0
VERTEX
  5
7AD
  8
PROFILEEDGES
 10
110.0995076727086
 20
-36.79060738684506
 30
0.0
 40
0.7534625946900548
 41
0.7534625946900548
  0
SEQEND
  5
993
  8
PROFILEEDGES
  0
POLYLINE
  5
58C
  8
PROFILEEDGES
 66
     1
 10
0.0
 20
0.0
 30
0.0
  0
VERTEX
  5
7AE
  8
PROFILEEDGES
 10
79.6195076727087
 20
-49.2512346820559
 30
0.0
 40
0.7534625946900548
 41
0.7534625946900548
  0
VERTEX
  5
7AF
  8
PROFILEEDGES
 10
110.0995076727087
 20
-42.77245722253299
 30
0.0
 40
0.7534625946900548
 41
0.7534625946900548
  0
SEQEND
  5
994
  8
PROFILEEDGES
  0
POLYLINE
  5
58D
  8
PROFILEEDGES
 66
     1
 10
0.0
 20
0.0
 30
0.0
  0
VERTEX
  5
7B0
  8
PROFILEEDGES
 10
110.0995076727074
 20
-42.30774698305547
 30
0.0
 40
0.7534625946900548
 41
0.7534625946900548
  0
VERTEX
  5
7B1
  8
PROFILEEDGES
 10
79.61950767270905
 20
-35.83177921239145
 30
0.0
 40
0.7534625946900548
 41
0.7534625946900548
  0
SEQEND
  5
995
  8
PROFILEEDGES
  0
LINE
  5
58E
  8
0
 10
90.90925711592462
 20
-35.71940870229487
 30
0.0
 11
94.36785913328231
 21
-36.06473537153864
 31
0.0
  0
LINE
  5
58F
  8
0
 10
88.10590980065427
 20
-35.43401308204567
 30
0.0
 11
90.90925711592462
 21
-35.71940870229487
 31
0.0
  0
LINE
  5
590
  8
0
 10
85.85412127440273
 20
-35.19768565113502
 30
0.0
 11
88.10590980065427
 21
-35.43401308204567
 31
0.0
  0
LINE
  5
591
  8
0
 10
81.37003564464422
 20
-34.65926591466386
 30
0.0
 11
85.85412127440273
 21
-35.19768565113502
 31
0.0
  0
LINE
  5
592
  8
0
 10
80.21338935942998
 20
-34.44172827560602
 30
0.0
 11
81.37003564464422
 21
-34.65926591466386
 31
0.0
  0
LINE
  5
593
  8
0
 10
79.87245603771595
 20
-34.32420490173254
 30
0.0
 11
80.21338935942998
 21
-34.44172827560602
 31
0.0
  0
LINE
  5
594
  8
0
 10
79.61950767270903
 20
-34.19560944713726
 30
0.0
 11
79.73858038196288
 21
-34.18462798608385
 31
0.0
  0
LINE
  5
595
  8
0
 10
79.73858038196288
 20
-34.18462798608385
 30
0.0
 11
79.87245603771595
 21
-34.32420490173254
 31
0.0
  0
POLYLINE
  5
596
  8
PROFILEEDGES
 66
     1
 10
0.0
 20
0.0
 30
0.0
  0
VERTEX
  5
7B2
  8
PROFILEEDGES
 10
97.79112311466362
 20
-55.35594699657168
 30
0.0
 40
0.7534625946900548
 41
0.7534625946900548
  0
VERTEX
  5
7B3
  8
PROFILEEDGES
 10
91.86950966426002
 20
-54.12426131222034
 30
0.0
 40
0.7534625946900548
 41
0.7534625946900548
  0
SEQEND
  5
996
  8
PROFILEEDGES
  0
POLYLINE
  5
597
  8
PROFILEEDGES
 66
     1
 10
0.0
 20
0.0
 30
0.0
  0
VERTEX
  5
7B4
  8
PROFILEEDGES
 10
91.86950966426002
 20
-54.12426131222034
 30
0.0
 40
0.7534625946900548
 41
0.7534625946900548
  0
VERTEX
  5
7B5
  8
PROFILEEDGES
 10
88.18403016365487
 20
-53.35156041916095
 30
0.0
 40
0.7534625946900548
 41
0.7534625946900548
  0
SEQEND
  5
997
  8
PROFILEEDGES
  0
POLYLINE
  5
598
  8
PROFILEEDGES
 66
     1
 10
0.0
 20
0.0
 30
0.0
  0
VERTEX
  5
7B6
  8
PROFILEEDGES
 10
85.85412127440179
 20
-64.40304047984438
 30
0.0
 40
0.7534625946900548
 41
0.7534625946900548
  0
VERTEX
  5
7B7
  8
PROFILEEDGES
 10
88.10590980065335
 20
-64.7754819084169
 30
0.0
 40
0.7534625946900548
 41
0.7534625946900548
  0
SEQEND
  5
998
  8
PROFILEEDGES
  0
POLYLINE
  5
599
  8
PROFILEEDGES
 66
     1
 10
0.0
 20
0.0
 30
0.0
  0
VERTEX
  5
7B8
  8
PROFILEEDGES
 10
81.37003564464327
 20
-63.64463365094674
 30
0.0
 40
0.7534625946900548
 41
0.7534625946900548
  0
VERTEX
  5
7B9
  8
PROFILEEDGES
 10
85.85412127440179
 20
-64.40304047984438
 30
0.0
 40
0.7534625946900548
 41
0.7534625946900548
  0
SEQEND
  5
999
  8
PROFILEEDGES
  0
POLYLINE
  5
59A
  8
PROFILEEDGES
 66
     1
 10
0.0
 20
0.0
 30
0.0
  0
VERTEX
  5
7BA
  8
PROFILEEDGES
 10
80.21338935942903
 20
-63.4295803955219
 30
0.0
 40
0.7534625946900548
 41
0.7534625946900548
  0
VERTEX
  5
7BB
  8
PROFILEEDGES
 10
81.37003564464327
 20
-63.64463365094674
 30
0.0
 40
0.7534625946900548
 41
0.7534625946900548
  0
SEQEND
  5
99A
  8
PROFILEEDGES
  0
POLYLINE
  5
59B
  8
PROFILEEDGES
 66
     1
 10
0.0
 20
0.0
 30
0.0
  0
VERTEX
  5
7BC
  8
PROFILEEDGES
 10
79.87245603771498
 20
-63.35300206160816
 30
0.0
 40
0.7534625946900548
 41
0.7534625946900548
  0
VERTEX
  5
7BD
  8
PROFILEEDGES
 10
80.21338935942903
 20
-63.4295803955219
 30
0.0
 40
0.7534625946900548
 41
0.7534625946900548
  0
SEQEND
  5
99B
  8
PROFILEEDGES
  0
LINE
  5
59C
  8
0
 10
79.61950767270808
 20
-63.27518167690967
 30
0.0
 11
79.73858038196192
 21
-63.29985679591571
 31
0.0
  0
POLYLINE
  5
59D
  8
PROFILEEDGES
 66
     1
 10
0.0
 20
0.0
 30
0.0
  0
VERTEX
  5
7BE
  8
PROFILEEDGES
 10
79.61950767270808
 20
-63.27518167690967
 30
0.0
 40
0.7534625946900548
 41
0.7534625946900548
  0
VERTEX
  5
7BF
  8
PROFILEEDGES
 10
79.61950767270808
 20
-63.30121071626676
 30
0.0
 40
0.7534625946900548
 41
0.7534625946900548
  0
SEQEND
  5
99C
  8
PROFILEEDGES
  0
LINE
  5
59E
  8
0
 10
87.81907717890905
 20
-32.0617529267976
 30
0.0
 11
85.5651424188518
 21
-32.55094145075461
 31
0.0
  0
LINE
  5
59F
  8
0
 10
85.5651424188518
 20
-32.55094145075461
 30
0.0
 11
81.3050318670887
 21
-33.54466501859554
 31
0.0
  0
LINE
  5
5A0
  8
0
 10
81.3050318670887
 20
-33.54466501859554
 30
0.0
 11
80.19440097012196
 21
-33.88157233909654
 31
0.0
  0
LINE
  5
5A1
  8
0
 10
80.19440097012196
 20
-33.88157233909654
 30
0.0
 11
79.86690817952245
 21
-34.03352384187685
 31
0.0
  0
LINE
  5
5A2
  8
0
 10
79.86690817952245
 20
-34.03352384187685
 30
0.0
 11
79.73858038196288
 21
-34.18462798608385
 31
0.0
  0
POLYLINE
  5
5A3
  8
PROFILEEDGES
 66
     1
 10
0.0
 20
0.0
 30
0.0
  0
VERTEX
  5
7C0
  8
PROFILEEDGES
 10
87.22483182470776
 20
-31.93562880211521
 30
0.0
 40
0.7534625946900548
 41
0.7534625946900548
  0
VERTEX
  5
7C1
  8
PROFILEEDGES
 10
79.61950767270905
 20
-33.56785532006112
 30
0.0
 40
0.7534625946900548
 41
0.7534625946900548
  0
SEQEND
  5
99D
  8
PROFILEEDGES
  0
POLYLINE
  5
5A4
  8
PROFILEEDGES
 66
     1
 10
0.0
 20
0.0
 30
0.0
  0
VERTEX
  5
7C2
  8
PROFILEEDGES
 10
79.61950767270844
 20
-75.68279520097595
 30
0.0
 40
0.7534625946900548
 41
0.7534625946900548
  0
VERTEX
  5
7C3
  8
PROFILEEDGES
 10
110.099507672708
 20
-82.16398258314607
 30
0.0
 40
0.7534625946900548
 41
0.7534625946900548
  0
SEQEND
  5
99E
  8
PROFILEEDGES
  0
LINE
  5
5A5
  8
0
 10
85.85412127440212
 20
-72.97293583611685
 30
0.0
 11
88.10590980065368
 21
-72.77943660145895
 31
0.0
  0
LINE
  5
5A6
  8
0
 10
81.37003564464362
 20
-73.3415115660618
 30
0.0
 11
85.85412127440212
 21
-72.97293583611685
 31
0.0
  0
LINE
  5
5A7
  8
0
 10
80.21338935942939
 20
-73.41715752956705
 30
0.0
 11
81.37003564464362
 21
-73.3415115660618
 31
0.0
  0
LINE
  5
5A8
  8
0
 10
79.87245603771535
 20
-73.42626576344547
 30
0.0
 11
80.21338935942939
 21
-73.41715752956705
 31
0.0
  0
LINE
  5
5A9
  8
0
 10
79.61950767270844
 20
-73.4314425052319
 30
0.0
 11
79.73858038196228
 21
-73.40676738622588
 31
0.0
  0
LINE
  5
5AA
  8
0
 10
79.73858038196228
 20
-73.40676738622588
 30
0.0
 11
79.87245603771535
 21
-73.42626576344547
 31
0.0
  0
POLYLINE
  5
5AB
  8
PROFILEEDGES
 66
     1
 10
0.0
 20
0.0
 30
0.0
  0
VERTEX
  5
7C4
  8
PROFILEEDGES
 10
79.61950767270844
 20
-73.4054134658748
 30
0.0
 40
0.7534625946900548
 41
0.7534625946900548
  0
VERTEX
  5
7C5
  8
PROFILEEDGES
 10
79.61950767270844
 20
-73.4314425052319
 30
0.0
 40
0.7534625946900548
 41
0.7534625946900548
  0
SEQEND
  5
99F
  8
PROFILEEDGES
  0
LINE
  5
5AC
  8
0
 10
85.56514241885083
 20
-63.70904265690773
 30
0.0
 11
81.30503186708773
 21
-63.36028341225178
 31
0.0
  0
LINE
  5
5AD
  8
0
 10
81.30503186708773
 20
-63.36028341225178
 30
0.0
 11
80.19440097012101
 21
-63.2885848551191
 31
0.0
  0
LINE
  5
5AE
  8
0
 10
80.19440097012101
 20
-63.2885848551191
 30
0.0
 11
79.86690817952147
 21
-63.28043596838105
 31
0.0
  0
LINE
  5
5AF
  8
0
 10
79.86690817952147
 20
-63.28043596838105
 30
0.0
 11
79.73858038196192
 21
-63.29985679591571
 31
0.0
  0
LINE
  5
5B0
  8
0
 10
98.36254821851338
 20
-27.41249947345999
 30
0.0
 11
91.86950966425886
 21
-28.05541260756221
 31
0.0
  0
LINE
  5
5B1
  8
0
 10
91.86950966425886
 20
-28.05541260756221
 30
0.0
 11
88.18403016365372
 21
-28.42918739758848
 31
0.0
  0
LINE
  5
5B2
  8
0
 10
88.18403016365372
 20
-28.42918739758848
 30
0.0
 11
85.56514241885033
 21
-28.70465631987679
 31
0.0
  0
LINE
  5
5B3
  8
0
 10
85.56514241885033
 20
-28.70465631987679
 30
0.0
 11
81.30503186708722
 21
-29.22187754888663
 31
0.0
  0
LINE
  5
5B4
  8
0
 10
81.30503186708722
 20
-29.22187754888663
 30
0.0
 11
80.19440097012048
 21
-29.43455846409782
 31
0.0
  0
LINE
  5
5B5
  8
0
 10
80.19440097012048
 20
-29.43455846409782
 30
0.0
 11
79.86690817952098
 21
-29.54987920840957
 31
0.0
  0
LINE
  5
5B6
  8
0
 10
79.86690817952098
 20
-29.54987920840957
 30
0.0
 11
79.73858038196141
 21
-29.68662961814627
 31
0.0
  0
LINE
  5
5B7
  8
0
 10
79.73858038196141
 20
-29.68662961814627
 30
0.0
 11
79.87245603771449
 21
-29.84118080789037
 31
0.0
  0
LINE
  5
5B8
  8
0
 10
79.87245603771449
 20
-29.84118080789037
 30
0.0
 11
80.21338935942852
 21
-29.99683829194908
 31
0.0
  0
LINE
  5
5B9
  8
0
 10
80.21338935942852
 20
-29.99683829194908
 30
0.0
 11
81.37003564464275
 21
-30.34374925440032
 31
0.0
  0
LINE
  5
5BA
  8
0
 10
81.37003564464275
 20
-30.34374925440032
 30
0.0
 11
85.85412127440127
 21
-31.38372341396374
 31
0.0
  0
LINE
  5
5BB
  8
0
 10
85.85412127440127
 20
-31.38372341396374
 30
0.0
 11
88.10590980065281
 21
-31.87191813476616
 31
0.0
  0
LINE
  5
5BC
  8
0
 10
88.10590980065281
 20
-31.87191813476616
 30
0.0
 11
90.90925711592317
 21
-32.47087405727778
 31
0.0
  0
LINE
  5
5BD
  8
0
 10
110.0995076727075
 20
-26.26744226246404
 30
0.0
 11
98.36254821851338
 21
-27.41249947345999
 31
0.0
  0
LINE
  5
5BE
  8
0
 10
79.61950767270757
 20
-29.67564815709287
 30
0.0
 11
79.73858038196141
 21
-29.68662961814627
 31
0.0
  0
POLYLINE
  5
5BF
  8
PROFILEEDGES
 66
     1
 10
0.0
 20
0.0
 30
0.0
  0
VERTEX
  5
7C6
  8
PROFILEEDGES
 10
110.0995076727088
 20
-21.56351062117428
 30
0.0
 40
0.7534625946900548
 41
0.7534625946900548
  0
VERTEX
  5
7C7
  8
PROFILEEDGES
 10
79.61950767270758
 20
-28.04951987811206
 30
0.0
 40
0.7534625946900548
 41
0.7534625946900548
  0
SEQEND
  5
9A0
  8
PROFILEEDGES
  0
POLYLINE
  5
5C0
  8
PROFILEEDGES
 66
     1
 10
0.0
 20
0.0
 30
0.0
  0
VERTEX
  5
7C8
  8
PROFILEEDGES
 10
85.56514241885122
 20
-72.35156689607192
 30
0.0
 40
0.7534625946900548
 41
0.7534625946900548
  0
VERTEX
  5
7C9
  8
PROFILEEDGES
 10
81.30503186708812
 20
-73.07349868789305
 30
0.0
 40
0.7534625946900548
 41
0.7534625946900548
  0
SEQEND
  5
9A1
  8
PROFILEEDGES
  0
POLYLINE
  5
5C1
  8
PROFILEEDGES
 66
     1
 10
0.0
 20
0.0
 30
0.0
  0
VERTEX
  5
7CA
  8
PROFILEEDGES
 10
81.30503186708812
 20
-73.07349868789305
 30
0.0
 40
0.7534625946900548
 41
0.7534625946900548
  0
VERTEX
  5
7CB
  8
PROFILEEDGES
 10
80.19440097012136
 20
-73.28093432968973
 30
0.0
 40
0.7534625946900548
 41
0.7534625946900548
  0
SEQEND
  5
9A2
  8
PROFILEEDGES
  0
POLYLINE
  5
5C2
  8
PROFILEEDGES
 66
     1
 10
0.0
 20
0.0
 30
0.0
  0
VERTEX
  5
7CC
  8
PROFILEEDGES
 10
80.19440097012136
 20
-73.28093432968973
 30
0.0
 40
0.7534625946900548
 41
0.7534625946900548
  0
VERTEX
  5
7CD
  8
PROFILEEDGES
 10
79.86690817952186
 20
-73.35509401009924
 30
0.0
 40
0.7534625946900548
 41
0.7534625946900548
  0
SEQEND
  5
9A3
  8
PROFILEEDGES
  0
POLYLINE
  5
5C3
  8
PROFILEEDGES
 66
     1
 10
0.0
 20
0.0
 30
0.0
  0
VERTEX
  5
7CE
  8
PROFILEEDGES
 10
79.86690817952186
 20
-73.35509401009924
 30
0.0
 40
0.7534625946900548
 41
0.7534625946900548
  0
VERTEX
  5
7CF
  8
PROFILEEDGES
 10
79.73858038196228
 20
-73.40676738622588
 30
0.0
 40
0.7534625946900548
 41
0.7534625946900548
  0
SEQEND
  5
9A4
  8
PROFILEEDGES
  0
LINE
  5
5C4
  8
0
 10
88.1059098006528
 20
22.97541587796005
 30
0.0
 11
90.90925711592314
 21
22.69002025771084
 31
0.0
  0
LINE
  5
5C5
  8
0
 10
85.85412127440125
 20
23.21174330887069
 30
0.0
 11
88.1059098006528
 21
22.97541587796005
 31
0.0
  0
LINE
  5
5C6
  8
0
 10
81.37003564464275
 20
23.75016304534185
 30
0.0
 11
85.85412127440125
 21
23.21174330887069
 31
0.0
  0
LINE
  5
5C7
  8
0
 10
80.21338935942852
 20
23.9677006843997
 30
0.0
 11
81.37003564464275
 21
23.75016304534185
 31
0.0
  0
LINE
  5
5C8
  8
0
 10
79.87245603771447
 20
24.08522405827319
 30
0.0
 11
80.21338935942852
 21
23.9677006843997
 31
0.0
  0
LINE
  5
5C9
  8
0
 10
79.61950767270757
 20
24.21381951286847
 30
0.0
 11
79.73858038196141
 21
24.22480097392187
 31
0.0
  0
LINE
  5
5CA
  8
0
 10
79.73858038196141
 20
24.22480097392187
 30
0.0
 11
79.87245603771447
 21
24.08522405827319
 31
0.0
  0
POLYLINE
  5
5CB
  8
PROFILEEDGES
 66
     1
 10
0.0
 20
0.0
 30
0.0
  0
VERTEX
  5
7D0
  8
PROFILEEDGES
 10
85.85412127440138
 20
-57.85451114493669
 30
0.0
 40
0.7534625946900548
 41
0.7534625946900548
  0
VERTEX
  5
7D1
  8
PROFILEEDGES
 10
88.10590980065294
 20
-57.37689411507271
 30
0.0
 40
0.7534625946900548
 41
0.7534625946900548
  0
SEQEND
  5
9A5
  8
PROFILEEDGES
  0
POLYLINE
  5
5CC
  8
PROFILEEDGES
 66
     1
 10
0.0
 20
0.0
 30
0.0
  0
VERTEX
  5
7D2
  8
PROFILEEDGES
 10
79.61950767270768
 20
-59.18652142435332
 30
0.0
 40
0.7534625946900548
 41
0.7534625946900548
  0
VERTEX
  5
7D3
  8
PROFILEEDGES
 10
79.86888765571327
 20
-59.13377376865839
 30
0.0
 40
0.7534625946900548
 41
0.7534625946900548
  0
SEQEND
  5
9A6
  8
PROFILEEDGES
  0
LINE
  5
5CD
  8
0
 10
91.86950966425889
 20
27.21288797766066
 30
0.0
 11
88.18403016365373
 21
26.42688454229431
 31
0.0
  0
LINE
  5
5CE
  8
0
 10
88.18403016365373
 20
26.42688454229431
 30
0.0
 11
85.56514241885033
 21
25.85848750925109
 31
0.0
  0
LINE
  5
5CF
  8
0
 10
85.56514241885033
 20
25.85848750925109
 30
0.0
 11
81.30503186708724
 21
24.86476394141017
 31
0.0
  0
LINE
  5
5D0
  8
0
 10
81.30503186708724
 20
24.86476394141017
 30
0.0
 11
80.1944009701205
 21
24.52785662090918
 31
0.0
  0
LINE
  5
5D1
  8
0
 10
80.1944009701205
 20
24.52785662090918
 30
0.0
 11
79.86690817952098
 21
24.37590511812887
 31
0.0
  0
LINE
  5
5D2
  8
0
 10
79.86690817952098
 20
24.37590511812887
 30
0.0
 11
79.73858038196141
 21
24.22480097392187
 31
0.0
  0
POLYLINE
  5
5D3
  8
PROFILEEDGES
 66
     1
 10
0.0
 20
0.0
 30
0.0
  0
VERTEX
  5
7D4
  8
PROFILEEDGES
 10
110.0995076727086
 20
31.32877874262065
 30
0.0
 40
0.7534625946900548
 41
0.7534625946900548
  0
VERTEX
  5
7D5
  8
PROFILEEDGES
 10
110.0995076727073
 20
31.03992200018303
 30
0.0
 40
0.7534625946900548
 41
0.7534625946900548
  0
SEQEND
  5
9A7
  8
PROFILEEDGES
  0
POLYLINE
  5
5D4
  8
PROFILEEDGES
 66
     1
 10
0.0
 20
0.0
 30
0.0
  0
VERTEX
  5
7D6
  8
PROFILEEDGES
 10
110.0995076727088
 20
16.10168197694988
 30
0.0
 40
0.7534625946900548
 41
0.7534625946900548
  0
VERTEX
  5
7D7
  8
PROFILEEDGES
 10
79.61950767270758
 20
22.58769123388766
 30
0.0
 40
0.7534625946900548
 41
0.7534625946900548
  0
SEQEND
  5
9A8
  8
PROFILEEDGES
  0
LINE
  5
5D5
  8
0
 10
81.37003564464327
 20
57.90328397185534
 30
0.0
 11
85.85412127440176
 21
58.2718597018003
 31
0.0
  0
LINE
  5
5D6
  8
0
 10
80.21338935942902
 20
57.82763800835009
 30
0.0
 11
81.37003564464327
 21
57.90328397185534
 31
0.0
  0
LINE
  5
5D7
  8
0
 10
79.87245603771498
 20
57.81852977447167
 30
0.0
 11
80.21338935942902
 21
57.82763800835009
 31
0.0
  0
LINE
  5
5D8
  8
0
 10
79.61950767270808
 20
57.81335303268524
 30
0.0
 11
79.73858038196192
 21
57.83802815169128
 31
0.0
  0
LINE
  5
5D9
  8
0
 10
79.73858038196192
 20
57.83802815169128
 30
0.0
 11
79.87245603771498
 21
57.81852977447167
 31
0.0
  0
POLYLINE
  5
5DA
  8
PROFILEEDGES
 66
     1
 10
0.0
 20
0.0
 30
0.0
  0
VERTEX
  5
7D8
  8
PROFILEEDGES
 10
79.61950767270808
 20
57.83938207204235
 30
0.0
 40
0.7534625946900548
 41
0.7534625946900548
  0
VERTEX
  5
7D9
  8
PROFILEEDGES
 10
79.61950767270808
 20
57.81335303268524
 30
0.0
 40
0.7534625946900548
 41
0.7534625946900548
  0
SEQEND
  5
9A9
  8
PROFILEEDGES
  0
POLYLINE
  5
5DB
  8
PROFILEEDGES
 66
     1
 10
0.0
 20
0.0
 30
0.0
  0
VERTEX
  5
7DA
  8
PROFILEEDGES
 10
110.0995076727088
 20
-10.3449493209483
 30
0.0
 40
0.7534625946900548
 41
0.7534625946900548
  0
VERTEX
  5
7DB
  8
PROFILEEDGES
 10
79.61950767270734
 20
-3.858139321007302
 30
0.0
 40
0.7534625946900548
 41
0.7534625946900548
  0
SEQEND
  5
9AA
  8
PROFILEEDGES
  0
LINE
  5
5DC
  8
0
 10
98.36254821851485
 20
30.9969294865457
 30
0.0
 11
91.86950966426033
 21
30.35401635244344
 31
0.0
  0
LINE
  5
5DD
  8
0
 10
91.86950966426033
 20
30.35401635244344
 30
0.0
 11
88.18403016365518
 21
29.98024156241722
 31
0.0
  0
LINE
  5
5DE
  8
0
 10
88.18403016365518
 20
29.98024156241722
 30
0.0
 11
85.5651424188518
 21
29.70477264012887
 31
0.0
  0
LINE
  5
5DF
  8
0
 10
85.5651424188518
 20
29.70477264012887
 30
0.0
 11
81.3050318670887
 21
29.18755141111905
 31
0.0
  0
LINE
  5
5E0
  8
0
 10
81.3050318670887
 20
29.18755141111905
 30
0.0
 11
80.19440097012196
 21
28.97487049590785
 31
0.0
  0
LINE
  5
5E1
  8
0
 10
80.19440097012196
 20
28.97487049590785
 30
0.0
 11
79.86690817952244
 21
28.85954975159611
 31
0.0
  0
LINE
  5
5E2
  8
0
 10
79.86690817952244
 20
28.85954975159611
 30
0.0
 11
79.73858038196288
 21
28.72279934185942
 31
0.0
  0
LINE
  5
5E3
  8
0
 10
79.73858038196288
 20
28.72279934185942
 30
0.0
 11
79.87245603771595
 21
28.56824815211531
 31
0.0
  0
LINE
  5
5E4
  8
0
 10
79.87245603771595
 20
28.56824815211531
 30
0.0
 11
80.21338935943
 21
28.4125906680566
 31
0.0
  0
LINE
  5
5E5
  8
0
 10
80.21338935943
 20
28.4125906680566
 30
0.0
 11
81.37003564464423
 21
28.06567970560538
 31
0.0
  0
LINE
  5
5E6
  8
0
 10
81.37003564464423
 20
28.06567970560538
 30
0.0
 11
85.85412127440274
 21
27.02570554604194
 31
0.0
  0
LINE
  5
5E7
  8
0
 10
85.85412127440274
 20
27.02570554604194
 30
0.0
 11
87.81854749788023
 21
26.59981186174291
 31
0.0
  0
LINE
  5
5E8
  8
0
 10
110.0995076727074
 20
32.1419866975415
 30
0.0
 11
98.36254821851485
 21
30.9969294865457
 31
0.0
  0
LINE
  5
5E9
  8
0
 10
79.61950767270903
 20
28.73378080291281
 30
0.0
 11
79.73858038196288
 21
28.72279934185942
 31
0.0
  0
POLYLINE
  5
5EA
  8
PROFILEEDGES
 66
     1
 10
0.0
 20
0.0
 30
0.0
  0
VERTEX
  5
7DC
  8
PROFILEEDGES
 10
110.0995076727091
 20
36.8459183388314
 30
0.0
 40
0.7534625946900548
 41
0.7534625946900548
  0
VERTEX
  5
7DD
  8
PROFILEEDGES
 10
79.61950767270905
 20
30.35990908189362
 30
0.0
 40
0.7534625946900548
 41
0.7534625946900548
  0
SEQEND
  5
9AB
  8
PROFILEEDGES
  0
POLYLINE
  5
5EB
  8
PROFILEEDGES
 66
     1
 10
0.0
 20
0.0
 30
0.0
  0
VERTEX
  5
7DE
  8
PROFILEEDGES
 10
87.22483182470769
 20
26.4738001578908
 30
0.0
 40
0.7534625946900548
 41
0.7534625946900548
  0
VERTEX
  5
7DF
  8
PROFILEEDGES
 10
79.61950767270905
 20
28.08797323440724
 30
0.0
 40
0.7534625946900548
 41
0.7534625946900548
  0
SEQEND
  5
9AC
  8
PROFILEEDGES
  0
POLYLINE
  5
5EC
  8
PROFILEEDGES
 66
     1
 10
0.0
 20
0.0
 30
0.0
  0
VERTEX
  5
7E0
  8
PROFILEEDGES
 10
88.18403016365427
 20
59.32653922657532
 30
0.0
 40
0.7534625946900548
 41
0.7534625946900548
  0
VERTEX
  5
7E1
  8
PROFILEEDGES
 10
85.56514241885087
 20
58.89322864184521
 30
0.0
 40
0.7534625946900548
 41
0.7534625946900548
  0
SEQEND
  5
9AD
  8
PROFILEEDGES
  0
POLYLINE
  5
5ED
  8
PROFILEEDGES
 66
     1
 10
0.0
 20
0.0
 30
0.0
  0
VERTEX
  5
7E2
  8
PROFILEEDGES
 10
85.56514241885087
 20
58.89322864184521
 30
0.0
 40
0.7534625946900548
 41
0.7534625946900548
  0
VERTEX
  5
7E3
  8
PROFILEEDGES
 10
81.30503186708775
 20
58.17129685002411
 30
0.0
 40
0.7534625946900548
 41
0.7534625946900548
  0
SEQEND
  5
9AE
  8
PROFILEEDGES
  0
POLYLINE
  5
5EE
  8
PROFILEEDGES
 66
     1
 10
0.0
 20
0.0
 30
0.0
  0
VERTEX
  5
7E4
  8
PROFILEEDGES
 10
81.30503186708775
 20
58.17129685002411
 30
0.0
 40
0.7534625946900548
 41
0.7534625946900548
  0
VERTEX
  5
7E5
  8
PROFILEEDGES
 10
80.19440097012101
 20
57.96386120822743
 30
0.0
 40
0.7534625946900548
 41
0.7534625946900548
  0
SEQEND
  5
9AF
  8
PROFILEEDGES
  0
POLYLINE
  5
5EF
  8
PROFILEEDGES
 66
     1
 10
0.0
 20
0.0
 30
0.0
  0
VERTEX
  5
7E6
  8
PROFILEEDGES
 10
80.19440097012101
 20
57.96386120822743
 30
0.0
 40
0.7534625946900548
 41
0.7534625946900548
  0
VERTEX
  5
7E7
  8
PROFILEEDGES
 10
79.86690817952149
 20
57.8897015278179
 30
0.0
 40
0.7534625946900548
 41
0.7534625946900548
  0
SEQEND
  5
9B0
  8
PROFILEEDGES
  0
POLYLINE
  5
5F0
  8
PROFILEEDGES
 66
     1
 10
0.0
 20
0.0
 30
0.0
  0
VERTEX
  5
7E8
  8
PROFILEEDGES
 10
79.86690817952149
 20
57.8897015278179
 30
0.0
 40
0.7534625946900548
 41
0.7534625946900548
  0
VERTEX
  5
7E9
  8
PROFILEEDGES
 10
79.73858038196192
 20
57.83802815169128
 30
0.0
 40
0.7534625946900548
 41
0.7534625946900548
  0
SEQEND
  5
9B1
  8
PROFILEEDGES
  0
POLYLINE
  5
5F1
  8
PROFILEEDGES
 66
     1
 10
0.0
 20
0.0
 30
0.0
  0
VERTEX
  5
7EA
  8
PROFILEEDGES
 10
117.7195076727077
 20
-67.93952559153766
 30
0.0
 40
0.7534625946900548
 41
0.7534625946900548
  0
VERTEX
  5
7EB
  8
PROFILEEDGES
 10
134.4373620181044
 20
-64.38600663141486
 30
0.0
 40
0.7534625946900548
 41
0.7534625946900548
  0
SEQEND
  5
9B2
  8
PROFILEEDGES
  0
POLYLINE
  5
5F2
  8
PROFILEEDGES
 66
     1
 10
0.0
 20
0.0
 30
0.0
  0
VERTEX
  5
7EC
  8
PROFILEEDGES
 10
134.4373620181044
 20
-64.38600663141486
 30
0.0
 40
0.7534625946900548
 41
0.7534625946900548
  0
VERTEX
  5
7ED
  8
PROFILEEDGES
 10
148.1995076727077
 20
-61.46074813201474
 30
0.0
 40
0.7534625946900548
 41
0.7534625946900548
  0
SEQEND
  5
9B3
  8
PROFILEEDGES
  0
POLYLINE
  5
5F3
  8
PROFILEEDGES
 66
     1
 10
0.0
 20
0.0
 30
0.0
  0
VERTEX
  5
7EE
  8
PROFILEEDGES
 10
148.1995076727076
 20
24.85962708137408
 30
0.0
 40
0.7534625946900548
 41
0.7534625946900548
  0
VERTEX
  5
7EF
  8
PROFILEEDGES
 10
140.594183520709
 20
26.4738001578905
 30
0.0
 40
0.7534625946900548
 41
0.7534625946900548
  0
SEQEND
  5
9B4
  8
PROFILEEDGES
  0
POLYLINE
  5
5F4
  8
PROFILEEDGES
 66
     1
 10
0.0
 20
0.0
 30
0.0
  0
VERTEX
  5
7F0
  8
PROFILEEDGES
 10
117.8764957608442
 20
62.89147876070425
 30
0.0
 40
0.7534625946900548
 41
0.7534625946900548
  0
VERTEX
  5
7F1
  8
PROFILEEDGES
 10
117.7195076727081
 20
62.91715771262289
 30
0.0
 40
0.7534625946900548
 41
0.7534625946900548
  0
SEQEND
  5
9B5
  8
PROFILEEDGES
  0
POLYLINE
  5
5F5
  8
PROFILEEDGES
 66
     1
 10
0.0
 20
0.0
 30
0.0
  0
VERTEX
  5
7F2
  8
PROFILEEDGES
 10
148.0804349634543
 20
57.83802815169128
 30
0.0
 40
0.7534625946900548
 41
0.7534625946900548
  0
VERTEX
  5
7F3
  8
PROFILEEDGES
 10
148.1995076727081
 20
57.83938207204237
 30
0.0
 40
0.7534625946900548
 41
0.7534625946900548
  0
SEQEND
  5
9B6
  8
PROFILEEDGES
  0
POLYLINE
  5
5F6
  8
PROFILEEDGES
 66
     1
 10
0.0
 20
0.0
 30
0.0
  0
VERTEX
  5
7F4
  8
PROFILEEDGES
 10
135.9495056811564
 20
51.12589285762592
 30
0.0
 40
0.7534625946900548
 41
0.7534625946900548
  0
VERTEX
  5
7F5
  8
PROFILEEDGES
 10
130.0278922307527
 20
49.89420717327454
 30
0.0
 40
0.7534625946900548
 41
0.7534625946900548
  0
SEQEND
  5
9B7
  8
PROFILEEDGES
  0
POLYLINE
  5
5F7
  8
PROFILEEDGES
 66
     1
 10
0.0
 20
0.0
 30
0.0
  0
VERTEX
  5
7F6
  8
PROFILEEDGES
 10
117.7195076727077
 20
62.47769694731326
 30
0.0
 40
0.7534625946900548
 41
0.7534625946900548
  0
VERTEX
  5
7F7
  8
PROFILEEDGES
 10
134.4387329443166
 20
58.92388658542399
 30
0.0
 40
0.7534625946900548
 41
0.7534625946900548
  0
SEQEND
  5
9B8
  8
PROFILEEDGES
  0
POLYLINE
  5
5F8
  8
PROFILEEDGES
 66
     1
 10
0.0
 20
0.0
 30
0.0
  0
VERTEX
  5
7F8
  8
PROFILEEDGES
 10
134.4387329443166
 20
58.92388658542399
 30
0.0
 40
0.7534625946900548
 41
0.7534625946900548
  0
VERTEX
  5
7F9
  8
PROFILEEDGES
 10
148.1995076727077
 20
55.99891948779036
 30
0.0
 40
0.7534625946900548
 41
0.7534625946900548
  0
SEQEND
  5
9B9
  8
PROFILEEDGES
  0
POLYLINE
  5
5F9
  8
PROFILEEDGES
 66
     1
 10
0.0
 20
0.0
 30
0.0
  0
VERTEX
  5
7FA
  8
PROFILEEDGES
 10
148.0636178684699
 20
67.91576129419055
 30
0.0
 40
0.7534625946900548
 41
0.7534625946900548
  0
VERTEX
  5
7FB
  8
PROFILEEDGES
 10
147.9465593077016
 20
67.89179347630899
 30
0.0
 40
0.7534625946900548
 41
0.7534625946900548
  0
SEQEND
  5
9BA
  8
PROFILEEDGES
  0
POLYLINE
  5
5FA
  8
PROFILEEDGES
 66
     1
 10
0.0
 20
0.0
 30
0.0
  0
VERTEX
  5
7FC
  8
PROFILEEDGES
 10
148.1995076727085
 20
67.94358482165038
 30
0.0
 40
0.7534625946900548
 41
0.7534625946900548
  0
VERTEX
  5
7FD
  8
PROFILEEDGES
 10
148.0636178684699
 20
67.91576129419055
 30
0.0
 40
0.7534625946900548
 41
0.7534625946900548
  0
SEQEND
  5
9BB
  8
PROFILEEDGES
  0
LINE
  5
5FB
  8
0
 10
148.0636178684699
 20
67.91576129419055
 30
0.0
 11
148.0804349634546
 21
67.94493874200147
 31
0.0
  0
POLYLINE
  5
5FC
  8
PROFILEEDGES
 66
     1
 10
0.0
 20
0.0
 30
0.0
  0
VERTEX
  5
7FE
  8
PROFILEEDGES
 10
148.0636178684713
 20
-63.32903424372627
 30
0.0
 40
0.7534625946900548
 41
0.7534625946900548
  0
VERTEX
  5
7FF
  8
PROFILEEDGES
 10
147.9465593077012
 20
-63.35300206160817
 30
0.0
 40
0.7534625946900548
 41
0.7534625946900548
  0
SEQEND
  5
9BC
  8
PROFILEEDGES
  0
POLYLINE
  5
5FD
  8
PROFILEEDGES
 66
     1
 10
0.0
 20
0.0
 30
0.0
  0
VERTEX
  5
800
  8
PROFILEEDGES
 10
148.1995076727081
 20
-63.30121071626678
 30
0.0
 40
0.7534625946900548
 41
0.7534625946900548
  0
VERTEX
  5
801
  8
PROFILEEDGES
 10
148.0636178684713
 20
-63.32903424372627
 30
0.0
 40
0.7534625946900548
 41
0.7534625946900548
  0
SEQEND
  5
9BD
  8
PROFILEEDGES
  0
LINE
  5
5FE
  8
0
 10
148.0636178684713
 20
-63.32903424372627
 30
0.0
 11
148.0804349634543
 21
-63.29985679591572
 31
0.0
  0
POLYLINE
  5
5FF
  8
PROFILEEDGES
 66
     1
 10
0.0
 20
0.0
 30
0.0
  0
VERTEX
  5
802
  8
PROFILEEDGES
 10
117.7195076727081
 20
-68.37898635684726
 30
0.0
 40
0.7534625946900548
 41
0.7534625946900548
  0
VERTEX
  5
803
  8
PROFILEEDGES
 10
117.8764957608441
 20
-68.3533167772129
 30
0.0
 40
0.7534625946900548
 41
0.7534625946900548
  0
SEQEND
  5
9BE
  8
PROFILEEDGES
  0
POLYLINE
  5
600
  8
PROFILEEDGES
 66
     1
 10
0.0
 20
0.0
 30
0.0
  0
VERTEX
  5
804
  8
PROFILEEDGES
 10
148.0804349634546
 20
-73.4067673862259
 30
0.0
 40
0.7534625946900548
 41
0.7534625946900548
  0
VERTEX
  5
805
  8
PROFILEEDGES
 10
148.1995076727085
 20
-73.40541346587483
 30
0.0
 40
0.7534625946900548
 41
0.7534625946900548
  0
SEQEND
  5
9BF
  8
PROFILEEDGES
  0
POLYLINE
  5
601
  8
PROFILEEDGES
 66
     1
 10
0.0
 20
0.0
 30
0.0
  0
VERTEX
  5
806
  8
PROFILEEDGES
 10
148.1995076727076
 20
-30.32145572559845
 30
0.0
 40
0.7534625946900548
 41
0.7534625946900548
  0
VERTEX
  5
807
  8
PROFILEEDGES
 10
140.5941835207089
 20
-31.9356288021149
 30
0.0
 40
0.7534625946900548
 41
0.7534625946900548
  0
SEQEND
  5
9C0
  8
PROFILEEDGES
  0
POLYLINE
  5
602
  8
PROFILEEDGES
 66
     1
 10
0.0
 20
0.0
 30
0.0
  0
VERTEX
  5
808
  8
PROFILEEDGES
 10
97.79112311466373
 20
49.8942071732743
 30
0.0
 40
0.7534625946900548
 41
0.7534625946900548
  0
VERTEX
  5
809
  8
PROFILEEDGES
 10
91.86950966425901
 20
51.1258928576259
 30
0.0
 40
0.7534625946900548
 41
0.7534625946900548
  0
SEQEND
  5
9C1
  8
PROFILEEDGES
  0
POLYLINE
  5
603
  8
PROFILEEDGES
 66
     1
 10
0.0
 20
0.0
 30
0.0
  0
VERTEX
  5
80A
  8
PROFILEEDGES
 10
85.85412127440242
 20
47.3956430249095
 30
0.0
 40
0.7534625946900548
 41
0.7534625946900548
  0
VERTEX
  5
80B
  8
PROFILEEDGES
 10
79.86888765571466
 20
46.11638040118788
 30
0.0
 40
0.7534625946900548
 41
0.7534625946900548
  0
SEQEND
  5
9C2
  8
PROFILEEDGES
  0
POLYLINE
  5
604
  8
PROFILEEDGES
 66
     1
 10
0.0
 20
0.0
 30
0.0
  0
VERTEX
  5
80C
  8
PROFILEEDGES
 10
79.73858038196228
 20
67.94493874200144
 30
0.0
 40
0.7534625946900548
 41
0.7534625946900548
  0
VERTEX
  5
80D
  8
PROFILEEDGES
 10
79.75539747694715
 20
67.91576129419049
 30
0.0
 40
0.7534625946900548
 41
0.7534625946900548
  0
SEQEND
  5
9C3
  8
PROFILEEDGES
  0
POLYLINE
  5
605
  8
PROFILEEDGES
 66
     1
 10
0.0
 20
0.0
 30
0.0
  0
VERTEX
  5
80E
  8
PROFILEEDGES
 10
79.75539747694715
 20
67.91576129419049
 30
0.0
 40
0.7534625946900548
 41
0.7534625946900548
  0
VERTEX
  5
80F
  8
PROFILEEDGES
 10
79.87245603771535
 20
67.89179347630896
 30
0.0
 40
0.7534625946900548
 41
0.7534625946900548
  0
SEQEND
  5
9C4
  8
PROFILEEDGES
  0
POLYLINE
  5
606
  8
PROFILEEDGES
 66
     1
 10
0.0
 20
0.0
 30
0.0
  0
VERTEX
  5
810
  8
PROFILEEDGES
 10
79.73858038196228
 20
67.94493874200144
 30
0.0
 40
0.7534625946900548
 41
0.7534625946900548
  0
VERTEX
  5
811
  8
PROFILEEDGES
 10
79.61950767270844
 20
67.94358482165036
 30
0.0
 40
0.7534625946900548
 41
0.7534625946900548
  0
SEQEND
  5
9C5
  8
PROFILEEDGES
  0
POLYLINE
  5
607
  8
PROFILEEDGES
 66
     1
 10
0.0
 20
0.0
 30
0.0
  0
VERTEX
  5
812
  8
PROFILEEDGES
 10
117.7195076727076
 20
31.32877874262067
 30
0.0
 40
0.7534625946900548
 41
0.7534625946900548
  0
VERTEX
  5
813
  8
PROFILEEDGES
 10
117.719507672709
 20
32.14198669754168
 30
0.0
 40
0.7534625946900548
 41
0.7534625946900548
  0
SEQEND
  5
9C6
  8
PROFILEEDGES
  0
POLYLINE
  5
608
  8
PROFILEEDGES
 66
     1
 10
0.0
 20
0.0
 30
0.0
  0
VERTEX
  5
814
  8
PROFILEEDGES
 10
110.0995076727074
 20
32.1419866975415
 30
0.0
 40
0.7534625946900548
 41
0.7534625946900548
  0
VERTEX
  5
815
  8
PROFILEEDGES
 10
110.0995076727086
 20
31.32877874262065
 30
0.0
 40
0.7534625946900548
 41
0.7534625946900548
  0
SEQEND
  5
9C7
  8
PROFILEEDGES
  0
POLYLINE
  5
609
  8
PROFILEEDGES
 66
     1
 10
0.0
 20
0.0
 30
0.0
  0
VERTEX
  5
816
  8
PROFILEEDGES
 10
110.0995076727086
 20
-36.79060738684506
 30
0.0
 40
0.7534625946900548
 41
0.7534625946900548
  0
VERTEX
  5
817
  8
PROFILEEDGES
 10
110.0995076727073
 20
-37.60381534176592
 30
0.0
 40
0.7534625946900548
 41
0.7534625946900548
  0
SEQEND
  5
9C8
  8
PROFILEEDGES
  0
POLYLINE
  5
60A
  8
PROFILEEDGES
 66
     1
 10
0.0
 20
0.0
 30
0.0
  0
VERTEX
  5
818
  8
PROFILEEDGES
 10
117.719507672709
 20
-37.6038153417661
 30
0.0
 40
0.7534625946900548
 41
0.7534625946900548
  0
VERTEX
  5
819
  8
PROFILEEDGES
 10
117.7195076727076
 20
-36.79060738684507
 30
0.0
 40
0.7534625946900548
 41
0.7534625946900548
  0
SEQEND
  5
9C9
  8
PROFILEEDGES
  0
POLYLINE
  5
60B
  8
PROFILEEDGES
 66
     1
 10
0.0
 20
0.0
 30
0.0
  0
VERTEX
  5
81A
  8
PROFILEEDGES
 10
109.9425195845726
 20
-68.35331677721294
 30
0.0
 40
0.7534625946900548
 41
0.7534625946900548
  0
VERTEX
  5
81B
  8
PROFILEEDGES
 10
110.0995076727077
 20
-68.37898635684716
 30
0.0
 40
0.7534625946900548
 41
0.7534625946900548
  0
SEQEND
  5
9CA
  8
PROFILEEDGES
  0
POLYLINE
  5
60C
  8
PROFILEEDGES
 66
     1
 10
0.0
 20
0.0
 30
0.0
  0
VERTEX
  5
81C
  8
PROFILEEDGES
 10
79.87245603771498
 20
-63.35300206160816
 30
0.0
 40
0.7534625946900548
 41
0.7534625946900548
  0
VERTEX
  5
81D
  8
PROFILEEDGES
 10
79.75539747694461
 20
-63.32903424372619
 30
0.0
 40
0.7534625946900548
 41
0.7534625946900548
  0
SEQEND
  5
9CB
  8
PROFILEEDGES
  0
POLYLINE
  5
60D
  8
PROFILEEDGES
 66
     1
 10
0.0
 20
0.0
 30
0.0
  0
VERTEX
  5
81E
  8
PROFILEEDGES
 10
79.75539747694461
 20
-63.32903424372619
 30
0.0
 40
0.7534625946900548
 41
0.7534625946900548
  0
VERTEX
  5
81F
  8
PROFILEEDGES
 10
79.61950767270808
 20
-63.30121071626676
 30
0.0
 40
0.7534625946900548
 41
0.7534625946900548
  0
SEQEND
  5
9CC
  8
PROFILEEDGES
  0
LINE
  5
60E
  8
0
 10
79.73858038196192
 20
-63.29985679591571
 30
0.0
 11
79.75539747694461
 21
-63.32903424372619
 31
0.0
  0
POLYLINE
  5
60F
  8
PROFILEEDGES
 66
     1
 10
0.0
 20
0.0
 30
0.0
  0
VERTEX
  5
820
  8
PROFILEEDGES
 10
110.0995076727086
 20
-36.79060738684506
 30
0.0
 40
0.7534625946900548
 41
0.7534625946900548
  0
VERTEX
  5
821
  8
PROFILEEDGES
 10
87.81907717890905
 20
-32.0617529267976
 30
0.0
 40
0.7534625946900548
 41
0.7534625946900548
  0
SEQEND
  5
9CD
  8
PROFILEEDGES
  0
POLYLINE
  5
610
  8
PROFILEEDGES
 66
     1
 10
0.0
 20
0.0
 30
0.0
  0
VERTEX
  5
822
  8
PROFILEEDGES
 10
79.61950767270844
 20
-73.4054134658748
 30
0.0
 40
0.7534625946900548
 41
0.7534625946900548
  0
VERTEX
  5
823
  8
PROFILEEDGES
 10
79.73858038196228
 20
-73.40676738622588
 30
0.0
 40
0.7534625946900548
 41
0.7534625946900548
  0
SEQEND
  5
9CE
  8
PROFILEEDGES
  0
POLYLINE
  5
611
  8
PROFILEEDGES
 66
     1
 10
0.0
 20
0.0
 30
0.0
  0
VERTEX
  5
824
  8
PROFILEEDGES
 10
79.61950767270768
 20
-61.46074813201473
 30
0.0
 40
0.7534625946900548
 41
0.7534625946900548
  0
VERTEX
  5
825
  8
PROFILEEDGES
 10
93.38165332731054
 20
-64.38600663141473
 30
0.0
 40
0.7534625946900548
 41
0.7534625946900548
  0
SEQEND
  5
9CF
  8
PROFILEEDGES
  0
POLYLINE
  5
612
  8
PROFILEEDGES
 66
     1
 10
0.0
 20
0.0
 30
0.0
  0
VERTEX
  5
826
  8
PROFILEEDGES
 10
93.38165332731054
 20
-64.38600663141473
 30
0.0
 40
0.7534625946900548
 41
0.7534625946900548
  0
VERTEX
  5
827
  8
PROFILEEDGES
 10
110.0995076727077
 20
-67.93952559153765
 30
0.0
 40
0.7534625946900548
 41
0.7534625946900548
  0
SEQEND
  5
9D0
  8
PROFILEEDGES
  0
POLYLINE
  5
613
  8
PROFILEEDGES
 66
     1
 10
0.0
 20
0.0
 30
0.0
  0
VERTEX
  5
828
  8
PROFILEEDGES
 10
85.85412127440138
 20
-57.85451114493669
 30
0.0
 40
0.7534625946900548
 41
0.7534625946900548
  0
VERTEX
  5
829
  8
PROFILEEDGES
 10
79.86888765571327
 20
-59.13377376865839
 30
0.0
 40
0.7534625946900548
 41
0.7534625946900548
  0
SEQEND
  5
9D1
  8
PROFILEEDGES
  0
POLYLINE
  5
614
  8
PROFILEEDGES
 66
     1
 10
0.0
 20
0.0
 30
0.0
  0
VERTEX
  5
82A
  8
PROFILEEDGES
 10
110.0995076727086
 20
31.32877874262065
 30
0.0
 40
0.7534625946900548
 41
0.7534625946900548
  0
VERTEX
  5
82B
  8
PROFILEEDGES
 10
87.81854749788023
 20
26.59981186174291
 30
0.0
 40
0.7534625946900548
 41
0.7534625946900548
  0
SEQEND
  5
9D2
  8
PROFILEEDGES
  0
POLYLINE
  5
615
  8
PROFILEEDGES
 66
     1
 10
0.0
 20
0.0
 30
0.0
  0
VERTEX
  5
82C
  8
PROFILEEDGES
 10
79.61950767270768
 20
55.99891948779032
 30
0.0
 40
0.7534625946900548
 41
0.7534625946900548
  0
VERTEX
  5
82D
  8
PROFILEEDGES
 10
93.38028240109846
 20
58.92388658542387
 30
0.0
 40
0.7534625946900548
 41
0.7534625946900548
  0
SEQEND
  5
9D3
  8
PROFILEEDGES
  0
POLYLINE
  5
616
  8
PROFILEEDGES
 66
     1
 10
0.0
 20
0.0
 30
0.0
  0
VERTEX
  5
82E
  8
PROFILEEDGES
 10
93.38028240109846
 20
58.92388658542387
 30
0.0
 40
0.7534625946900548
 41
0.7534625946900548
  0
VERTEX
  5
82F
  8
PROFILEEDGES
 10
110.0995076727077
 20
62.47769694731324
 30
0.0
 40
0.7534625946900548
 41
0.7534625946900548
  0
SEQEND
  5
9D4
  8
PROFILEEDGES
  0
POLYLINE
  5
617
  8
PROFILEEDGES
 66
     1
 10
0.0
 20
0.0
 30
0.0
  0
VERTEX
  5
830
  8
PROFILEEDGES
 10
110.0995076727077
 20
62.91715771262276
 30
0.0
 40
0.7534625946900548
 41
0.7534625946900548
  0
VERTEX
  5
831
  8
PROFILEEDGES
 10
109.9425195845725
 20
62.89147876070427
 30
0.0
 40
0.7534625946900548
 41
0.7534625946900548
  0
SEQEND
  5
9D5
  8
PROFILEEDGES
  0
POLYLINE
  5
618
  8
PROFILEEDGES
 66
     1
 10
0.0
 20
0.0
 30
0.0
  0
VERTEX
  5
832
  8
PROFILEEDGES
 10
79.61950767270808
 20
57.83938207204235
 30
0.0
 40
0.7534625946900548
 41
0.7534625946900548
  0
VERTEX
  5
833
  8
PROFILEEDGES
 10
79.73858038196192
 20
57.83802815169128
 30
0.0
 40
0.7534625946900548
 41
0.7534625946900548
  0
SEQEND
  5
9D6
  8
PROFILEEDGES
  0
POLYLINE
  5
619
  8
PROFILEEDGES
 66
     1
 10
0.0
 20
0.0
 30
0.0
  0
VERTEX
  5
834
  8
PROFILEEDGES
 10
110.0995076727074
 20
37.31062857830882
 30
0.0
 40
0.7534625946900548
 41
0.7534625946900548
  0
VERTEX
  5
835
  8
PROFILEEDGES
 10
110.0995076727091
 20
36.8459183388314
 30
0.0
 40
0.7534625946900548
 41
0.7534625946900548
  0
SEQEND
  5
9D7
  8
PROFILEEDGES
  0
POLYLINE
  5
61A
  8
PROFILEEDGES
 66
     1
 10
0.0
 20
0.0
 30
0.0
  0
VERTEX
  5
836
  8
PROFILEEDGES
 10
140.594183520709
 20
26.4738001578905
 30
0.0
 40
0.7534625946900548
 41
0.7534625946900548
  0
VERTEX
  5
837
  8
PROFILEEDGES
 10
140.0004678475364
 20
26.59981186174262
 30
0.0
 40
0.7534625946900548
 41
0.7534625946900548
  0
SEQEND
  5
9D8
  8
PROFILEEDGES
  0
POLYLINE
  5
61B
  8
PROFILEEDGES
 66
     1
 10
0.0
 20
0.0
 30
0.0
  0
VERTEX
  5
838
  8
PROFILEEDGES
 10
140.0004678475364
 20
26.59981186174262
 30
0.0
 40
0.7534625946900548
 41
0.7534625946900548
  0
VERTEX
  5
839
  8
PROFILEEDGES
 10
117.7195076727076
 20
31.32877874262067
 30
0.0
 40
0.7534625946900548
 41
0.7534625946900548
  0
SEQEND
  5
9D9
  8
PROFILEEDGES
  0
POLYLINE
  5
61C
  8
PROFILEEDGES
 66
     1
 10
0.0
 20
0.0
 30
0.0
  0
VERTEX
  5
83A
  8
PROFILEEDGES
 10
140.5941835207089
 20
-31.9356288021149
 30
0.0
 40
0.7534625946900548
 41
0.7534625946900548
  0
VERTEX
  5
83B
  8
PROFILEEDGES
 10
139.9999381665076
 20
-32.0617529267973
 30
0.0
 40
0.7534625946900548
 41
0.7534625946900548
  0
SEQEND
  5
9DA
  8
PROFILEEDGES
  0
POLYLINE
  5
61D
  8
PROFILEEDGES
 66
     1
 10
0.0
 20
0.0
 30
0.0
  0
VERTEX
  5
83C
  8
PROFILEEDGES
 10
139.9999381665076
 20
-32.0617529267973
 30
0.0
 40
0.7534625946900548
 41
0.7534625946900548
  0
VERTEX
  5
83D
  8
PROFILEEDGES
 10
117.7195076727076
 20
-36.79060738684507
 30
0.0
 40
0.7534625946900548
 41
0.7534625946900548
  0
SEQEND
  5
9DB
  8
PROFILEEDGES
  0
POLYLINE
  5
61E
  8
PROFILEEDGES
 66
     1
 10
0.0
 20
0.0
 30
0.0
  0
VERTEX
  5
83E
  8
PROFILEEDGES
 10
117.7195076727077
 20
-67.93952559153766
 30
0.0
 40
0.7534625946900548
 41
0.7534625946900548
  0
VERTEX
  5
83F
  8
PROFILEEDGES
 10
117.7195076727081
 20
-68.37898635684726
 30
0.0
 40
0.7534625946900548
 41
0.7534625946900548
  0
SEQEND
  5
9DC
  8
PROFILEEDGES
  0
POLYLINE
  5
61F
  8
PROFILEEDGES
 66
     1
 10
0.0
 20
0.0
 30
0.0
  0
VERTEX
  5
840
  8
PROFILEEDGES
 10
87.81907717890905
 20
-32.0617529267976
 30
0.0
 40
0.7534625946900548
 41
0.7534625946900548
  0
VERTEX
  5
841
  8
PROFILEEDGES
 10
87.22483182470776
 20
-31.93562880211521
 30
0.0
 40
0.7534625946900548
 41
0.7534625946900548
  0
SEQEND
  5
9DD
  8
PROFILEEDGES
  0
POLYLINE
  5
620
  8
PROFILEEDGES
 66
     1
 10
0.0
 20
0.0
 30
0.0
  0
VERTEX
  5
842
  8
PROFILEEDGES
 10
87.22483182470776
 20
-31.93562880211521
 30
0.0
 40
0.7534625946900548
 41
0.7534625946900548
  0
VERTEX
  5
843
  8
PROFILEEDGES
 10
79.61950767270758
 20
-30.32145572559844
 30
0.0
 40
0.7534625946900548
 41
0.7534625946900548
  0
SEQEND
  5
9DE
  8
PROFILEEDGES
  0
POLYLINE
  5
621
  8
PROFILEEDGES
 66
     1
 10
0.0
 20
0.0
 30
0.0
  0
VERTEX
  5
844
  8
PROFILEEDGES
 10
87.81854749788023
 20
26.59981186174291
 30
0.0
 40
0.7534625946900548
 41
0.7534625946900548
  0
VERTEX
  5
845
  8
PROFILEEDGES
 10
87.22483182470769
 20
26.4738001578908
 30
0.0
 40
0.7534625946900548
 41
0.7534625946900548
  0
SEQEND
  5
9DF
  8
PROFILEEDGES
  0
POLYLINE
  5
622
  8
PROFILEEDGES
 66
     1
 10
0.0
 20
0.0
 30
0.0
  0
VERTEX
  5
846
  8
PROFILEEDGES
 10
87.22483182470769
 20
26.4738001578908
 30
0.0
 40
0.7534625946900548
 41
0.7534625946900548
  0
VERTEX
  5
847
  8
PROFILEEDGES
 10
79.61950767270757
 20
24.84157363994458
 30
0.0
 40
0.7534625946900548
 41
0.7534625946900548
  0
SEQEND
  5
9E0
  8
PROFILEEDGES
  0
POLYLINE
  5
623
  8
PROFILEEDGES
 66
     1
 10
0.0
 20
0.0
 30
0.0
  0
VERTEX
  5
848
  8
PROFILEEDGES
 10
110.0995076727074
 20
-42.30774698305547
 30
0.0
 40
0.7534625946900548
 41
0.7534625946900548
  0
VERTEX
  5
849
  8
PROFILEEDGES
 10
110.0995076727087
 20
-42.77245722253299
 30
0.0
 40
0.7534625946900548
 41
0.7534625946900548
  0
SEQEND
  5
9E1
  8
PROFILEEDGES
  0
POLYLINE
  5
624
  8
PROFILEEDGES
 66
     1
 10
0.0
 20
0.0
 30
0.0
  0
VERTEX
  5
84A
  8
PROFILEEDGES
 10
110.0995076727077
 20
-67.93952559153765
 30
0.0
 40
0.7534625946900548
 41
0.7534625946900548
  0
VERTEX
  5
84B
  8
PROFILEEDGES
 10
110.0995076727077
 20
-68.37898635684716
 30
0.0
 40
0.7534625946900548
 41
0.7534625946900548
  0
SEQEND
  5
9E2
  8
PROFILEEDGES
  0
POLYLINE
  5
625
  8
PROFILEEDGES
 66
     1
 10
0.0
 20
0.0
 30
0.0
  0
VERTEX
  5
84C
  8
PROFILEEDGES
 10
110.0995076727077
 20
62.91715771262276
 30
0.0
 40
0.7534625946900548
 41
0.7534625946900548
  0
VERTEX
  5
84D
  8
PROFILEEDGES
 10
110.0995076727077
 20
62.47769694731324
 30
0.0
 40
0.7534625946900548
 41
0.7534625946900548
  0
SEQEND
  5
9E3
  8
PROFILEEDGES
  0
POLYLINE
  5
626
  8
PROFILEEDGES
 66
     1
 10
0.0
 20
0.0
 30
0.0
  0
VERTEX
  5
84E
  8
PROFILEEDGES
 10
117.7195076727081
 20
62.91715771262289
 30
0.0
 40
0.7534625946900548
 41
0.7534625946900548
  0
VERTEX
  5
84F
  8
PROFILEEDGES
 10
117.7195076727077
 20
62.47769694731326
 30
0.0
 40
0.7534625946900548
 41
0.7534625946900548
  0
SEQEND
  5
9E4
  8
PROFILEEDGES
  0
LINE
  5
627
  8
0
 10
-130.5547679424639
 20
20.80561361823964
 30
0.0
 11
-129.7050104920026
 21
19.27676123472301
 31
0.0
  0
LINE
  5
628
  8
0
 10
-117.5829506571872
 20
18.93404460872885
 30
0.0
 11
-118.8302196374046
 21
17.70775042453545
 31
0.0
  0
POLYLINE
  5
629
  8
PROFILEEDGES
 66
     1
 10
0.0
 20
0.0
 30
0.0
  0
VERTEX
  5
850
  8
PROFILEEDGES
 10
110.0995076727083
 20
79.8190856778878
 30
0.0
 40
0.7534625946900548
 41
0.7534625946900548
  0
VERTEX
  5
851
  8
PROFILEEDGES
 10
110.0995076727084
 20
76.70215393892171
 30
0.0
 40
0.7534625946900548
 41
0.7534625946900548
  0
SEQEND
  5
9E5
  8
PROFILEEDGES
  0
POLYLINE
  5
62A
  8
PROFILEEDGES
 66
     1
 10
0.0
 20
0.0
 30
0.0
  0
VERTEX
  5
852
  8
PROFILEEDGES
 10
110.0995076727084
 20
65.3934746095646
 30
0.0
 40
0.7534625946900548
 41
0.7534625946900548
  0
VERTEX
  5
853
  8
PROFILEEDGES
 10
110.0995076727077
 20
62.91715771262276
 30
0.0
 40
0.7534625946900548
 41
0.7534625946900548
  0
SEQEND
  5
9E6
  8
PROFILEEDGES
  0
POLYLINE
  5
62B
  8
PROFILEEDGES
 66
     1
 10
0.0
 20
0.0
 30
0.0
  0
VERTEX
  5
854
  8
PROFILEEDGES
 10
130.0278922307528
 20
-55.35594699657191
 30
0.0
 40
0.7534625946900548
 41
0.7534625946900548
  0
VERTEX
  5
855
  8
PROFILEEDGES
 10
117.7195076727077
 20
-52.80773681597536
 30
0.0
 40
0.7534625946900548
 41
0.7534625946900548
  0
SEQEND
  5
9E7
  8
PROFILEEDGES
  0
POLYLINE
  5
62C
  8
PROFILEEDGES
 66
     1
 10
0.0
 20
0.0
 30
0.0
  0
VERTEX
  5
856
  8
PROFILEEDGES
 10
136.9097582294921
 20
-56.78839091649435
 30
0.0
 40
0.7534625946900548
 41
0.7534625946900548
  0
VERTEX
  5
857
  8
PROFILEEDGES
 10
130.0278922307528
 20
-55.35594699657191
 30
0.0
 40
0.7534625946900548
 41
0.7534625946900548
  0
SEQEND
  5
9E8
  8
PROFILEEDGES
  0
POLYLINE
  5
62D
  8
PROFILEEDGES
 66
     1
 10
0.0
 20
0.0
 30
0.0
  0
VERTEX
  5
858
  8
PROFILEEDGES
 10
148.1995076727077
 20
-59.18652142435333
 30
0.0
 40
0.7534625946900548
 41
0.7534625946900548
  0
VERTEX
  5
859
  8
PROFILEEDGES
 10
141.964894071014
 20
-57.85451114493671
 30
0.0
 40
0.7534625946900548
 41
0.7534625946900548
  0
SEQEND
  5
9E9
  8
PROFILEEDGES
  0
LINE
  5
62E
  8
0
 10
133.4511562121343
 20
-33.20305264745932
 30
0.0
 11
117.7195076727076
 21
-36.50175064440749
 31
0.0
  0
POLYLINE
  5
62F
  8
PROFILEEDGES
 66
     1
 10
0.0
 20
0.0
 30
0.0
  0
VERTEX
  5
85A
  8
PROFILEEDGES
 10
117.7195076727076
 20
-21.56351062117428
 30
0.0
 40
0.7534625946900548
 41
0.7534625946900548
  0
VERTEX
  5
85B
  8
PROFILEEDGES
 10
117.7195076727075
 20
-26.26744226246404
 30
0.0
 40
0.7534625946900548
 41
0.7534625946900548
  0
SEQEND
  5
9EA
  8
PROFILEEDGES
  0
POLYLINE
  5
630
  8
PROFILEEDGES
 66
     1
 10
0.0
 20
0.0
 30
0.0
  0
VERTEX
  5
85C
  8
PROFILEEDGES
 10
148.1995076727076
 20
-28.04951987811206
 30
0.0
 40
0.7534625946900548
 41
0.7534625946900548
  0
VERTEX
  5
85D
  8
PROFILEEDGES
 10
148.1995076727076
 20
-29.67564815709288
 30
0.0
 40
0.7534625946900548
 41
0.7534625946900548
  0
SEQEND
  5
9EB
  8
PROFILEEDGES
  0
POLYLINE
  5
631
  8
PROFILEEDGES
 66
     1
 10
0.0
 20
0.0
 30
0.0
  0
VERTEX
  5
85E
  8
PROFILEEDGES
 10
148.1995076727076
 20
24.85962708137408
 30
0.0
 40
0.7534625946900548
 41
0.7534625946900548
  0
VERTEX
  5
85F
  8
PROFILEEDGES
 10
148.1995076727076
 20
24.21381951286849
 30
0.0
 40
0.7534625946900548
 41
0.7534625946900548
  0
SEQEND
  5
9EC
  8
PROFILEEDGES
  0
LINE
  5
632
  8
0
 10
135.9495056811563
 20
27.21288797766068
 30
0.0
 11
117.7195076727076
 21
31.0399220001831
 31
0.0
  0
POLYLINE
  5
633
  8
PROFILEEDGES
 66
     1
 10
0.0
 20
0.0
 30
0.0
  0
VERTEX
  5
860
  8
PROFILEEDGES
 10
117.7195076727075
 20
20.80561361823964
 30
0.0
 40
0.7534625946900548
 41
0.7534625946900548
  0
VERTEX
  5
861
  8
PROFILEEDGES
 10
117.7195076727076
 20
16.10168197694988
 30
0.0
 40
0.7534625946900548
 41
0.7534625946900548
  0
SEQEND
  5
9ED
  8
PROFILEEDGES
  0
LINE
  5
634
  8
0
 10
133.4511562121343
 20
22.34469358846706
 30
0.0
 11
117.7195076727075
 21
20.80561361823964
 31
0.0
  0
POLYLINE
  5
635
  8
PROFILEEDGES
 66
     1
 10
0.0
 20
0.0
 30
0.0
  0
VERTEX
  5
862
  8
PROFILEEDGES
 10
148.1995076727076
 20
24.21381951286849
 30
0.0
 40
0.7534625946900548
 41
0.7534625946900548
  0
VERTEX
  5
863
  8
PROFILEEDGES
 10
148.1995076727076
 20
22.57764974761428
 30
0.0
 40
0.7534625946900548
 41
0.7534625946900548
  0
SEQEND
  5
9EE
  8
PROFILEEDGES
  0
POLYLINE
  5
636
  8
PROFILEEDGES
 66
     1
 10
0.0
 20
0.0
 30
0.0
  0
VERTEX
  5
864
  8
PROFILEEDGES
 10
148.1995076727077
 20
55.99891948779036
 30
0.0
 40
0.7534625946900548
 41
0.7534625946900548
  0
VERTEX
  5
865
  8
PROFILEEDGES
 10
148.1995076727081
 20
57.81335303268526
 30
0.0
 40
0.7534625946900548
 41
0.7534625946900548
  0
SEQEND
  5
9EF
  8
PROFILEEDGES
  0
POLYLINE
  5
637
  8
PROFILEEDGES
 66
     1
 10
0.0
 20
0.0
 30
0.0
  0
VERTEX
  5
866
  8
PROFILEEDGES
 10
117.7195076727074
 20
4.883120676723941
 30
0.0
 40
0.7534625946900548
 41
0.7534625946900548
  0
VERTEX
  5
867
  8
PROFILEEDGES
 10
117.7195076727074
 20
-10.3449493209483
 30
0.0
 40
0.7534625946900548
 41
0.7534625946900548
  0
SEQEND
  5
9F0
  8
PROFILEEDGES
  0
POLYLINE
  5
638
  8
PROFILEEDGES
 66
     1
 10
0.0
 20
0.0
 30
0.0
  0
VERTEX
  5
868
  8
PROFILEEDGES
 10
148.1995076727074
 20
-1.589638321814441
 30
0.0
 40
0.7534625946900548
 41
0.7534625946900548
  0
VERTEX
  5
869
  8
PROFILEEDGES
 10
148.1995076727074
 20
-3.872190322409902
 30
0.0
 40
0.7534625946900548
 41
0.7534625946900548
  0
SEQEND
  5
9F1
  8
PROFILEEDGES
  0
POLYLINE
  5
639
  8
PROFILEEDGES
 66
     1
 10
0.0
 20
0.0
 30
0.0
  0
VERTEX
  5
86A
  8
PROFILEEDGES
 10
148.1995076727077
 20
53.72469278012898
 30
0.0
 40
0.7534625946900548
 41
0.7534625946900548
  0
VERTEX
  5
86B
  8
PROFILEEDGES
 10
148.1995076727077
 20
55.99891948779036
 30
0.0
 40
0.7534625946900548
 41
0.7534625946900548
  0
SEQEND
  5
9F2
  8
PROFILEEDGES
  0
POLYLINE
  5
63A
  8
PROFILEEDGES
 66
     1
 10
0.0
 20
0.0
 30
0.0
  0
VERTEX
  5
86C
  8
PROFILEEDGES
 10
117.8764957608442
 20
62.89147876070425
 30
0.0
 40
0.7534625946900548
 41
0.7534625946900548
  0
VERTEX
  5
86D
  8
PROFILEEDGES
 10
142.2538729265654
 20
58.89322864184524
 30
0.0
 40
0.7534625946900548
 41
0.7534625946900548
  0
SEQEND
  5
9F3
  8
PROFILEEDGES
  0
LINE
  5
63B
  8
0
 10
141.9648940710144
 20
58.27185970180033
 30
0.0
 11
134.4387329443166
 21
58.92388658542399
 31
0.0
  0
POLYLINE
  5
63C
  8
PROFILEEDGES
 66
     1
 10
0.0
 20
0.0
 30
0.0
  0
VERTEX
  5
86E
  8
PROFILEEDGES
 10
130.0278922307527
 20
49.89420717327454
 30
0.0
 40
0.7534625946900548
 41
0.7534625946900548
  0
VERTEX
  5
86F
  8
PROFILEEDGES
 10
136.9097582294931
 20
48.46176325335186
 30
0.0
 40
0.7534625946900548
 41
0.7534625946900548
  0
SEQEND
  5
9F4
  8
PROFILEEDGES
  0
POLYLINE
  5
63D
  8
PROFILEEDGES
 66
     1
 10
0.0
 20
0.0
 30
0.0
  0
VERTEX
  5
870
  8
PROFILEEDGES
 10
148.1995076727088
 20
46.0636327454929
 30
0.0
 40
0.7534625946900548
 41
0.7534625946900548
  0
VERTEX
  5
871
  8
PROFILEEDGES
 10
141.964894071015
 20
47.39564302490952
 30
0.0
 40
0.7534625946900548
 41
0.7534625946900548
  0
SEQEND
  5
9F5
  8
PROFILEEDGES
  0
POLYLINE
  5
63E
  8
PROFILEEDGES
 66
     1
 10
0.0
 20
0.0
 30
0.0
  0
VERTEX
  5
872
  8
PROFILEEDGES
 10
148.1995076727088
 20
43.81145282883637
 30
0.0
 40
0.7534625946900548
 41
0.7534625946900548
  0
VERTEX
  5
873
  8
PROFILEEDGES
 10
148.1995076727088
 20
46.0636327454929
 30
0.0
 40
0.7534625946900548
 41
0.7534625946900548
  0
SEQEND
  5
9F6
  8
PROFILEEDGES
  0
POLYLINE
  5
63F
  8
PROFILEEDGES
 66
     1
 10
0.0
 20
0.0
 30
0.0
  0
VERTEX
  5
874
  8
PROFILEEDGES
 10
139.6349851817616
 20
51.89859375068529
 30
0.0
 40
0.7534625946900548
 41
0.7534625946900548
  0
VERTEX
  5
875
  8
PROFILEEDGES
 10
148.1995076727077
 20
53.72469278012898
 30
0.0
 40
0.7534625946900548
 41
0.7534625946900548
  0
SEQEND
  5
9F7
  8
PROFILEEDGES
  0
POLYLINE
  5
640
  8
PROFILEEDGES
 66
     1
 10
0.0
 20
0.0
 30
0.0
  0
VERTEX
  5
876
  8
PROFILEEDGES
 10
117.7195076727086
 20
47.34590817175094
 30
0.0
 40
0.7534625946900548
 41
0.7534625946900548
  0
VERTEX
  5
877
  8
PROFILEEDGES
 10
130.0278922307527
 20
49.89420717327454
 30
0.0
 40
0.7534625946900548
 41
0.7534625946900548
  0
SEQEND
  5
9F8
  8
PROFILEEDGES
  0
POLYLINE
  5
641
  8
PROFILEEDGES
 66
     1
 10
0.0
 20
0.0
 30
0.0
  0
VERTEX
  5
878
  8
PROFILEEDGES
 10
139.7131055447632
 20
66.46931362950028
 30
0.0
 40
0.7534625946900548
 41
0.7534625946900548
  0
VERTEX
  5
879
  8
PROFILEEDGES
 10
117.8764957608442
 20
62.89147876070425
 30
0.0
 40
0.7534625946900548
 41
0.7534625946900548
  0
SEQEND
  5
9F9
  8
PROFILEEDGES
  0
POLYLINE
  5
642
  8
PROFILEEDGES
 66
     1
 10
0.0
 20
0.0
 30
0.0
  0
VERTEX
  5
87A
  8
PROFILEEDGES
 10
148.1995076727085
 20
67.96961386100746
 30
0.0
 40
0.7534625946900548
 41
0.7534625946900548
  0
VERTEX
  5
87B
  8
PROFILEEDGES
 10
148.1995076727085
 20
70.21895724785121
 30
0.0
 40
0.7534625946900548
 41
0.7534625946900548
  0
SEQEND
  5
9FA
  8
PROFILEEDGES
  0
LINE
  5
643
  8
0
 10
117.7195076727084
 20
65.39347460956465
 30
0.0
 11
142.2538729265657
 21
67.53575288100943
 31
0.0
  0
POLYLINE
  5
644
  8
PROFILEEDGES
 66
     1
 10
0.0
 20
0.0
 30
0.0
  0
VERTEX
  5
87C
  8
PROFILEEDGES
 10
148.1995076727091
 20
28.73378080291281
 30
0.0
 40
0.7534625946900548
 41
0.7534625946900548
  0
VERTEX
  5
87D
  8
PROFILEEDGES
 10
148.1995076727091
 20
28.08797323440724
 30
0.0
 40
0.7534625946900548
 41
0.7534625946900548
  0
SEQEND
  5
9FB
  8
PROFILEEDGES
  0
POLYLINE
  5
645
  8
PROFILEEDGES
 66
     1
 10
0.0
 20
0.0
 30
0.0
  0
VERTEX
  5
87E
  8
PROFILEEDGES
 10
148.1995076727091
 20
28.73378080291281
 30
0.0
 40
0.7534625946900548
 41
0.7534625946900548
  0
VERTEX
  5
87F
  8
PROFILEEDGES
 10
148.1995076727091
 20
30.35990908189364
 30
0.0
 40
0.7534625946900548
 41
0.7534625946900548
  0
SEQEND
  5
9FC
  8
PROFILEEDGES
  0
POLYLINE
  5
646
  8
PROFILEEDGES
 66
     1
 10
0.0
 20
0.0
 30
0.0
  0
VERTEX
  5
880
  8
PROFILEEDGES
 10
139.6349851817626
 20
-53.35156041916096
 30
0.0
 40
0.7534625946900548
 41
0.7534625946900548
  0
VERTEX
  5
881
  8
PROFILEEDGES
 10
148.1995076727088
 20
-51.53148830467078
 30
0.0
 40
0.7534625946900548
 41
0.7534625946900548
  0
SEQEND
  5
9FD
  8
PROFILEEDGES
  0
POLYLINE
  5
647
  8
PROFILEEDGES
 66
     1
 10
0.0
 20
0.0
 30
0.0
  0
VERTEX
  5
882
  8
PROFILEEDGES
 10
148.1995076727088
 20
-49.2732814730608
 30
0.0
 40
0.7534625946900548
 41
0.7534625946900548
  0
VERTEX
  5
883
  8
PROFILEEDGES
 10
148.1995076727088
 20
-51.53148830467078
 30
0.0
 40
0.7534625946900548
 41
0.7534625946900548
  0
SEQEND
  5
9FE
  8
PROFILEEDGES
  0
POLYLINE
  5
648
  8
PROFILEEDGES
 66
     1
 10
0.0
 20
0.0
 30
0.0
  0
VERTEX
  5
884
  8
PROFILEEDGES
 10
148.1995076727091
 20
-34.19560944713726
 30
0.0
 40
0.7534625946900548
 41
0.7534625946900548
  0
VERTEX
  5
885
  8
PROFILEEDGES
 10
148.1995076727091
 20
-35.83177921239146
 30
0.0
 40
0.7534625946900548
 41
0.7534625946900548
  0
SEQEND
  5
9FF
  8
PROFILEEDGES
  0
LINE
  5
649
  8
0
 10
133.4511562121357
 20
-36.06473537153865
 30
0.0
 11
117.719507672709
 21
-37.6038153417661
 31
0.0
  0
POLYLINE
  5
64A
  8
PROFILEEDGES
 66
     1
 10
0.0
 20
0.0
 30
0.0
  0
VERTEX
  5
886
  8
PROFILEEDGES
 10
148.1995076727091
 20
-34.19560944713726
 30
0.0
 40
0.7534625946900548
 41
0.7534625946900548
  0
VERTEX
  5
887
  8
PROFILEEDGES
 10
148.1995076727091
 20
-33.54980187863166
 30
0.0
 40
0.7534625946900548
 41
0.7534625946900548
  0
SEQEND
  5
A00
  8
PROFILEEDGES
  0
POLYLINE
  5
64B
  8
PROFILEEDGES
 66
     1
 10
0.0
 20
0.0
 30
0.0
  0
VERTEX
  5
888
  8
PROFILEEDGES
 10
148.1995076727077
 20
-61.46074813201474
 30
0.0
 40
0.7534625946900548
 41
0.7534625946900548
  0
VERTEX
  5
889
  8
PROFILEEDGES
 10
148.1995076727081
 20
-63.27518167690969
 30
0.0
 40
0.7534625946900548
 41
0.7534625946900548
  0
SEQEND
  5
A01
  8
PROFILEEDGES
  0
POLYLINE
  5
64C
  8
PROFILEEDGES
 66
     1
 10
0.0
 20
0.0
 30
0.0
  0
VERTEX
  5
88A
  8
PROFILEEDGES
 10
148.1995076727085
 20
-73.4314425052319
 30
0.0
 40
0.7534625946900548
 41
0.7534625946900548
  0
VERTEX
  5
88B
  8
PROFILEEDGES
 10
148.1995076727085
 20
-75.68279520097597
 30
0.0
 40
0.7534625946900548
 41
0.7534625946900548
  0
SEQEND
  5
A02
  8
PROFILEEDGES
  0
LINE
  5
64D
  8
0
 10
134.4373620181044
 20
-64.38600663141486
 30
0.0
 11
142.2538729265653
 21
-63.70904265690776
 31
0.0
  0
POLYLINE
  5
64E
  8
PROFILEEDGES
 66
     1
 10
0.0
 20
0.0
 30
0.0
  0
VERTEX
  5
88C
  8
PROFILEEDGES
 10
139.7131055447629
 20
-64.77548190841691
 30
0.0
 40
0.7534625946900548
 41
0.7534625946900548
  0
VERTEX
  5
88D
  8
PROFILEEDGES
 10
117.8764957608441
 20
-68.3533167772129
 30
0.0
 40
0.7534625946900548
 41
0.7534625946900548
  0
SEQEND
  5
A03
  8
PROFILEEDGES
  0
POLYLINE
  5
64F
  8
PROFILEEDGES
 66
     1
 10
0.0
 20
0.0
 30
0.0
  0
VERTEX
  5
88E
  8
PROFILEEDGES
 10
148.1995076727076
 20
-29.67564815709288
 30
0.0
 40
0.7534625946900548
 41
0.7534625946900548
  0
VERTEX
  5
88F
  8
PROFILEEDGES
 10
148.1995076727076
 20
-30.32145572559845
 30
0.0
 40
0.7534625946900548
 41
0.7534625946900548
  0
SEQEND
  5
A04
  8
PROFILEEDGES
  0
POLYLINE
  5
650
  8
PROFILEEDGES
 66
     1
 10
0.0
 20
0.0
 30
0.0
  0
VERTEX
  5
890
  8
PROFILEEDGES
 10
117.8764957608441
 20
-68.3533167772129
 30
0.0
 40
0.7534625946900548
 41
0.7534625946900548
  0
VERTEX
  5
891
  8
PROFILEEDGES
 10
142.2538729265657
 20
-72.35156689607192
 30
0.0
 40
0.7534625946900548
 41
0.7534625946900548
  0
SEQEND
  5
A05
  8
PROFILEEDGES
  0
LINE
  5
651
  8
0
 10
139.7131055447632
 20
-72.77943660145895
 30
0.0
 11
117.7195076727084
 21
-70.85530325378907
 31
0.0
  0
POLYLINE
  5
652
  8
PROFILEEDGES
 66
     1
 10
0.0
 20
0.0
 30
0.0
  0
VERTEX
  5
892
  8
PROFILEEDGES
 10
110.0995076727073
 20
31.03992200018303
 30
0.0
 40
0.7534625946900548
 41
0.7534625946900548
  0
VERTEX
  5
893
  8
PROFILEEDGES
 10
110.0995076727073
 20
20.80561361823966
 30
0.0
 40
0.7534625946900548
 41
0.7534625946900548
  0
SEQEND
  5
A06
  8
PROFILEEDGES
  0
POLYLINE
  5
653
  8
PROFILEEDGES
 66
     1
 10
0.0
 20
0.0
 30
0.0
  0
VERTEX
  5
894
  8
PROFILEEDGES
 10
110.0995076727076
 20
-36.50175064440747
 30
0.0
 40
0.7534625946900548
 41
0.7534625946900548
  0
VERTEX
  5
895
  8
PROFILEEDGES
 10
110.0995076727075
 20
-26.26744226246404
 30
0.0
 40
0.7534625946900548
 41
0.7534625946900548
  0
SEQEND
  5
A07
  8
PROFILEEDGES
  0
POLYLINE
  5
654
  8
PROFILEEDGES
 66
     1
 10
0.0
 20
0.0
 30
0.0
  0
VERTEX
  5
896
  8
PROFILEEDGES
 10
110.0995076727075
 20
47.34590817175096
 30
0.0
 40
0.7534625946900548
 41
0.7534625946900548
  0
VERTEX
  5
897
  8
PROFILEEDGES
 10
97.79112311466373
 20
49.8942071732743
 30
0.0
 40
0.7534625946900548
 41
0.7534625946900548
  0
SEQEND
  5
A08
  8
PROFILEEDGES
  0
POLYLINE
  5
655
  8
PROFILEEDGES
 66
     1
 10
0.0
 20
0.0
 30
0.0
  0
VERTEX
  5
898
  8
PROFILEEDGES
 10
88.18403016365386
 20
51.89859375068527
 30
0.0
 40
0.7534625946900548
 41
0.7534625946900548
  0
VERTEX
  5
899
  8
PROFILEEDGES
 10
79.61950767270768
 20
53.71866586517545
 30
0.0
 40
0.7534625946900548
 41
0.7534625946900548
  0
SEQEND
  5
A09
  8
PROFILEEDGES
  0
POLYLINE
  5
656
  8
PROFILEEDGES
 66
     1
 10
0.0
 20
0.0
 30
0.0
  0
VERTEX
  5
89A
  8
PROFILEEDGES
 10
79.6195076727087
 20
43.78940603783146
 30
0.0
 40
0.7534625946900548
 41
0.7534625946900548
  0
VERTEX
  5
89B
  8
PROFILEEDGES
 10
79.6195076727087
 20
46.06363274549287
 30
0.0
 40
0.7534625946900548
 41
0.7534625946900548
  0
SEQEND
  5
A0A
  8
PROFILEEDGES
  0
POLYLINE
  5
657
  8
PROFILEEDGES
 66
     1
 10
0.0
 20
0.0
 30
0.0
  0
VERTEX
  5
89C
  8
PROFILEEDGES
 10
110.0995076727075
 20
47.34590817175096
 30
0.0
 40
0.7534625946900548
 41
0.7534625946900548
  0
VERTEX
  5
89D
  8
PROFILEEDGES
 10
110.0995076727077
 20
62.47769694731324
 30
0.0
 40
0.7534625946900548
 41
0.7534625946900548
  0
SEQEND
  5
A0B
  8
PROFILEEDGES
  0
LINE
  5
658
  8
0
 10
88.18403016365458
 20
67.31085997551776
 30
0.0
 11
110.0995076727084
 21
65.3934746095646
 31
0.0
  0
POLYLINE
  5
659
  8
PROFILEEDGES
 66
     1
 10
0.0
 20
0.0
 30
0.0
  0
VERTEX
  5
89E
  8
PROFILEEDGES
 10
109.9425195845725
 20
62.89147876070427
 30
0.0
 40
0.7534625946900548
 41
0.7534625946900548
  0
VERTEX
  5
89F
  8
PROFILEEDGES
 10
85.85412127440215
 20
66.84175505807276
 30
0.0
 40
0.7534625946900548
 41
0.7534625946900548
  0
SEQEND
  5
A0C
  8
PROFILEEDGES
  0
POLYLINE
  5
65A
  8
PROFILEEDGES
 66
     1
 10
0.0
 20
0.0
 30
0.0
  0
VERTEX
  5
8A0
  8
PROFILEEDGES
 10
110.0995076727084
 20
65.3934746095646
 30
0.0
 40
0.7534625946900548
 41
0.7534625946900548
  0
VERTEX
  5
8A1
  8
PROFILEEDGES
 10
110.0995076727084
 20
76.70215393892171
 30
0.0
 40
0.7534625946900548
 41
0.7534625946900548
  0
SEQEND
  5
A0D
  8
PROFILEEDGES
  0
POLYLINE
  5
65B
  8
PROFILEEDGES
 66
     1
 10
0.0
 20
0.0
 30
0.0
  0
VERTEX
  5
8A2
  8
PROFILEEDGES
 10
97.79112311466373
 20
49.8942071732743
 30
0.0
 40
0.7534625946900548
 41
0.7534625946900548
  0
VERTEX
  5
8A3
  8
PROFILEEDGES
 10
88.10590980065395
 20
47.87326005477347
 30
0.0
 40
0.7534625946900548
 41
0.7534625946900548
  0
SEQEND
  5
A0E
  8
PROFILEEDGES
  0
POLYLINE
  5
65C
  8
PROFILEEDGES
 66
     1
 10
0.0
 20
0.0
 30
0.0
  0
VERTEX
  5
8A4
  8
PROFILEEDGES
 10
79.61950767270844
 20
67.96961386100743
 30
0.0
 40
0.7534625946900548
 41
0.7534625946900548
  0
VERTEX
  5
8A5
  8
PROFILEEDGES
 10
79.61950767270844
 20
70.21895724785116
 30
0.0
 40
0.7534625946900548
 41
0.7534625946900548
  0
SEQEND
  5
A0F
  8
PROFILEEDGES
  0
POLYLINE
  5
65D
  8
PROFILEEDGES
 66
     1
 10
0.0
 20
0.0
 30
0.0
  0
VERTEX
  5
8A6
  8
PROFILEEDGES
 10
110.0995076727088
 20
16.10168197694988
 30
0.0
 40
0.7534625946900548
 41
0.7534625946900548
  0
VERTEX
  5
8A7
  8
PROFILEEDGES
 10
110.0995076727073
 20
4.883120676723531
 30
0.0
 40
0.7534625946900548
 41
0.7534625946900548
  0
SEQEND
  5
A10
  8
PROFILEEDGES
  0
POLYLINE
  5
65E
  8
PROFILEEDGES
 66
     1
 10
0.0
 20
0.0
 30
0.0
  0
VERTEX
  5
8A8
  8
PROFILEEDGES
 10
110.0995076727075
 20
47.34590817175096
 30
0.0
 40
0.7534625946900548
 41
0.7534625946900548
  0
VERTEX
  5
8A9
  8
PROFILEEDGES
 10
110.0995076727074
 20
37.31062857830882
 30
0.0
 40
0.7534625946900548
 41
0.7534625946900548
  0
SEQEND
  5
A11
  8
PROFILEEDGES
  0
POLYLINE
  5
65F
  8
PROFILEEDGES
 66
     1
 10
0.0
 20
0.0
 30
0.0
  0
VERTEX
  5
8AA
  8
PROFILEEDGES
 10
110.0995076727088
 20
-21.56351062117428
 30
0.0
 40
0.7534625946900548
 41
0.7534625946900548
  0
VERTEX
  5
8AB
  8
PROFILEEDGES
 10
110.0995076727088
 20
-10.3449493209483
 30
0.0
 40
0.7534625946900548
 41
0.7534625946900548
  0
SEQEND
  5
A12
  8
PROFILEEDGES
  0
POLYLINE
  5
660
  8
PROFILEEDGES
 66
     1
 10
0.0
 20
0.0
 30
0.0
  0
VERTEX
  5
8AC
  8
PROFILEEDGES
 10
117.7195076727091
 20
36.84591833883142
 30
0.0
 40
0.7534625946900548
 41
0.7534625946900548
  0
VERTEX
  5
8AD
  8
PROFILEEDGES
 10
117.719507672709
 20
32.14198669754168
 30
0.0
 40
0.7534625946900548
 41
0.7534625946900548
  0
SEQEND
  5
A13
  8
PROFILEEDGES
  0
POLYLINE
  5
661
  8
PROFILEEDGES
 66
     1
 10
0.0
 20
0.0
 30
0.0
  0
VERTEX
  5
8AE
  8
PROFILEEDGES
 10
117.7195076727076
 20
31.0399220001831
 30
0.0
 40
0.7534625946900548
 41
0.7534625946900548
  0
VERTEX
  5
8AF
  8
PROFILEEDGES
 10
117.7195076727075
 20
20.80561361823964
 30
0.0
 40
0.7534625946900548
 41
0.7534625946900548
  0
SEQEND
  5
A14
  8
PROFILEEDGES
  0
POLYLINE
  5
662
  8
PROFILEEDGES
 66
     1
 10
0.0
 20
0.0
 30
0.0
  0
VERTEX
  5
8B0
  8
PROFILEEDGES
 10
117.7195076727086
 20
47.34590817175094
 30
0.0
 40
0.7534625946900548
 41
0.7534625946900548
  0
VERTEX
  5
8B1
  8
PROFILEEDGES
 10
117.7195076727087
 20
37.31062857830857
 30
0.0
 40
0.7534625946900548
 41
0.7534625946900548
  0
SEQEND
  5
A15
  8
PROFILEEDGES
  0
POLYLINE
  5
663
  8
PROFILEEDGES
 66
     1
 10
0.0
 20
0.0
 30
0.0
  0
VERTEX
  5
8B2
  8
PROFILEEDGES
 10
117.7195076727086
 20
47.34590817175094
 30
0.0
 40
0.7534625946900548
 41
0.7534625946900548
  0
VERTEX
  5
8B3
  8
PROFILEEDGES
 10
117.7195076727077
 20
62.47769694731326
 30
0.0
 40
0.7534625946900548
 41
0.7534625946900548
  0
SEQEND
  5
A16
  8
PROFILEEDGES
  0
POLYLINE
  5
664
  8
PROFILEEDGES
 66
     1
 10
0.0
 20
0.0
 30
0.0
  0
VERTEX
  5
8B4
  8
PROFILEEDGES
 10
117.7195076727084
 20
65.39347460956465
 30
0.0
 40
0.7534625946900548
 41
0.7534625946900548
  0
VERTEX
  5
8B5
  8
PROFILEEDGES
 10
117.7195076727081
 20
62.91715771262289
 30
0.0
 40
0.7534625946900548
 41
0.7534625946900548
  0
SEQEND
  5
A17
  8
PROFILEEDGES
  0
POLYLINE
  5
665
  8
PROFILEEDGES
 66
     1
 10
0.0
 20
0.0
 30
0.0
  0
VERTEX
  5
8B6
  8
PROFILEEDGES
 10
117.7195076727085
 20
76.70215393892177
 30
0.0
 40
0.7534625946900548
 41
0.7534625946900548
  0
VERTEX
  5
8B7
  8
PROFILEEDGES
 10
117.7195076727084
 20
65.39347460956465
 30
0.0
 40
0.7534625946900548
 41
0.7534625946900548
  0
SEQEND
  5
A18
  8
PROFILEEDGES
  0
POLYLINE
  5
666
  8
PROFILEEDGES
 66
     1
 10
0.0
 20
0.0
 30
0.0
  0
VERTEX
  5
8B8
  8
PROFILEEDGES
 10
117.7195076727083
 20
79.8190856778878
 30
0.0
 40
0.7534625946900548
 41
0.7534625946900548
  0
VERTEX
  5
8B9
  8
PROFILEEDGES
 10
117.7195076727085
 20
76.70215393892177
 30
0.0
 40
0.7534625946900548
 41
0.7534625946900548
  0
SEQEND
  5
A19
  8
PROFILEEDGES
  0
POLYLINE
  5
667
  8
PROFILEEDGES
 66
     1
 10
0.0
 20
0.0
 30
0.0
  0
VERTEX
  5
8BA
  8
PROFILEEDGES
 10
117.7195076727074
 20
4.883120676723941
 30
0.0
 40
0.7534625946900548
 41
0.7534625946900548
  0
VERTEX
  5
8BB
  8
PROFILEEDGES
 10
117.7195076727076
 20
16.10168197694988
 30
0.0
 40
0.7534625946900548
 41
0.7534625946900548
  0
SEQEND
  5
A1A
  8
PROFILEEDGES
  0
POLYLINE
  5
668
  8
PROFILEEDGES
 66
     1
 10
0.0
 20
0.0
 30
0.0
  0
VERTEX
  5
8BC
  8
PROFILEEDGES
 10
117.7195076727074
 20
-10.3449493209483
 30
0.0
 40
0.7534625946900548
 41
0.7534625946900548
  0
VERTEX
  5
8BD
  8
PROFILEEDGES
 10
117.7195076727076
 20
-21.56351062117428
 30
0.0
 40
0.7534625946900548
 41
0.7534625946900548
  0
SEQEND
  5
A1B
  8
PROFILEEDGES
  0
POLYLINE
  5
669
  8
PROFILEEDGES
 66
     1
 10
0.0
 20
0.0
 30
0.0
  0
VERTEX
  5
8BE
  8
PROFILEEDGES
 10
117.7195076727085
 20
-82.16398258314618
 30
0.0
 40
0.7534625946900548
 41
0.7534625946900548
  0
VERTEX
  5
8BF
  8
PROFILEEDGES
 10
117.7195076727083
 20
-85.28091432211222
 30
0.0
 40
0.7534625946900548
 41
0.7534625946900548
  0
SEQEND
  5
A1C
  8
PROFILEEDGES
  0
POLYLINE
  5
66A
  8
PROFILEEDGES
 66
     1
 10
0.0
 20
0.0
 30
0.0
  0
VERTEX
  5
8C0
  8
PROFILEEDGES
 10
117.7195076727084
 20
-70.85530325378907
 30
0.0
 40
0.7534625946900548
 41
0.7534625946900548
  0
VERTEX
  5
8C1
  8
PROFILEEDGES
 10
117.7195076727085
 20
-82.16398258314618
 30
0.0
 40
0.7534625946900548
 41
0.7534625946900548
  0
SEQEND
  5
A1D
  8
PROFILEEDGES
  0
POLYLINE
  5
66B
  8
PROFILEEDGES
 66
     1
 10
0.0
 20
0.0
 30
0.0
  0
VERTEX
  5
8C2
  8
PROFILEEDGES
 10
117.7195076727084
 20
-70.85530325378907
 30
0.0
 40
0.7534625946900548
 41
0.7534625946900548
  0
VERTEX
  5
8C3
  8
PROFILEEDGES
 10
117.7195076727081
 20
-68.37898635684726
 30
0.0
 40
0.7534625946900548
 41
0.7534625946900548
  0
SEQEND
  5
A1E
  8
PROFILEEDGES
  0
POLYLINE
  5
66C
  8
PROFILEEDGES
 66
     1
 10
0.0
 20
0.0
 30
0.0
  0
VERTEX
  5
8C4
  8
PROFILEEDGES
 10
117.7195076727077
 20
-67.93952559153766
 30
0.0
 40
0.7534625946900548
 41
0.7534625946900548
  0
VERTEX
  5
8C5
  8
PROFILEEDGES
 10
117.7195076727077
 20
-52.80773681597536
 30
0.0
 40
0.7534625946900548
 41
0.7534625946900548
  0
SEQEND
  5
A1F
  8
PROFILEEDGES
  0
POLYLINE
  5
66D
  8
PROFILEEDGES
 66
     1
 10
0.0
 20
0.0
 30
0.0
  0
VERTEX
  5
8C6
  8
PROFILEEDGES
 10
117.7195076727077
 20
-52.80773681597536
 30
0.0
 40
0.7534625946900548
 41
0.7534625946900548
  0
VERTEX
  5
8C7
  8
PROFILEEDGES
 10
117.7195076727087
 20
-42.77245722253299
 30
0.0
 40
0.7534625946900548
 41
0.7534625946900548
  0
SEQEND
  5
A20
  8
PROFILEEDGES
  0
POLYLINE
  5
66E
  8
PROFILEEDGES
 66
     1
 10
0.0
 20
0.0
 30
0.0
  0
VERTEX
  5
8C8
  8
PROFILEEDGES
 10
117.7195076727091
 20
-42.30774698305584
 30
0.0
 40
0.7534625946900548
 41
0.7534625946900548
  0
VERTEX
  5
8C9
  8
PROFILEEDGES
 10
117.719507672709
 20
-37.6038153417661
 30
0.0
 40
0.7534625946900548
 41
0.7534625946900548
  0
SEQEND
  5
A21
  8
PROFILEEDGES
  0
POLYLINE
  5
66F
  8
PROFILEEDGES
 66
     1
 10
0.0
 20
0.0
 30
0.0
  0
VERTEX
  5
8CA
  8
PROFILEEDGES
 10
117.7195076727076
 20
-36.50175064440749
 30
0.0
 40
0.7534625946900548
 41
0.7534625946900548
  0
VERTEX
  5
8CB
  8
PROFILEEDGES
 10
117.7195076727075
 20
-26.26744226246404
 30
0.0
 40
0.7534625946900548
 41
0.7534625946900548
  0
SEQEND
  5
A22
  8
PROFILEEDGES
  0
POLYLINE
  5
670
  8
PROFILEEDGES
 66
     1
 10
0.0
 20
0.0
 30
0.0
  0
VERTEX
  5
8CC
  8
PROFILEEDGES
 10
110.0995076727077
 20
-68.37898635684716
 30
0.0
 40
0.7534625946900548
 41
0.7534625946900548
  0
VERTEX
  5
8CD
  8
PROFILEEDGES
 10
110.0995076727077
 20
-70.8553032537891
 30
0.0
 40
0.7534625946900548
 41
0.7534625946900548
  0
SEQEND
  5
A23
  8
PROFILEEDGES
  0
POLYLINE
  5
671
  8
PROFILEEDGES
 66
     1
 10
0.0
 20
0.0
 30
0.0
  0
VERTEX
  5
8CE
  8
PROFILEEDGES
 10
110.0995076727083
 20
-85.28091432211222
 30
0.0
 40
0.7534625946900548
 41
0.7534625946900548
  0
VERTEX
  5
8CF
  8
PROFILEEDGES
 10
110.099507672708
 20
-82.16398258314607
 30
0.0
 40
0.7534625946900548
 41
0.7534625946900548
  0
SEQEND
  5
A24
  8
PROFILEEDGES
  0
POLYLINE
  5
672
  8
PROFILEEDGES
 66
     1
 10
0.0
 20
0.0
 30
0.0
  0
VERTEX
  5
8D0
  8
PROFILEEDGES
 10
110.0995076727088
 20
-21.56351062117428
 30
0.0
 40
0.7534625946900548
 41
0.7534625946900548
  0
VERTEX
  5
8D1
  8
PROFILEEDGES
 10
110.0995076727075
 20
-26.26744226246404
 30
0.0
 40
0.7534625946900548
 41
0.7534625946900548
  0
SEQEND
  5
A25
  8
PROFILEEDGES
  0
POLYLINE
  5
673
  8
PROFILEEDGES
 66
     1
 10
0.0
 20
0.0
 30
0.0
  0
VERTEX
  5
8D2
  8
PROFILEEDGES
 10
79.6195076727087
 20
-49.2512346820559
 30
0.0
 40
0.7534625946900548
 41
0.7534625946900548
  0
VERTEX
  5
8D3
  8
PROFILEEDGES
 10
79.6195076727087
 20
-51.52546138971731
 30
0.0
 40
0.7534625946900548
 41
0.7534625946900548
  0
SEQEND
  5
A26
  8
PROFILEEDGES
  0
POLYLINE
  5
674
  8
PROFILEEDGES
 66
     1
 10
0.0
 20
0.0
 30
0.0
  0
VERTEX
  5
8D4
  8
PROFILEEDGES
 10
110.0995076727073
 20
-37.60381534176592
 30
0.0
 40
0.7534625946900548
 41
0.7534625946900548
  0
VERTEX
  5
8D5
  8
PROFILEEDGES
 10
110.0995076727074
 20
-42.30774698305547
 30
0.0
 40
0.7534625946900548
 41
0.7534625946900548
  0
SEQEND
  5
A27
  8
PROFILEEDGES
  0
LINE
  5
675
  8
0
 10
94.36785913328231
 20
-36.06473537153864
 30
0.0
 11
110.0995076727073
 21
-37.60381534176592
 31
0.0
  0
POLYLINE
  5
676
  8
PROFILEEDGES
 66
     1
 10
0.0
 20
0.0
 30
0.0
  0
VERTEX
  5
8D6
  8
PROFILEEDGES
 10
79.61950767270903
 20
-34.19560944713726
 30
0.0
 40
0.7534625946900548
 41
0.7534625946900548
  0
VERTEX
  5
8D7
  8
PROFILEEDGES
 10
79.61950767270905
 20
-35.83177921239145
 30
0.0
 40
0.7534625946900548
 41
0.7534625946900548
  0
SEQEND
  5
A28
  8
PROFILEEDGES
  0
POLYLINE
  5
677
  8
PROFILEEDGES
 66
     1
 10
0.0
 20
0.0
 30
0.0
  0
VERTEX
  5
8D8
  8
PROFILEEDGES
 10
79.61950767270905
 20
-33.56785532006112
 30
0.0
 40
0.7534625946900548
 41
0.7534625946900548
  0
VERTEX
  5
8D9
  8
PROFILEEDGES
 10
79.61950767270903
 20
-34.19560944713726
 30
0.0
 40
0.7534625946900548
 41
0.7534625946900548
  0
SEQEND
  5
A29
  8
PROFILEEDGES
  0
POLYLINE
  5
678
  8
PROFILEEDGES
 66
     1
 10
0.0
 20
0.0
 30
0.0
  0
VERTEX
  5
8DA
  8
PROFILEEDGES
 10
88.18403016365487
 20
-53.35156041916095
 30
0.0
 40
0.7534625946900548
 41
0.7534625946900548
  0
VERTEX
  5
8DB
  8
PROFILEEDGES
 10
79.6195076727087
 20
-51.52546138971731
 30
0.0
 40
0.7534625946900548
 41
0.7534625946900548
  0
SEQEND
  5
A2A
  8
PROFILEEDGES
  0
POLYLINE
  5
679
  8
PROFILEEDGES
 66
     1
 10
0.0
 20
0.0
 30
0.0
  0
VERTEX
  5
8DC
  8
PROFILEEDGES
 10
110.0995076727086
 20
-52.80773681597534
 30
0.0
 40
0.7534625946900548
 41
0.7534625946900548
  0
VERTEX
  5
8DD
  8
PROFILEEDGES
 10
110.0995076727087
 20
-42.77245722253299
 30
0.0
 40
0.7534625946900548
 41
0.7534625946900548
  0
SEQEND
  5
A2B
  8
PROFILEEDGES
  0
POLYLINE
  5
67A
  8
PROFILEEDGES
 66
     1
 10
0.0
 20
0.0
 30
0.0
  0
VERTEX
  5
8DE
  8
PROFILEEDGES
 10
88.10590980065335
 20
-64.7754819084169
 30
0.0
 40
0.7534625946900548
 41
0.7534625946900548
  0
VERTEX
  5
8DF
  8
PROFILEEDGES
 10
109.9425195845726
 20
-68.35331677721294
 30
0.0
 40
0.7534625946900548
 41
0.7534625946900548
  0
SEQEND
  5
A2C
  8
PROFILEEDGES
  0
POLYLINE
  5
67B
  8
PROFILEEDGES
 66
     1
 10
0.0
 20
0.0
 30
0.0
  0
VERTEX
  5
8E0
  8
PROFILEEDGES
 10
79.61950767270768
 20
-61.46074813201473
 30
0.0
 40
0.7534625946900548
 41
0.7534625946900548
  0
VERTEX
  5
8E1
  8
PROFILEEDGES
 10
79.61950767270808
 20
-63.27518167690967
 30
0.0
 40
0.7534625946900548
 41
0.7534625946900548
  0
SEQEND
  5
A2D
  8
PROFILEEDGES
  0
POLYLINE
  5
67C
  8
PROFILEEDGES
 66
     1
 10
0.0
 20
0.0
 30
0.0
  0
VERTEX
  5
8E2
  8
PROFILEEDGES
 10
109.9425195845726
 20
-68.35331677721294
 30
0.0
 40
0.7534625946900548
 41
0.7534625946900548
  0
VERTEX
  5
8E3
  8
PROFILEEDGES
 10
85.56514241885122
 20
-72.35156689607192
 30
0.0
 40
0.7534625946900548
 41
0.7534625946900548
  0
SEQEND
  5
A2E
  8
PROFILEEDGES
  0
POLYLINE
  5
67D
  8
PROFILEEDGES
 66
     1
 10
0.0
 20
0.0
 30
0.0
  0
VERTEX
  5
8E4
  8
PROFILEEDGES
 10
110.0995076727077
 20
-70.8553032537891
 30
0.0
 40
0.7534625946900548
 41
0.7534625946900548
  0
VERTEX
  5
8E5
  8
PROFILEEDGES
 10
110.099507672708
 20
-82.16398258314607
 30
0.0
 40
0.7534625946900548
 41
0.7534625946900548
  0
SEQEND
  5
A2F
  8
PROFILEEDGES
  0
LINE
  5
67E
  8
0
 10
88.10590980065368
 20
-72.77943660145895
 30
0.0
 11
110.0995076727077
 21
-70.8553032537891
 31
0.0
  0
POLYLINE
  5
67F
  8
PROFILEEDGES
 66
     1
 10
0.0
 20
0.0
 30
0.0
  0
VERTEX
  5
8E6
  8
PROFILEEDGES
 10
79.61950767270844
 20
-73.4314425052319
 30
0.0
 40
0.7534625946900548
 41
0.7534625946900548
  0
VERTEX
  5
8E7
  8
PROFILEEDGES
 10
79.61950767270844
 20
-75.68279520097595
 30
0.0
 40
0.7534625946900548
 41
0.7534625946900548
  0
SEQEND
  5
A30
  8
PROFILEEDGES
  0
LINE
  5
680
  8
0
 10
85.56514241885083
 20
-63.70904265690773
 30
0.0
 11
93.38165332731054
 21
-64.38600663141473
 31
0.0
  0
POLYLINE
  5
681
  8
PROFILEEDGES
 66
     1
 10
0.0
 20
0.0
 30
0.0
  0
VERTEX
  5
8E8
  8
PROFILEEDGES
 10
79.61950767270768
 20
-59.18652142435332
 30
0.0
 40
0.7534625946900548
 41
0.7534625946900548
  0
VERTEX
  5
8E9
  8
PROFILEEDGES
 10
79.61950767270768
 20
-61.46074813201473
 30
0.0
 40
0.7534625946900548
 41
0.7534625946900548
  0
SEQEND
  5
A31
  8
PROFILEEDGES
  0
LINE
  5
682
  8
0
 10
110.0995076727076
 20
-36.50175064440747
 30
0.0
 11
90.90925711592317
 21
-32.47087405727778
 31
0.0
  0
POLYLINE
  5
683
  8
PROFILEEDGES
 66
     1
 10
0.0
 20
0.0
 30
0.0
  0
VERTEX
  5
8EA
  8
PROFILEEDGES
 10
79.61950767270758
 20
-28.04951987811206
 30
0.0
 40
0.7534625946900548
 41
0.7534625946900548
  0
VERTEX
  5
8EB
  8
PROFILEEDGES
 10
79.61950767270757
 20
-29.67564815709287
 30
0.0
 40
0.7534625946900548
 41
0.7534625946900548
  0
SEQEND
  5
A32
  8
PROFILEEDGES
  0
POLYLINE
  5
684
  8
PROFILEEDGES
 66
     1
 10
0.0
 20
0.0
 30
0.0
  0
VERTEX
  5
8EC
  8
PROFILEEDGES
 10
79.61950767270757
 20
-29.67564815709287
 30
0.0
 40
0.7534625946900548
 41
0.7534625946900548
  0
VERTEX
  5
8ED
  8
PROFILEEDGES
 10
79.61950767270758
 20
-30.32145572559844
 30
0.0
 40
0.7534625946900548
 41
0.7534625946900548
  0
SEQEND
  5
A33
  8
PROFILEEDGES
  0
POLYLINE
  5
685
  8
PROFILEEDGES
 66
     1
 10
0.0
 20
0.0
 30
0.0
  0
VERTEX
  5
8EE
  8
PROFILEEDGES
 10
79.61950767270757
 20
24.84157363994458
 30
0.0
 40
0.7534625946900548
 41
0.7534625946900548
  0
VERTEX
  5
8EF
  8
PROFILEEDGES
 10
79.61950767270757
 20
24.21381951286847
 30
0.0
 40
0.7534625946900548
 41
0.7534625946900548
  0
SEQEND
  5
A34
  8
PROFILEEDGES
  0
POLYLINE
  5
686
  8
PROFILEEDGES
 66
     1
 10
0.0
 20
0.0
 30
0.0
  0
VERTEX
  5
8F0
  8
PROFILEEDGES
 10
79.61950767270757
 20
24.21381951286847
 30
0.0
 40
0.7534625946900548
 41
0.7534625946900548
  0
VERTEX
  5
8F1
  8
PROFILEEDGES
 10
79.61950767270758
 20
22.58769123388766
 30
0.0
 40
0.7534625946900548
 41
0.7534625946900548
  0
SEQEND
  5
A35
  8
PROFILEEDGES
  0
POLYLINE
  5
687
  8
PROFILEEDGES
 66
     1
 10
0.0
 20
0.0
 30
0.0
  0
VERTEX
  5
8F2
  8
PROFILEEDGES
 10
97.79112311466362
 20
-55.35594699657168
 30
0.0
 40
0.7534625946900548
 41
0.7534625946900548
  0
VERTEX
  5
8F3
  8
PROFILEEDGES
 10
88.10590980065294
 20
-57.37689411507271
 30
0.0
 40
0.7534625946900548
 41
0.7534625946900548
  0
SEQEND
  5
A36
  8
PROFILEEDGES
  0
POLYLINE
  5
688
  8
PROFILEEDGES
 66
     1
 10
0.0
 20
0.0
 30
0.0
  0
VERTEX
  5
8F4
  8
PROFILEEDGES
 10
110.0995076727086
 20
-52.80773681597534
 30
0.0
 40
0.7534625946900548
 41
0.7534625946900548
  0
VERTEX
  5
8F5
  8
PROFILEEDGES
 10
97.79112311466362
 20
-55.35594699657168
 30
0.0
 40
0.7534625946900548
 41
0.7534625946900548
  0
SEQEND
  5
A37
  8
PROFILEEDGES
  0
POLYLINE
  5
689
  8
PROFILEEDGES
 66
     1
 10
0.0
 20
0.0
 30
0.0
  0
VERTEX
  5
8F6
  8
PROFILEEDGES
 10
110.0995076727077
 20
-67.93952559153765
 30
0.0
 40
0.7534625946900548
 41
0.7534625946900548
  0
VERTEX
  5
8F7
  8
PROFILEEDGES
 10
110.0995076727086
 20
-52.80773681597534
 30
0.0
 40
0.7534625946900548
 41
0.7534625946900548
  0
SEQEND
  5
A38
  8
PROFILEEDGES
  0
POLYLINE
  5
68A
  8
PROFILEEDGES
 66
     1
 10
0.0
 20
0.0
 30
0.0
  0
VERTEX
  5
8F8
  8
PROFILEEDGES
 10
79.61950767270898
 20
-1.603689323217097
 30
0.0
 40
0.7534625946900548
 41
0.7534625946900548
  0
VERTEX
  5
8F9
  8
PROFILEEDGES
 10
79.61950767270734
 20
-3.858139321007302
 30
0.0
 40
0.7534625946900548
 41
0.7534625946900548
  0
SEQEND
  5
A39
  8
PROFILEEDGES
  0
LINE
  5
68B
  8
0
 10
91.86950966425889
 20
27.21288797766066
 30
0.0
 11
110.0995076727073
 21
31.03992200018303
 31
0.0
  0
LINE
  5
68C
  8
0
 10
110.0995076727073
 20
20.80561361823966
 30
0.0
 11
90.90925711592314
 21
22.69002025771084
 31
0.0
  0
POLYLINE
  5
68D
  8
PROFILEEDGES
 66
     1
 10
0.0
 20
0.0
 30
0.0
  0
VERTEX
  5
8FA
  8
PROFILEEDGES
 10
110.0995076727088
 20
16.10168197694988
 30
0.0
 40
0.7534625946900548
 41
0.7534625946900548
  0
VERTEX
  5
8FB
  8
PROFILEEDGES
 10
110.0995076727073
 20
20.80561361823966
 30
0.0
 40
0.7534625946900548
 41
0.7534625946900548
  0
SEQEND
  5
A3A
  8
PROFILEEDGES
  0
LINE
  5
68E
  8
0
 10
85.85412127440176
 20
58.2718597018003
 30
0.0
 11
93.38028240109846
 21
58.92388658542387
 31
0.0
  0
POLYLINE
  5
68F
  8
PROFILEEDGES
 66
     1
 10
0.0
 20
0.0
 30
0.0
  0
VERTEX
  5
8FC
  8
PROFILEEDGES
 10
79.61950767270808
 20
57.81335303268524
 30
0.0
 40
0.7534625946900548
 41
0.7534625946900548
  0
VERTEX
  5
8FD
  8
PROFILEEDGES
 10
79.61950767270768
 20
55.99891948779032
 30
0.0
 40
0.7534625946900548
 41
0.7534625946900548
  0
SEQEND
  5
A3B
  8
PROFILEEDGES
  0
POLYLINE
  5
690
  8
PROFILEEDGES
 66
     1
 10
0.0
 20
0.0
 30
0.0
  0
VERTEX
  5
8FE
  8
PROFILEEDGES
 10
110.0995076727088
 20
-10.3449493209483
 30
0.0
 40
0.7534625946900548
 41
0.7534625946900548
  0
VERTEX
  5
8FF
  8
PROFILEEDGES
 10
110.0995076727073
 20
4.883120676723531
 30
0.0
 40
0.7534625946900548
 41
0.7534625946900548
  0
SEQEND
  5
A3C
  8
PROFILEEDGES
  0
POLYLINE
  5
691
  8
PROFILEEDGES
 66
     1
 10
0.0
 20
0.0
 30
0.0
  0
VERTEX
  5
900
  8
PROFILEEDGES
 10
110.0995076727074
 20
32.1419866975415
 30
0.0
 40
0.7534625946900548
 41
0.7534625946900548
  0
VERTEX
  5
901
  8
PROFILEEDGES
 10
110.0995076727091
 20
36.8459183388314
 30
0.0
 40
0.7534625946900548
 41
0.7534625946900548
  0
SEQEND
  5
A3D
  8
PROFILEEDGES
  0
POLYLINE
  5
692
  8
PROFILEEDGES
 66
     1
 10
0.0
 20
0.0
 30
0.0
  0
VERTEX
  5
902
  8
PROFILEEDGES
 10
79.61950767270905
 20
30.35990908189362
 30
0.0
 40
0.7534625946900548
 41
0.7534625946900548
  0
VERTEX
  5
903
  8
PROFILEEDGES
 10
79.61950767270903
 20
28.73378080291281
 30
0.0
 40
0.7534625946900548
 41
0.7534625946900548
  0
SEQEND
  5
A3E
  8
PROFILEEDGES
  0
POLYLINE
  5
693
  8
PROFILEEDGES
 66
     1
 10
0.0
 20
0.0
 30
0.0
  0
VERTEX
  5
904
  8
PROFILEEDGES
 10
79.61950767270903
 20
28.73378080291281
 30
0.0
 40
0.7534625946900548
 41
0.7534625946900548
  0
VERTEX
  5
905
  8
PROFILEEDGES
 10
79.61950767270905
 20
28.08797323440724
 30
0.0
 40
0.7534625946900548
 41
0.7534625946900548
  0
SEQEND
  5
A3F
  8
PROFILEEDGES
  0
POLYLINE
  5
694
  8
PROFILEEDGES
 66
     1
 10
0.0
 20
0.0
 30
0.0
  0
VERTEX
  5
906
  8
PROFILEEDGES
 10
79.61950767270768
 20
55.99891948779032
 30
0.0
 40
0.7534625946900548
 41
0.7534625946900548
  0
VERTEX
  5
907
  8
PROFILEEDGES
 10
79.61950767270768
 20
53.71866586517545
 30
0.0
 40
0.7534625946900548
 41
0.7534625946900548
  0
SEQEND
  5
A40
  8
PROFILEEDGES
  0
POLYLINE
  5
695
  8
PROFILEEDGES
 66
     1
 10
0.0
 20
0.0
 30
0.0
  0
VERTEX
  5
908
  8
PROFILEEDGES
 10
88.18403016365427
 20
59.32653922657532
 30
0.0
 40
0.7534625946900548
 41
0.7534625946900548
  0
VERTEX
  5
909
  8
PROFILEEDGES
 10
109.9425195845725
 20
62.89147876070427
 30
0.0
 40
0.7534625946900548
 41
0.7534625946900548
  0
SEQEND
  5
A41
  8
PROFILEEDGES
  0
POLYLINE
  5
696
  8
PROFILEEDGES
 66
     1
 10
0.0
 20
0.0
 30
0.0
  0
VERTEX
  5
90A
  8
PROFILEEDGES
 10
148.1995076727077
 20
-61.46074813201474
 30
0.0
 40
0.7534625946900548
 41
0.7534625946900548
  0
VERTEX
  5
90B
  8
PROFILEEDGES
 10
148.1995076727077
 20
-59.18652142435333
 30
0.0
 40
0.7534625946900548
 41
0.7534625946900548
  0
SEQEND
  5
A42
  8
PROFILEEDGES
  0
ENDSEC
  0
EOF
